  0
SECTION
  2
HEADER
  9
$ACADVER
  1
AC1027
  9
$ACADMAINTVER
 70
   125
  9
$DWGCODEPAGE
  3
ANSI_1252
  9
$LASTSAVEDBY
  1
Lebatard
  9
$REQUIREDVERSIONS
160
                 0
  9
$INSBASE
 10
0.0
 20
0.0
 30
0.0
  9
$EXTMIN
 10
42.43450883172409
 20
-1213.513497974702
 30
0.0
  9
$EXTMAX
 10
5847.093187364131
 20
2149.605999391297
 30
0.0
  9
$LIMMIN
 10
0.0
 20
0.0
  9
$LIMMAX
 10
12.0
 20
9.0
  9
$ORTHOMODE
 70
     0
  9
$REGENMODE
 70
     1
  9
$FILLMODE
 70
     1
  9
$QTEXTMODE
 70
     0
  9
$MIRRTEXT
 70
     0
  9
$LTSCALE
 40
1.0
  9
$ATTMODE
 70
     1
  9
$TEXTSIZE
 40
0.2
  9
$TRACEWID
 40
0.05
  9
$TEXTSTYLE
  7
Standard
  9
$CLAYER
  8
0
  9
$CELTYPE
  6
Continuous
  9
$CECOLOR
 62
   256
  9
$CELTSCALE
 40
1.0
  9
$DISPSILH
 70
     0
  9
$DIMSCALE
 40
1.0
  9
$DIMASZ
 40
0.18
  9
$DIMEXO
 40
0.0625
  9
$DIMDLI
 40
0.38
  9
$DIMRND
 40
0.0
  9
$DIMDLE
 40
0.0
  9
$DIMEXE
 40
0.18
  9
$DIMTP
 40
0.0
  9
$DIMTM
 40
0.0
  9
$DIMTXT
 40
0.18
  9
$DIMCEN
 40
0.09
  9
$DIMTSZ
 40
0.0
  9
$DIMTOL
 70
     0
  9
$DIMLIM
 70
     0
  9
$DIMTIH
 70
     1
  9
$DIMTOH
 70
     1
  9
$DIMSE1
 70
     0
  9
$DIMSE2
 70
     0
  9
$DIMTAD
 70
     0
  9
$DIMZIN
 70
     0
  9
$DIMBLK
  1

  9
$DIMASO
 70
     1
  9
$DIMSHO
 70
     1
  9
$DIMPOST
  1

  9
$DIMAPOST
  1

  9
$DIMALT
 70
     0
  9
$DIMALTD
 70
     2
  9
$DIMALTF
 40
25.4
  9
$DIMLFAC
 40
1.0
  9
$DIMTOFL
 70
     0
  9
$DIMTVP
 40
0.0
  9
$DIMTIX
 70
     0
  9
$DIMSOXD
 70
     0
  9
$DIMSAH
 70
     0
  9
$DIMBLK1
  1

  9
$DIMBLK2
  1

  9
$DIMSTYLE
  2
Standard
  9
$DIMCLRD
 70
     0
  9
$DIMCLRE
 70
     0
  9
$DIMCLRT
 70
     0
  9
$DIMTFAC
 40
1.0
  9
$DIMGAP
 40
0.09
  9
$DIMJUST
 70
     0
  9
$DIMSD1
 70
     0
  9
$DIMSD2
 70
     0
  9
$DIMTOLJ
 70
     1
  9
$DIMTZIN
 70
     0
  9
$DIMALTZ
 70
     0
  9
$DIMALTTZ
 70
     0
  9
$DIMUPT
 70
     0
  9
$DIMDEC
 70
     4
  9
$DIMTDEC
 70
     4
  9
$DIMALTU
 70
     2
  9
$DIMALTTD
 70
     2
  9
$DIMTXSTY
  7
Standard
  9
$DIMAUNIT
 70
     0
  9
$DIMADEC
 70
     0
  9
$DIMALTRND
 40
0.0
  9
$DIMAZIN
 70
     0
  9
$DIMDSEP
 70
    46
  9
$DIMATFIT
 70
     3
  9
$DIMFRAC
 70
     0
  9
$DIMLDRBLK
  1

  9
$DIMLUNIT
 70
     2
  9
$DIMLWD
 70
    -2
  9
$DIMLWE
 70
    -2
  9
$DIMTMOVE
 70
     0
  9
$DIMFXL
 40
1.0
  9
$DIMFXLON
 70
     0
  9
$DIMJOGANG
 40
0.7853981633974483
  9
$DIMTFILL
 70
     0
  9
$DIMTFILLCLR
 70
     0
  9
$DIMARCSYM
 70
     0
  9
$DIMLTYPE
  6

  9
$DIMLTEX1
  6

  9
$DIMLTEX2
  6

  9
$DIMTXTDIRECTION
 70
     0
  9
$LUNITS
 70
     2
  9
$LUPREC
 70
     4
  9
$SKETCHINC
 40
0.1
  9
$FILLETRAD
 40
0.0
  9
$AUNITS
 70
     0
  9
$AUPREC
 70
     0
  9
$MENU
  1
.
  9
$ELEVATION
 40
0.0
  9
$PELEVATION
 40
0.0
  9
$THICKNESS
 40
0.0
  9
$LIMCHECK
 70
     0
  9
$CHAMFERA
 40
0.0
  9
$CHAMFERB
 40
0.0
  9
$CHAMFERC
 40
0.0
  9
$CHAMFERD
 40
0.0
  9
$SKPOLY
 70
     0
  9
$TDCREATE
 40
2460993.445740741
  9
$TDUCREATE
 40
2460993.404074074
  9
$TDUPDATE
 40
2460993.455567130
  9
$TDUUPDATE
 40
2460993.413900463
  9
$TDINDWG
 40
0.0033333333
  9
$TDUSRTIMER
 40
0.0033333333
  9
$USRTIMER
 70
     1
  9
$ANGBASE
 50
0.0
  9
$ANGDIR
 70
     0
  9
$PDMODE
 70
     0
  9
$PDSIZE
 40
0.0
  9
$PLINEWID
 40
0.0
  9
$SPLFRAME
 70
     0
  9
$SPLINETYPE
 70
     6
  9
$SPLINESEGS
 70
     8
  9
$HANDSEED
  5
1074
  9
$SURFTAB1
 70
     6
  9
$SURFTAB2
 70
     6
  9
$SURFTYPE
 70
     6
  9
$SURFU
 70
     6
  9
$SURFV
 70
     6
  9
$UCSBASE
  2

  9
$UCSNAME
  2

  9
$UCSORG
 10
0.0
 20
0.0
 30
0.0
  9
$UCSXDIR
 10
1.0
 20
0.0
 30
0.0
  9
$UCSYDIR
 10
0.0
 20
1.0
 30
0.0
  9
$UCSORTHOREF
  2

  9
$UCSORTHOVIEW
 70
     0
  9
$UCSORGTOP
 10
0.0
 20
0.0
 30
0.0
  9
$UCSORGBOTTOM
 10
0.0
 20
0.0
 30
0.0
  9
$UCSORGLEFT
 10
0.0
 20
0.0
 30
0.0
  9
$UCSORGRIGHT
 10
0.0
 20
0.0
 30
0.0
  9
$UCSORGFRONT
 10
0.0
 20
0.0
 30
0.0
  9
$UCSORGBACK
 10
0.0
 20
0.0
 30
0.0
  9
$PUCSBASE
  2

  9
$PUCSNAME
  2

  9
$PUCSORG
 10
0.0
 20
0.0
 30
0.0
  9
$PUCSXDIR
 10
1.0
 20
0.0
 30
0.0
  9
$PUCSYDIR
 10
0.0
 20
1.0
 30
0.0
  9
$PUCSORTHOREF
  2

  9
$PUCSORTHOVIEW
 70
     0
  9
$PUCSORGTOP
 10
0.0
 20
0.0
 30
0.0
  9
$PUCSORGBOTTOM
 10
0.0
 20
0.0
 30
0.0
  9
$PUCSORGLEFT
 10
0.0
 20
0.0
 30
0.0
  9
$PUCSORGRIGHT
 10
0.0
 20
0.0
 30
0.0
  9
$PUCSORGFRONT
 10
0.0
 20
0.0
 30
0.0
  9
$PUCSORGBACK
 10
0.0
 20
0.0
 30
0.0
  9
$USERI1
 70
     0
  9
$USERI2
 70
     0
  9
$USERI3
 70
     0
  9
$USERI4
 70
     0
  9
$USERI5
 70
     0
  9
$USERR1
 40
0.0
  9
$USERR2
 40
0.0
  9
$USERR3
 40
0.0
  9
$USERR4
 40
0.0
  9
$USERR5
 40
0.0
  9
$WORLDVIEW
 70
     1
  9
$SHADEDGE
 70
     3
  9
$SHADEDIF
 70
    70
  9
$TILEMODE
 70
     1
  9
$MAXACTVP
 70
    64
  9
$PINSBASE
 10
0.0
 20
0.0
 30
0.0
  9
$PLIMCHECK
 70
     0
  9
$PEXTMIN
 10
1.000000000000000E+20
 20
1.000000000000000E+20
 30
1.000000000000000E+20
  9
$PEXTMAX
 10
-1.000000000000000E+20
 20
-1.000000000000000E+20
 30
-1.000000000000000E+20
  9
$PLIMMIN
 10
0.0
 20
0.0
  9
$PLIMMAX
 10
12.0
 20
9.0
  9
$UNITMODE
 70
     0
  9
$VISRETAIN
 70
     1
  9
$PLINEGEN
 70
     0
  9
$PSLTSCALE
 70
     1
  9
$TREEDEPTH
 70
  3020
  9
$CMLSTYLE
  2
Standard
  9
$CMLJUST
 70
     0
  9
$CMLSCALE
 40
1.0
  9
$PROXYGRAPHICS
 70
     1
  9
$MEASUREMENT
 70
     0
  9
$CELWEIGHT
370
    -1
  9
$ENDCAPS
280
     0
  9
$JOINSTYLE
280
     0
  9
$LWDISPLAY
290
     0
  9
$INSUNITS
 70
     0
  9
$HYPERLINKBASE
  1

  9
$STYLESHEET
  1

  9
$XEDIT
290
     1
  9
$CEPSNTYPE
380
     0
  9
$PSTYLEMODE
290
     1
  9
$FINGERPRINTGUID
  2
{697E70F8-8D14-674C-B868-4C3A6A240BCF}
  9
$VERSIONGUID
  2
{BDF78A3C-98CE-EC48-AAE6-672F64B1AF0A}
  9
$EXTNAMES
290
     1
  9
$PSVPSCALE
 40
0.0
  9
$OLESTARTUP
290
     0
  9
$SORTENTS
280
   127
  9
$INDEXCTL
280
     0
  9
$HIDETEXT
280
     0
  9
$XCLIPFRAME
280
     2
  9
$HALOGAP
280
     0
  9
$OBSCOLOR
 70
   257
  9
$OBSLTYPE
280
     0
  9
$INTERSECTIONDISPLAY
280
     0
  9
$INTERSECTIONCOLOR
 70
   257
  9
$DIMASSOC
280
     1
  9
$PROJECTNAME
  1

  9
$CAMERADISPLAY
290
     0
  9
$LENSLENGTH
 40
50.0
  9
$CAMERAHEIGHT
 40
0.0
  9
$STEPSPERSEC
 40
2.0
  9
$STEPSIZE
 40
6.0
  9
$3DDWFPREC
 40
2.0
  9
$PSOLWIDTH
 40
0.25
  9
$PSOLHEIGHT
 40
4.0
  9
$LOFTANG1
 40
1.570796326794896
  9
$LOFTANG2
 40
1.570796326794896
  9
$LOFTMAG1
 40
0.0
  9
$LOFTMAG2
 40
0.0
  9
$LOFTPARAM
 70
     7
  9
$LOFTNORMALS
280
     1
  9
$LATITUDE
 40
37.795
  9
$LONGITUDE
 40
-122.394
  9
$NORTHDIRECTION
 40
0.0
  9
$TIMEZONE
 70
 -8000
  9
$LIGHTGLYPHDISPLAY
280
     1
  9
$TILEMODELIGHTSYNCH
280
     1
  9
$CMATERIAL
347
11
  9
$SOLIDHIST
280
     0
  9
$SHOWHIST
280
     1
  9
$DWFFRAME
280
     2
  9
$DGNFRAME
280
     0
  9
$REALWORLDSCALE
290
     1
  9
$INTERFERECOLOR
 62
     1
  9
$INTERFEREOBJVS
345
33
  9
$INTERFEREVPVS
346
30
  9
$CSHADOW
280
     0
  9
$SHADOWPLANELOCATION
 40
0.0
  0
ENDSEC
  0
SECTION
  2
CLASSES
  0
CLASS
  1
ACDBDICTIONARYWDFLT
  2
AcDbDictionaryWithDefault
  3
ObjectDBX Classes
 90
        0
 91
        1
280
     0
281
     0
  0
CLASS
  1
MATERIAL
  2
AcDbMaterial
  3
ObjectDBX Classes
 90
     1153
 91
        3
280
     0
281
     0
  0
CLASS
  1
VISUALSTYLE
  2
AcDbVisualStyle
  3
ObjectDBX Classes
 90
     4095
 91
       24
280
     0
281
     0
  0
CLASS
  1
SCALE
  2
AcDbScale
  3
ObjectDBX Classes
 90
     1153
 91
       17
280
     0
281
     0
  0
CLASS
  1
TABLESTYLE
  2
AcDbTableStyle
  3
ObjectDBX Classes
 90
     4095
 91
        1
280
     0
281
     0
  0
CLASS
  1
MLEADERSTYLE
  2
AcDbMLeaderStyle
  3
ACDB_MLEADERSTYLE_CLASS
 90
     4095
 91
        1
280
     0
281
     0
  0
CLASS
  1
ACDBSECTIONVIEWSTYLE
  2
AcDbSectionViewStyle
  3
ObjectDBX Classes
 90
     1025
 91
        1
280
     0
281
     0
  0
CLASS
  1
ACDBDETAILVIEWSTYLE
  2
AcDbDetailViewStyle
  3
ObjectDBX Classes
 90
     1025
 91
        1
280
     0
281
     0
  0
CLASS
  1
VARDICTIONARY
  2
CVarDictionary
  3
SPIKERNELAPP|Product Desc: CVarDictionary|Company: 2020 Technologies|WEB Address: www.2020spaces.com
 90
     3071
 91
        1
280
     0
281
     0
  0
CLASS
  1
EXACXREFPANELOBJECT
  2
ExAcXREFPanelObject
  3
EXAC_ESW
 90
     1025
 91
        0
280
     0
281
     0
  0
CLASS
  1
NPOCOLLECTION
  2
AcDbImpNonPersistentObjectsCollection
  3
ObjectDBX Classes
 90
     1153
 91
        0
280
     0
281
     0
  0
CLASS
  1
RAPIDRTRENDERSETTINGS
  2
AcDbRapidRTRenderSettings
  3
ObjectDBX Classes
 90
     1024
 91
        7
280
     0
281
     0
  0
CLASS
  1
ACAD_EVALUATION_GRAPH
  2
AcDbEvalGraph
  3
ObjectDBX Classes
 90
     1153
 91
        1
280
     0
281
     0
  0
CLASS
  1
ACAECUSTOBJ
  2
AcAeEditorObj
  3
AcAeEditorObj
 90
     1024
 91
        1
280
     0
281
     0
  0
CLASS
  1
ACDB_DYNAMICBLOCKPURGEPREVENTER_VERSION
  2
AcDbDynamicBlockPurgePreventer
  3
ObjectDBX Classes
 90
     1153
 91
        1
280
     0
281
     0
  0
CLASS
  1
SPIFILEHEADER
  2
CSPIFileHeader
  3
SPIKERNELAPP|Product Desc: CSPIFileHeader|Company: 2020 Technologies|WEB Address: www.2020spaces.com
 90
     3071
 91
        1
280
     0
281
     0
  0
CLASS
  1
SPIFILEHEADER
  2
CSPIFHVersion
  3
SPIKERNELAPP|Product Desc: CSPIFHVersion|Company: 2020 Technologies|WEB Address: www.2020spaces.com
 90
     3071
 91
        1
280
     0
281
     0
  0
CLASS
  1
DICTIONARYVAR
  2
AcDbDictionaryVar
  3
ObjectDBX Classes
 90
        0
 91
        9
280
     0
281
     0
  0
CLASS
  1
CELLSTYLEMAP
  2
AcDbCellStyleMap
  3
ObjectDBX Classes
 90
     1152
 91
        1
280
     0
281
     0
  0
CLASS
  1
MENTALRAYRENDERSETTINGS
  2
AcDbMentalRayRenderSettings
  3
SCENEOE
 90
     1024
 91
        1
280
     0
281
     0
  0
ENDSEC
  0
SECTION
  2
TABLES
  0
TABLE
  2
VPORT
  5
8
330
0
100
AcDbSymbolTable
 70
     1
1001
ACAD
1000
DbSaveVer
1071
      123
  0
VPORT
  5
FA4
330
8
100
AcDbSymbolTableRecord
100
AcDbViewportTableRecord
  2
*Active
 70
     0
 10
0.0
 20
0.0
 11
1.0
 21
1.0
 12
7732.583595563714
 22
-586.4620048983611
 13
0.0
 23
0.0
 14
1.0
 24
1.0
 15
0.0
 25
0.0
 16
0.0
 26
0.0
 36
1.0
 17
0.0
 27
0.0
 37
0.0
 40
6127.760842020878
 41
2.686882933709449
 42
50.0
 43
0.0
 44
0.0
 50
0.0
 51
0.0
 71
     0
 72
  1000
 73
     1
 74
     3
 75
     0
 76
     0
 77
     0
 78
     0
281
     0
 65
     1
110
0.0
120
0.0
130
0.0
111
1.0
121
0.0
131
0.0
112
0.0
122
1.0
132
0.0
 79
     0
146
0.0
348
2F
 60
     3
 61
     5
292
     1
282
     1
141
0.0
142
0.0
 63
   250
421
  3355443
1001
ACAD_NAV_VCDISPLAY
1070
     0
  0
ENDTAB
  0
TABLE
  2
LTYPE
  5
5
330
0
100
AcDbSymbolTable
 70
     2
  0
LTYPE
  5
5A
330
5
100
AcDbSymbolTableRecord
100
AcDbLinetypeTableRecord
  2
ByBlock
 70
     0
  3

 72
    65
 73
     0
 40
0.0
  0
LTYPE
  5
5B
330
5
100
AcDbSymbolTableRecord
100
AcDbLinetypeTableRecord
  2
ByLayer
 70
     0
  3

 72
    65
 73
     0
 40
0.0
  0
LTYPE
  5
5C
330
5
100
AcDbSymbolTableRecord
100
AcDbLinetypeTableRecord
  2
Continuous
 70
     0
  3
Solid line
 72
    65
 73
     0
 40
0.0
  0
ENDTAB
  0
TABLE
  2
LAYER
  5
2
102
{ACAD_XDICTIONARY
360
105B
102
}
330
0
100
AcDbSymbolTable
 70
     1
  0
LAYER
  5
54
102
{ACAD_XDICTIONARY
360
1020
102
}
330
2
100
AcDbSymbolTableRecord
100
AcDbLayerTableRecord
  2
0
 70
     0
 62
     7
  6
Continuous
370
    -3
390
F
347
21
348
0
  0
ENDTAB
  0
TABLE
  2
STYLE
  5
3
330
0
100
AcDbSymbolTable
 70
     1
  0
STYLE
  5
55
330
3
100
AcDbSymbolTableRecord
100
AcDbTextStyleTableRecord
  2
Standard
 70
     0
 40
0.0
 41
1.0
 50
0.0
 71
     0
 42
0.2
  3
txt
  4

  0
ENDTAB
  0
TABLE
  2
VIEW
  5
6
330
0
100
AcDbSymbolTable
 70
     1
  0
ENDTAB
  0
TABLE
  2
UCS
  5
7
330
0
100
AcDbSymbolTable
 70
     0
  0
ENDTAB
  0
TABLE
  2
APPID
  5
9
330
0
100
AcDbSymbolTable
 70
     7
  0
APPID
  5
56
330
9
100
AcDbSymbolTableRecord
100
AcDbRegAppTableRecord
  2
ACAD
 70
     0
  0
APPID
  5
5D
330
9
100
AcDbSymbolTableRecord
100
AcDbRegAppTableRecord
  2
AcadAnnotative
 70
     0
  0
APPID
  5
FA3
330
9
100
AcDbSymbolTableRecord
100
AcDbRegAppTableRecord
  2
ACAD_NAV_VCDISPLAY
 70
     0
  0
APPID
  5
FD1
330
9
100
AcDbSymbolTableRecord
100
AcDbRegAppTableRecord
  2
ACAD_EXEMPT_FROM_CAD_STANDARDS
 70
     0
  0
APPID
  5
1016
330
9
100
AcDbSymbolTableRecord
100
AcDbRegAppTableRecord
  2
ACAUTHENVIRON
 70
     0
  0
APPID
  5
101A
330
9
100
AcDbSymbolTableRecord
100
AcDbRegAppTableRecord
  2
AcDbDynamicBlockTrueName
 70
     0
  0
APPID
  5
101B
330
9
100
AcDbSymbolTableRecord
100
AcDbRegAppTableRecord
  2
AcDbDynamicBlockGUID
 70
     0
  0
ENDTAB
  0
TABLE
  2
DIMSTYLE
  5
A
330
0
100
AcDbSymbolTable
 70
     2
100
AcDbDimStyleTable
 71
     1
340
57
  0
DIMSTYLE
105
57
330
A
100
AcDbSymbolTableRecord
100
AcDbDimStyleTableRecord
  2
Standard
 70
     0
340
55
  0
ENDTAB
  0
TABLE
  2
BLOCK_RECORD
  5
1
330
0
100
AcDbSymbolTable
 70
     3
  0
BLOCK_RECORD
  5
6F
330
1
100
AcDbSymbolTableRecord
100
AcDbBlockTableRecord
  2
*Model_Space
340
72
 70
     0
280
     1
281
     0
  0
BLOCK_RECORD
  5
6B
330
1
100
AcDbSymbolTableRecord
100
AcDbBlockTableRecord
  2
*Paper_Space
340
6E
 70
     0
280
     1
281
     0
  0
BLOCK_RECORD
  5
FD9
102
{ACAD_XDICTIONARY
360
1054
102
}
330
1
100
AcDbSymbolTableRecord
100
AcDbBlockTableRecord
  2
Vue de dessus Cerisier
340
0
310
28000000200000002000000001002000000000000010000001000000010000000000000000000000F0963D2AD6D6D6FFD6D6D6FFD6D6D6FFD6D6D6FFD6D6D6FFD6D6D6FFD6D6D6FFD6D6D6FFD6D6D6FFD6D6D6FFD6D6D6FFD6D6D6FFD6D6D6FFD6D6D6FFD6D6D6FFD6D6D6FFD6D6D6FFD6D6D6FFD6D6D6FFD6D6D6FFD6D6D6
310
FFD6D6D6FFD6D6D6FFD6D6D6FFD6D6D6FFD6D6D6FFD6D6D6FFD6D6D6FFD6D6D6FFD6D6D6FFD6D6D6FFD6D6D6FFD6D6D6FFD6D6D6FFD6D6D6FFD6D6D6FFD6D6D6FFD6D6D6FFD6D6D6FFD6D6D6FFD6D6D6FFD6D6D6FFD6D6D6FFD6D6D6FFD6D6D6FFD6D6D6FFD6D6D6FFD6D6D6FFD6D6D6FFD6D6D6FFD6D6D6FFD6D6D6FFD6D6
310
D6FFD6D6D6FFD6D6D6FFD6D6D6FFD6D6D6FFD6D6D6FFD6D6D6FFD6D6D6FFD6D6D6FFD6D6D6FFD6D6D6FFD6D6D6FFD6D6D6FFD6D6D6FFD6D6D6FFD6D6D6FFD6D6D6FFD6D6D6FFD6D6D6FFD6D6D6FFD6D6D6FFD6D6D6FFD6D6D6FFD6D6D6FFD6D6D6FFD6D6D6FFD6D6D6FFD6D6D6FFD6D6D6FFD6D6D6FFD6D6D6FFD6D6D6FFD6
310
D6D6FFD6D6D6FFD6D6D6FFD6D6D6FFD6D6D6FFD6D6D6FFD6D6D6FFD6D6D6FFD6D6D6FFD6D6D6FFD6D6D6FFD6D6D6FFD6D6D6FFD6D6D6FFD6D6D6FFD6D6D6FFD6D6D6FFD6D6D6FFD6D6D6FFD6D6D6FFD6D6D6FFD6D6D6FFD6D6D6FFD6D6D6FFD6D6D6FFD6D6D6FFD6D6D6FFD6D6D6FFD6D6D6FFD6D6D6FFD6D6D6FFD6D6D6FF
310
D6D6D6FFD6D6D6FFD6D6D6FFD6D6D6FFD6D6D6FFD6D6D6FFD6D6D6FFD6D6D6FFD6D6D6FFD6D6D6FFD6D6D6FFD6D6D6FFD6D6D6FFD6D6D6FFD6D6D6FFD6D6D6FFD6D6D6FFD6D6D6FFD6D6D6FFD6D6D6FFD6D6D6FFD6D6D6FFD6D6D6FFD6D6D6FFD6D6D6FFD6D6D6FFD6D6D6FFD6D6D6FFD6D6D6FFD6D6D6FFD6D6D6FFD6D6D6
310
FFD6D6D6FFD6D6D6FFD6D6D6FFD6D6D6FFD6D6D6FFD6D6D6FFD6D6D6FFD6D6D6FFD6D6D6FFD6D6D6FFD6D6D6FFD6D6D6FFD6D6D6FFD6D6D6FFD6D6D6FFD6D6D6FFD6D6D6FFD6D6D6FFD6D6D6FFD6D6D6FFD6D6D6FFD6D6D6FFD6D6D6FFD6D6D6FFD6D6D6FFD6D6D6FFD6D6D6FFD6D6D6FFD6D6D6FFD6D6D6FFD6D6D6FFD6D6
310
D6FFD6D6D6FFD6D6D6FFD6D6D6FFD6D6D6FFD6D6D6FFD6D6D6FFD6D6D6FFD6D6D6FFD6D6D6FFD6D6D6FFD6D6D6FFD6D6D6FFD6D6D6FFD6D6D6FFD6D6D6FFD6D6D6FFD6D6D6FFD6D6D6FFD6D6D6FFD6D6D6FFD6D6D6FFD6D6D6FFD6D6D6FFD6D6D6FFD6D6D6FFD6D6D6FFD6D6D6FFD6D6D6FFD6D6D6FFD6D6D6FFD6D6D6FFD6
310
D6D6FFD6D6D6FFD6D6D6FFD6D6D6FFD6D6D6FFD6D6D6FFD6D6D6FFD6D6D6FFD6D6D6FFD6D6D6FFD6D6D6FFD6D6D6FFD6D6D6FFD6D6D6FFD6D6D6FFD6D6D6FFD6D6D6FFD6D6D6FFD6D6D6FFD6D6D6FFD6D6D6FFD6D6D6FFD6D6D6FFD6D6D6FFD6D6D6FF000000FFD6D6D6FFD6D6D6FFD6D6D6FFD6D6D6FFD6D6D6FFD6D6D6FF
310
D6D6D6FFD6D6D6FFD6D6D6FFD6D6D6FFD6D6D6FFD6D6D6FFD6D6D6FFD6D6D6FFD6D6D6FFD6D6D6FFD6D6D6FFD6D6D6FFD6D6D6FFD6D6D6FFD6D6D6FFD6D6D6FFD6D6D6FFD6D6D6FFD6D6D6FFD6D6D6FFD6D6D6FFD6D6D6FF000000FF000000FF000000FF000000FF000000FF000000FFD6D6D6FFD6D6D6FF000000FF000000
310
FFD6D6D6FFD6D6D6FFD6D6D6FFD6D6D6FFD6D6D6FFD6D6D6FFD6D6D6FFD6D6D6FFD6D6D6FFD6D6D6FFD6D6D6FFD6D6D6FFD6D6D6FFD6D6D6FFD6D6D6FFD6D6D6FF000000FF000000FF000000FF000000FF000000FFD6D6D6FF000000FFD6D6D6FF000000FF000000FF000000FF000000FF000000FF000000FF000000FF0000
310
00FFD6D6D6FFD6D6D6FFD6D6D6FFD6D6D6FFD6D6D6FFD6D6D6FFD6D6D6FFD6D6D6FFD6D6D6FFD6D6D6FFD6D6D6FFD6D6D6FFD6D6D6FFD6D6D6FF000000FF000000FF000000FF000000FF000000FFD6D6D6FF000000FF000000FF000000FFD6D6D6FFD6D6D6FFD6D6D6FFD6D6D6FFD6D6D6FF000000FF000000FFD6D6D6FF00
310
0000FF000000FF000000FFD6D6D6FFD6D6D6FFD6D6D6FFD6D6D6FFD6D6D6FFD6D6D6FFD6D6D6FFD6D6D6FFD6D6D6FFD6D6D6FFD6D6D6FFD6D6D6FFD6D6D6FF000000FF000000FFD6D6D6FFD6D6D6FFD6D6D6FFD6D6D6FFD6D6D6FFD6D6D6FFD6D6D6FF000000FF000000FFD6D6D6FFD6D6D6FFD6D6D6FFD6D6D6FFD6D6D6FF
310
D6D6D6FF000000FF000000FF000000FFD6D6D6FF000000FFD6D6D6FFD6D6D6FFD6D6D6FFD6D6D6FFD6D6D6FFD6D6D6FFD6D6D6FFD6D6D6FFD6D6D6FFD6D6D6FF000000FF000000FF000000FF000000FF000000FFD6D6D6FF000000FF000000FFD6D6D6FFD6D6D6FFD6D6D6FFD6D6D6FFD6D6D6FF000000FF000000FFD6D6D6
310
FFD6D6D6FFD6D6D6FFD6D6D6FF000000FF000000FF000000FFD6D6D6FFD6D6D6FFD6D6D6FFD6D6D6FFD6D6D6FFD6D6D6FFD6D6D6FFD6D6D6FFD6D6D6FFD6D6D6FF000000FF000000FFD6D6D6FF000000FF000000FF000000FF000000FF000000FFD6D6D6FF000000FFD6D6D6FF000000FF000000FF000000FF000000FFD6D6
310
D6FFD6D6D6FFD6D6D6FFD6D6D6FF000000FFD6D6D6FF000000FF000000FF000000FF000000FFD6D6D6FFD6D6D6FFD6D6D6FFD6D6D6FFD6D6D6FFD6D6D6FF000000FF000000FF000000FF000000FF000000FF000000FF000000FF000000FFD6D6D6FFD6D6D6FF000000FF000000FF000000FF000000FFD6D6D6FF000000FFD6
310
D6D6FFD6D6D6FF000000FF000000FF000000FF000000FF000000FFD6D6D6FF000000FF000000FFD6D6D6FFD6D6D6FFD6D6D6FFD6D6D6FFD6D6D6FFD6D6D6FFD6D6D6FF000000FF000000FF000000FF000000FFD6D6D6FF000000FF000000FFD6D6D6FFD6D6D6FFD6D6D6FF000000FFD6D6D6FFD6D6D6FFD6D6D6FF000000FF
310
D6D6D6FFD6D6D6FF000000FF000000FF000000FF000000FFD6D6D6FFD6D6D6FF000000FF000000FFD6D6D6FFD6D6D6FFD6D6D6FFD6D6D6FFD6D6D6FFD6D6D6FFD6D6D6FF000000FF000000FF000000FF000000FFD6D6D6FF000000FF000000FF000000FF000000FFD6D6D6FFD6D6D6FFD6D6D6FFD6D6D6FFD6D6D6FF000000
310
FF000000FFD6D6D6FF000000FF000000FFD6D6D6FFD6D6D6FFD6D6D6FFD6D6D6FF000000FF000000FFD6D6D6FFD6D6D6FFD6D6D6FFD6D6D6FFD6D6D6FFD6D6D6FFD6D6D6FFD6D6D6FF000000FF000000FF000000FF000000FF000000FFD6D6D6FF000000FF000000FFD6D6D6FFD6D6D6FFD6D6D6FFD6D6D6FF000000FFD6D6
310
D6FF000000FFD6D6D6FF000000FF000000FFD6D6D6FFD6D6D6FFD6D6D6FFD6D6D6FF000000FF000000FF000000FF000000FFD6D6D6FFD6D6D6FFD6D6D6FFD6D6D6FFD6D6D6FFD6D6D6FFD6D6D6FFD6D6D6FFD6D6D6FF000000FF000000FFD6D6D6FFD6D6D6FFD6D6D6FFD6D6D6FFD6D6D6FFD6D6D6FFD6D6D6FFD6D6D6FFD6
310
D6D6FFD6D6D6FFD6D6D6FFD6D6D6FF000000FFD6D6D6FFD6D6D6FFD6D6D6FFD6D6D6FF000000FFD6D6D6FF000000FF000000FF000000FF000000FFD6D6D6FFD6D6D6FFD6D6D6FFD6D6D6FFD6D6D6FFD6D6D6FFD6D6D6FFD6D6D6FF000000FF000000FFD6D6D6FFD6D6D6FFD6D6D6FFD6D6D6FFD6D6D6FFD6D6D6FF000000FF
310
D6D6D6FFD6D6D6FFD6D6D6FFD6D6D6FF000000FFD6D6D6FFD6D6D6FFD6D6D6FFD6D6D6FF000000FF000000FF000000FF000000FF000000FFD6D6D6FFD6D6D6FFD6D6D6FFD6D6D6FFD6D6D6FFD6D6D6FFD6D6D6FFD6D6D6FFD6D6D6FF000000FF000000FF000000FFD6D6D6FFD6D6D6FFD6D6D6FFD6D6D6FFD6D6D6FFD6D6D6
310
FFD6D6D6FFD6D6D6FFD6D6D6FFD6D6D6FFD6D6D6FF000000FF000000FF000000FF000000FF000000FF000000FF000000FF000000FF000000FFD6D6D6FFD6D6D6FFD6D6D6FFD6D6D6FFD6D6D6FFD6D6D6FFD6D6D6FFD6D6D6FFD6D6D6FF000000FF000000FF000000FF000000FF000000FF000000FF000000FFD6D6D6FFD6D6
310
D6FFD6D6D6FFD6D6D6FFD6D6D6FFD6D6D6FFD6D6D6FFD6D6D6FF000000FF000000FF000000FF000000FF000000FF000000FFD6D6D6FFD6D6D6FFD6D6D6FFD6D6D6FFD6D6D6FFD6D6D6FFD6D6D6FFD6D6D6FFD6D6D6FFD6D6D6FFD6D6D6FFD6D6D6FFD6D6D6FF000000FF000000FF000000FF000000FF000000FF000000FF00
310
0000FF000000FFD6D6D6FF000000FF000000FF000000FF000000FF000000FF000000FF000000FFD6D6D6FFD6D6D6FFD6D6D6FFD6D6D6FFD6D6D6FFD6D6D6FFD6D6D6FFD6D6D6FFD6D6D6FFD6D6D6FFD6D6D6FFD6D6D6FFD6D6D6FFD6D6D6FFD6D6D6FFD6D6D6FF000000FF000000FF000000FFD6D6D6FFD6D6D6FF000000FF
310
000000FF000000FF000000FF000000FF000000FF000000FF000000FF000000FF000000FFD6D6D6FFD6D6D6FFD6D6D6FFD6D6D6FFD6D6D6FFD6D6D6FFD6D6D6FFD6D6D6FFD6D6D6FFD6D6D6FFD6D6D6FFD6D6D6FFD6D6D6FFD6D6D6FFD6D6D6FFD6D6D6FFD6D6D6FFD6D6D6FFD6D6D6FFD6D6D6FFD6D6D6FFD6D6D6FFD6D6D6
310
FFD6D6D6FF000000FF000000FFD6D6D6FFD6D6D6FFD6D6D6FFD6D6D6FFD6D6D6FFD6D6D6FFD6D6D6FFD6D6D6FFD6D6D6FFD6D6D6FFD6D6D6FFD6D6D6FFD6D6D6FFD6D6D6FFD6D6D6FFD6D6D6FFD6D6D6FFD6D6D6FFD6D6D6FFD6D6D6FFD6D6D6FFD6D6D6FFD6D6D6FFD6D6D6FFD6D6D6FFD6D6D6FFD6D6D6FFD6D6D6FFD6D6
310
D6FFD6D6D6FFD6D6D6FFD6D6D6FFD6D6D6FFD6D6D6FFD6D6D6FFD6D6D6FFD6D6D6FFD6D6D6FFD6D6D6FFD6D6D6FFD6D6D6FFD6D6D6FFD6D6D6FFD6D6D6FFD6D6D6FFD6D6D6FFD6D6D6FFD6D6D6FFD6D6D6FFD6D6D6FFD6D6D6FFD6D6D6FFD6D6D6FFD6D6D6FFD6D6D6FFD6D6D6FFD6D6D6FFD6D6D6FFD6D6D6FFD6D6D6FFD6
310
D6D6FFD6D6D6FFD6D6D6FFD6D6D6FFD6D6D6FFD6D6D6FFD6D6D6FFD6D6D6FFD6D6D6FFD6D6D6FFD6D6D6FFD6D6D6FFD6D6D6FFD6D6D6FFD6D6D6FFD6D6D6FFD6D6D6FFD6D6D6FFD6D6D6FFD6D6D6FFD6D6D6FFD6D6D6FFD6D6D6FFD6D6D6FFD6D6D6FFD6D6D6FFD6D6D6FFD6D6D6FFD6D6D6FFD6D6D6FFD6D6D6FFD6D6D6FF
310
D6D6D6FFD6D6D6FFD6D6D6FFD6D6D6FFD6D6D6FFD6D6D6FFD6D6D6FFD6D6D6FFD6D6D6FFD6D6D6FFD6D6D6FFD6D6D6FFD6D6D6FFD6D6D6FFD6D6D6FFD6D6D6FFD6D6D6FFD6D6D6FFD6D6D6FFD6D6D6FFD6D6D6FFD6D6D6FFD6D6D6FFD6D6D6FFD6D6D6FFD6D6D6FFD6D6D6FFD6D6D6FFD6D6D6FFD6D6D6FFD6D6D6FFD6D6D6
310
FFD6D6D6FFD6D6D6FFD6D6D6FFD6D6D6FFD6D6D6FFD6D6D6FFD6D6D6FFD6D6D6FFD6D6D6FFD6D6D6FFD6D6D6FFD6D6D6FFD6D6D6FFD6D6D6FFD6D6D6FFD6D6D6FFD6D6D6FFD6D6D6FFD6D6D6FFD6D6D6FFD6D6D6FFD6D6D6FFD6D6D6FFD6D6D6FFD6D6D6FFD6D6D6FFD6D6D6FFD6D6D6FFD6D6D6FFD6D6D6FFD6D6D6FFD6D6
310
D6FFD6D6D6FFD6D6D6FFD6D6D6FFD6D6D6FFD6D6D6FFD6D6D6FFD6D6D6FFD6D6D6FFD6D6D6FFD6D6D6FFD6D6D6FFD6D6D6FFD6D6D6FFD6D6D6FFD6D6D6FFD6D6D6FFD6D6D6FFD6D6D6FFD6D6D6FFD6D6D6FFD6D6D6FFD6D6D6FFD6D6D6FFD6D6D6FFD6D6D6FFD6D6D6FFD6D6D6FFD6D6D6FFD6D6D6FFD6D6D6FFD6D6D6FFD6
310
D6D6FFD6D6D6FFD6D6D6FFD6D6D6FFD6D6D6FFD6D6D6FFD6D6D6FFD6D6D6FFD6D6D6FFD6D6D6FFD6D6D6FFD6D6D6FFD6D6D6FFD6D6D6FFD6D6D6FFD6D6D6FFD6D6D6FFD6D6D6FFD6D6D6FFD6D6D6FFD6D6D6FFD6D6D6FFD6D6D6FFD6D6D6FFD6D6D6FFD6D6D6FFD6D6D6FFD6D6D6FFD6D6D6FFD6D6D6FFD6D6D6FFD6D6D6FF
310
D6D6D6FFD6D6D6FFD6D6D6FFD6D6D6FFD6D6D6FFD6D6D6FFD6D6D6FFD6D6D6FFD6D6D6FFD6D6D6FFD6D6D6FFD6D6D6FFD6D6D6FFD6D6D6FFD6D6D6FFD6D6D6FFD6D6D6FFD6D6D6FF
102
{BLKREFS
331
FF7
102
}
 70
     0
280
     1
281
     0
1001
AcDbDynamicBlockGUID
1000
{495D9AC7-ACF7-3C44-8C06-2237F20731E6}
  0
ENDTAB
  0
ENDSEC
  0
SECTION
  2
BLOCKS
  0
BLOCK
  5
70
330
6F
100
AcDbEntity
  8
0
100
AcDbBlockBegin
  2
*Model_Space
 70
     0
 10
0.0
 20
0.0
 30
0.0
  3
*Model_Space
  1

  0
ENDBLK
  5
71
330
6F
100
AcDbEntity
  8
0
100
AcDbBlockEnd
  0
BLOCK
  5
6C
330
6B
100
AcDbEntity
 67
     1
  8
0
100
AcDbBlockBegin
  2
*Paper_Space
 70
     0
 10
0.0
 20
0.0
 30
0.0
  3
*Paper_Space
  1

  0
ENDBLK
  5
6D
330
6B
100
AcDbEntity
 67
     1
  8
0
100
AcDbBlockEnd
  0
BLOCK
  5
FDA
330
FD9
100
AcDbEntity
  8
0
100
AcDbBlockBegin
  2
Vue de dessus Cerisier
 70
     0
 10
0.0
 20
0.0
 30
0.0
  3
Vue de dessus Cerisier
  1

  0
LWPOLYLINE
  5
1039
330
FD9
100
AcDbEntity
  8
0
  6
ByBlock
 62
     0
370
    -2
100
AcDbPolyline
 90
       16
 70
     1
 43
0.0
 10
-1095.740737083378
 20
117.4807280556838
 10
-1101.378560745194
 20
114.3488534262824
 10
-1119.847214758862
 20
110.5949195182711
 10
-1126.569436230818
 20
109.9160149099857
 10
-1125.831387400847
 20
116.7388477390318
 10
-1124.697075768754
 20
124.0048094186545
 10
-1127.299787255728
 20
127.5705824989013
 10
-1128.310463778944
 20
128.4153730646517
 10
-1123.349245833404
 20
129.1311470243231
 10
-1116.596302804601
 20
132.2730009349461
 10
-1113.303923714937
 20
138.9491400716315
 10
-1111.583621026588
 20
154.284386861224
 10
-1110.602394703275
 20
155.9099647492944
 10
-1108.726498823955
 20
155.0699461260469
 10
-1103.416807164723
 20
147.910830677295
 10
-1094.448202467184
 20
125.1007365205369
  0
LWPOLYLINE
  5
103A
330
FD9
100
AcDbEntity
  8
0
  6
ByBlock
 62
     0
370
    -2
100
AcDbPolyline
 90
       57
 70
     1
 43
0.0
 10
1159.434966720902
 20
-109.4544836890179
 10
1161.903280104593
 20
-119.1204189626116
 10
1160.99629754366
 20
-125.262814588699
 10
1156.048124068687
 20
-119.1204189626116
 10
1151.05233566377
 20
-112.9780233365236
 10
1149.904195847927
 20
-119.1204189626116
 10
1148.772183107842
 20
-125.2343919238608
 10
1143.944579552401
 20
-119.2064358386135
 10
1140.278874333158
 20
-114.9120184866153
 10
1135.677154333446
 20
-113.1946068291265
 10
1119.461031339901
 20
-117.1359352675656
 10
1104.689500736265
 20
-121.1294764199656
 10
1101.429567372454
 20
-120.09941605731
 10
1100.267407798526
 20
-117.0499183915628
 10
1099.255181264787
 20
-112.9979993148142
 10
1096.869802151905
 20
-117.0191968347162
 10
1096.772464974343
 20
-123.8478813888755
 10
1101.219706397393
 20
-128.3570535693782
 10
1107.975540457055
 20
-129.4321339005428
 10
1114.803928941791
 20
-125.9586125700807
 10
1122.279368447806
 20
-121.0129469772987
 10
1129.984052768323
 20
-119.3078134930394
 10
1135.506862166296
 20
-120.8697190388004
 10
1136.436711736378
 20
-125.7251357043817
 10
1133.852408801326
 20
-129.8031785539603
 10
1130.728998274321
 20
-130.3330905778764
 10
1125.262442067173
 20
-131.3998287175841
 10
1117.058758853921
 20
-136.7657735676423
 10
1109.656082763159
 20
-141.5995249176242
 10
1106.128711628971
 20
-141.3737284411365
 10
1105.360724955339
 20
-140.9052595309147
 10
1104.592720865857
 20
-145.1461057327651
 10
1100.729154191206
 20
-151.0691313304814
 10
1093.115868243894
 20
-154.6668799086708
 10
1085.673066038067
 20
-154.9342480156533
 10
1082.320985419563
 20
-150.8660973680532
 10
1078.261385953602
 20
-147.5038284781462
 10
1068.497138214927
 20
-147.874002339136
 10
1059.722075842355
 20
-148.8693180839288
 10
1063.010623445338
 20
-144.9986457430684
 10
1068.033284504573
 20
-139.3431624108198
 10
1063.766314529893
 20
-134.4065182275883
 10
1061.61968928482
 20
-131.8467019756005
 10
1062.831675601459
 20
-128.8808177987557
 10
1075.402922730629
 20
-121.6455776759792
 10
1088.994059366903
 20
-113.5978011389725
 10
1094.701006531625
 20
-105.5914917373693
 10
1095.850678942141
 20
-101.1601858157462
 10
1099.308943989271
 20
-104.5163069111138
 10
1109.261631209286
 20
-109.134902868074
 10
1124.326253128216
 20
-108.5321229338133
 10
1137.366839960038
 20
-104.0091399854077
 10
1140.898129660151
 20
-100.6841758431005
 10
1141.247404502877
 20
-96.8671094840861
 10
1139.893618347321
 20
-90.40906901882749
 10
1142.084514679416
 20
-88.74329535229776
 10
1153.639703788168
 20
-99.15264353721614
  0
LWPOLYLINE
  5
103B
330
FD9
100
AcDbEntity
  8
0
  6
ByBlock
 62
     0
370
    -2
100
AcDbPolyline
 90
       58
 70
     1
 43
0.0
 10
101.0964733543992
 20
738.7885302154577
 10
98.26643279626615
 20
731.180817339683
 10
94.40727233129928
 20
734.9186241719344
 10
92.31296429527901
 20
748.3469574559348
 10
91.06574571701912
 20
761.224619024545
 10
88.73106413927326
 20
754.2328350486882
 10
83.60241022574655
 20
743.3365745699311
 10
71.7000884236395
 20
742.5225055610272
 10
61.40286347170377
 20
742.6791785346081
 10
60.70859808499517
 20
736.642775762813
 10
65.29734327753613
 20
731.4304038652931
 10
71.68779283456115
 20
730.9780620308315
 10
78.9134368247851
 20
731.1094820240104
 10
85.86030532722361
 20
727.0851148196721
 10
91.08610484397742
 20
720.198069757012
 10
93.14854187714535
 20
711.7414213435313
 10
89.98211420421512
 20
706.377775385482
 10
80.09269876199187
 20
707.4836817685845
 10
71.30918970287211
 20
708.9159785694159
 10
71.23929990262922
 20
704.8233586545984
 10
72.445800226973
 20
700.0195799799762
 10
69.4452585115082
 20
698.0220343985156
 10
64.29742974872533
 20
700.2768643106469
 10
60.33382643998766
 20
705.70195338239
 10
56.4800474722233
 20
709.7031749240023
 10
50.70014531791412
 20
704.1659626192759
 10
45.62755302087907
 20
698.8238252341898
 10
44.08928078160442
 20
702.9924653279395
 10
42.21998550888656
 20
707.5574030555089
 10
37.85318789030271
 20
707.2379267296565
 10
33.51404663921994
 20
706.4684074613506
 10
31.70925966954201
 20
709.9473973682584
 10
33.96638847368194
 20
714.5691630096552
 10
39.38916123756826
 20
716.5459837313383
 10
43.58162621213842
 20
717.763247050088
 10
38.86692960286428
 20
721.8420387811538
 10
31.40206151691927
 20
730.7446025809809
 10
29.15722830185723
 20
730.5856132995427
 10
22.71454861502207
 20
725.0123153566146
 10
15.78265774233887
 20
720.2069866714714
 10
12.50948833362827
 20
722.1615325228549
 10
10.9734975705137
 20
736.2311173505704
 10
14.04009759953988
 20
741.5855503247349
 10
22.49336733840164
 20
743.9540360645219
 10
40.92515200068283
 20
747.8001346430737
 10
63.96487412060969
 20
750.2392764804398
 10
74.63659206397597
 20
750.6276847348645
 10
80.0443175347118
 20
753.3097079961471
 10
79.85451961718354
 20
757.8233908814254
 10
73.73373705914992
 20
763.7067780078354
 10
69.67412017734068
 20
767.2763999906123
 10
73.73373705914992
 20
767.1412181741452
 10
78.76714369694082
 20
767.8039957066707
 10
80.86068543562442
 20
771.5587133278663
 10
83.61930359884354
 20
776.9316767648915
 10
89.87075726856801
 20
773.637660585463
 10
96.57838425943737
 20
764.5733558001266
 10
100.7055746336314
 20
752.6354185877281
  0
LWPOLYLINE
  5
103C
330
FD9
100
AcDbEntity
  8
0
  6
ByBlock
 62
     0
370
    -2
100
AcDbPolyline
 90
       18
 70
     1
 43
0.0
 10
-478.7664160239065
 20
-314.6074498268508
 10
-473.6326766826027
 20
-321.9414726426184
 10
-473.790011458429
 20
-330.3641253197243
 10
-478.1814873344123
 20
-343.2202086519771
 10
-485.3391572677342
 20
-355.0856611026982
 10
-489.8557137680236
 20
-355.4992178424334
 10
-496.164761648913
 20
-352.8600201527415
 10
-507.1186163388347
 20
-349.3395456945811
 10
-516.7407855850151
 20
-349.8187775992087
 10
-525.2339898646087
 20
-349.3234186188211
 10
-533.4645457321771
 20
-343.4598158963668
 10
-537.1283526239271
 20
-337.583534436166
 10
-538.4311451749194
 20
-330.7557032585855
 10
-534.0482204805757
 20
-308.8817806249344
 10
-528.0192020285666
 20
-293.3464779830156
 10
-520.4770598225937
 20
-287.6790822103569
 10
-508.7704747423709
 20
-291.6469175702932
 10
-490.248162499312
 20
-305.0172560786134
  0
LWPOLYLINE
  5
103D
330
FD9
100
AcDbEntity
  8
0
  6
ByBlock
 62
     0
370
    -2
100
AcDbPolyline
 90
       18
 70
     1
 43
0.0
 10
-407.713028108003
 20
-106.070131503146
 10
-404.8928797518474
 20
-117.142065646256
 10
-406.8730443164522
 20
-128.2693125243695
 10
-413.7255363355834
 20
-137.5522036248924
 10
-420.2342569201309
 20
-147.138269817023
 10
-422.9414286667243
 20
-159.44301963164
 10
-424.5362501662498
 20
-171.9464842782443
 10
-429.3963865267888
 20
-176.0393131832441
 10
-437.6353020016627
 20
-171.7203220689377
 10
-449.3664608441936
 20
-158.9883614893206
 10
-460.3545899240676
 20
-144.8558880324813
 10
-464.7516214557385
 20
-135.4379196105822
 10
-463.3760654894927
 20
-125.4750615350122
 10
-457.0463798280679
 20
-109.7079191171583
 10
-449.12906541257
 20
-96.12024823474804
 10
-439.5845708509354
 20
-89.48364307427732
 10
-428.324754533638
 20
-89.77048209994199
 10
-415.261527098698
 20
-96.95312636008862
  0
LWPOLYLINE
  5
103E
330
FD9
100
AcDbEntity
  8
0
  6
ByBlock
 62
     0
370
    -2
100
AcDbPolyline
 90
       16
 70
     1
 43
0.0
 10
-1825.129083549074
 20
-307.9973515878773
 10
-1824.369926710658
 20
-318.3027271569356
 10
-1828.658770991119
 20
-328.3212637003292
 10
-1837.802091481341
 20
-336.9349682360594
 10
-1846.139876728449
 20
-341.3631915524893
 10
-1854.85838984077
 20
-343.0635356783962
 10
-1882.277971465696
 20
-338.6122537784829
 10
-1901.123034214135
 20
-332.270464102314
 10
-1912.282622323011
 20
-324.1379246304004
 10
-1916.25956617174
 20
-313.5919665294341
 10
-1913.556713555588
 20
-300.0099557978028
 10
-1909.231731389379
 20
-296.2963918267376
 10
-1900.401025380681
 20
-293.5404905358937
 10
-1874.817718579618
 20
-291.0021828568686
 10
-1847.997172481514
 20
-292.5960639005723
 10
-1831.129783831337
 20
-298.5231299751533
  0
LWPOLYLINE
  5
103F
330
FD9
100
AcDbEntity
  8
0
  6
ByBlock
 62
     0
370
    -2
100
AcDbPolyline
 90
       26
 70
     1
 43
0.0
 10
-491.3391957477515
 20
-834.4700763159258
 10
-496.8382847599955
 20
-840.3254413420144
 10
-510.4485265821308
 20
-845.1624320398268
 10
-528.9426251505338
 20
-847.1759131227134
 10
-554.3416200263627
 20
-847.1759131227134
 10
-552.7196298030953
 20
-878.9830346418494
 10
-553.8281311476326
 20
-903.4444124791418
 10
-556.8206615727627
 20
-911.4628955588827
 10
-561.8318455878006
 20
-916.9486614469843
 10
-569.1564986770467
 20
-920.1082969389792
 10
-579.0894537406516
 20
-921.1483365828557
 10
-607.959688470783
 20
-917.6959232608394
 10
-629.0440113627473
 20
-912.5798610058168
 10
-641.907182945361
 20
-906.0094012381497
 10
-648.3503502759559
 20
-896.4840989416202
 10
-650.1746081643159
 20
-882.5034916841614
 10
-647.4367322767238
 20
-872.0457622719631
 10
-638.7407552724303
 20
-868.6796618953747
 10
-620.1598909465374
 20
-864.2564195116316
 10
-593.6850320263584
 20
-853.6976955936754
 10
-568.3955654220776
 20
-841.0700036993441
 10
-553.3708780438782
 20
-830.4398573864734
 10
-545.0392405913094
 20
-825.7399468326198
 10
-531.5806733942204
 20
-823.9764354240117
 10
-514.9691235592841
 20
-825.1850604818791
 10
-497.1785207773232
 20
-829.4015244957552
  0
LWPOLYLINE
  5
1040
330
FD9
100
AcDbEntity
  8
0
  6
ByBlock
 62
     0
370
    -2
100
AcDbPolyline
 90
       34
 70
     1
 43
0.0
 10
357.9507022290822
 20
24.48871762875524
 10
362.449198494422
 20
16.94147257915574
 10
366.1171329422796
 20
-40.6993259798387
 10
364.011974832611
 20
-50.69452528617194
 10
357.0310235145539
 20
-55.74426798990543
 10
345.3649476980654
 20
-55.79667227820073
 10
329.2044160931009
 20
-50.79994341746169
 10
314.3602962326972
 20
-45.9304895779469
 10
302.8408096134772
 20
-45.43628004356378
 10
293.2382331969197
 20
-49.55925578240885
 10
284.1448439444989
 20
-58.54128809918211
 10
275.0787104950641
 20
-65.67400112152791
 10
265.3259920481328
 20
-66.89241388628215
 10
256.3520058533904
 20
-62.44997923743312
 10
249.622103992222
 20
-52.60011518727378
 10
243.5088973283086
 20
-13.88107877374432
 10
242.7902497536265
 20
2.087565011865081
 10
244.1647607689592
 20
10.48421582708215
 10
248.836266073823
 20
13.60245384706695
 10
258.0085665360352
 20
13.73587666282992
 10
276.4526467873943
 20
9.87135211650866
 10
279.7780463259155
 20
9.978877565473794
 10
284.8821090612851
 20
14.51002854685021
 10
292.2003879499607
 20
20.0668162653501
 10
299.9754322986305
 20
22.07780688189359
 10
305.1158941574759
 20
20.45081831009111
 10
304.5303907449793
 20
15.09368587940071
 10
303.2017704905834
 20
11.09014802993124
 10
306.9695325823445
 20
12.22447707787251
 10
310.8002703824736
 20
17.77858275569451
 10
310.4285639268109
 20
25.21274670064077
 10
310.9323695937464
 20
31.2952318077073
 10
321.4446280277635
 20
30.41050670122468
 10
349.6575363859661
 20
26.04217648796839
  0
LWPOLYLINE
  5
1041
330
FD9
100
AcDbEntity
  8
0
  6
ByBlock
 62
     0
370
    -2
100
AcDbPolyline
 90
       36
 70
     1
 43
0.0
 10
153.4619417233562
 20
384.3053734842087
 10
164.6454417922955
 20
378.7896697524447
 10
168.4112010614731
 20
377.1012554827962
 10
171.327432654095
 20
372.8244978012308
 10
174.3950776340334
 20
359.4393732374892
 10
173.4158018857579
 20
344.501364537537
 10
167.957013147065
 20
333.8775575935392
 10
158.249610738067
 20
327.2973971982283
 10
165.6407575370876
 20
323.8137920914546
 10
168.2753400269125
 20
321.3098632974725
 10
167.682069145962
 20
318.4263386684338
 10
156.4248652059477
 20
310.9791302529215
 10
146.6145351320028
 20
304.9434937784622
 10
145.4452698918644
 20
303.0070952412702
 10
147.1721035234204
 20
302.1748789181752
 10
151.5926638664869
 20
299.2711170731177
 10
146.1337706327022
 20
289.4508077179521
 10
137.7876431941376
 20
280.9432005316057
 10
129.5083055347722
 20
277.5008709859012
 10
122.2841941392216
 20
279.2332602731458
 10
117.1037106604021
 20
286.249827001493
 10
112.4235845105049
 20
293.0757250198835
 10
106.3518449819958
 20
296.3627226123453
 10
94.47562953686883
 20
297.8987133754595
 10
86.82547423817096
 20
304.3389896751946
 10
78.3216985385061
 20
318.3587651760486
 10
71.4191882023315
 20
335.0615043940079
 10
68.57282899410439
 20
349.5507066767541
 10
70.80413009484073
 20
364.397996221594
 10
76.35487451389235
 20
382.7363796880868
 10
83.51035005029689
 20
399.7925909682731
 10
90.55580967139304
 20
410.7933987858936
 10
98.6020536137271
 20
415.0006324000364
 10
109.0167658800001
 20
414.1126505298748
 10
121.6594354040871
 20
408.1720523409685
 10
136.3895162881667
 20
397.2214544147259
  0
LWPOLYLINE
  5
1042
330
FD9
100
AcDbEntity
  8
0
  6
ByBlock
 62
     0
370
    -2
100
AcDbPolyline
 90
       59
 70
     1
 43
0.0
 10
1139.304387943234
 20
245.0373983823561
 10
1145.497463688611
 20
227.4608712108066
 10
1147.283040977335
 20
212.7032558701639
 10
1146.080232812884
 20
208.1763021082888
 10
1143.244183787
 20
206.5077767376874
 10
1140.064694227655
 20
208.625125941343
 10
1141.345699552108
 20
213.7146116114736
 10
1141.917757929523
 20
215.701307119286
 10
1140.180666363169
 20
215.7843458851862
 10
1131.122213302946
 20
210.6426475010935
 10
1123.075203063275
 20
203.3835824974972
 10
1122.427020011836
 20
201.1750439108196
 10
1124.327019425554
 20
200.3638485169267
 10
1128.986420715674
 20
198.9115757378058
 10
1129.14385998659
 20
195.417991349811
 10
1128.226114431252
 20
189.7072126984076
 10
1130.317357277926
 20
182.9089536316696
 10
1130.988006773998
 20
180.9744708378189
 10
1129.692215394124
 20
181.2984752842953
 10
1122.256518854504
 20
188.0514183130985
 10
1113.422312260247
 20
199.2264542796401
 10
1109.440282983741
 20
208.2403575992662
 10
1107.671599068113
 20
210.3661709053176
 10
1104.174932074924
 20
204.9718033904219
 10
1099.242328368557
 20
197.3477544487041
 10
1094.117331783226
 20
194.547077011231
 10
1090.093626381132
 20
196.6654015024051
 10
1088.464913640323
 20
203.798306099085
 10
1086.631721421655
 20
209.4276830743534
 10
1082.222690370331
 20
209.5182977343729
 10
1078.837380312789
 20
205.1315415533482
 10
1079.470202585802
 20
200.0075028396878
 10
1079.143045870738
 20
197.0914454055528
 10
1073.46143876566
 20
198.004575761025
 10
1067.566348189024
 20
201.9029044693866
 10
1066.739983591041
 20
206.1514310604484
 10
1062.913843574931
 20
208.5767447140629
 10
1049.807320340488
 20
208.099062819957
 10
1006.437329323388
 20
205.9363975783667
 10
988.220578143189
 20
204.3366648095493
 10
985.6583759199478
 20
201.466968364261
 10
986.4449801356846
 20
196.7512268040736
 10
986.7306697153448
 20
189.9199298726312
 10
979.3856052515943
 20
189.2494893667426
 10
971.810146527339
 20
193.3912568061755
 10
968.6583133354966
 20
200.4498653929291
 10
964.3944259660106
 20
212.7991649481442
 10
965.0088222712561
 20
220.8054743497469
 10
972.4798381517407
 20
235.5255411209091
 10
979.8494763777984
 20
245.4347409670881
 10
988.0347336232812
 20
252.0342852018384
 10
1013.607294845788
 20
259.1981029296999
 10
1048.517084616302
 20
266.9578909950378
 10
1072.146646695015
 20
271.8853221943841
 10
1092.48304597088
 20
276.0631926878673
 10
1099.030064006395
 20
277.6701182021375
 10
1108.935711019469
 20
274.8459293691185
 10
1120.024451456432
 20
268.5369685674714
 10
1130.120749763614
 20
259.6896130075565
  0
LWPOLYLINE
  5
1043
330
FD9
100
AcDbEntity
  8
0
  6
ByBlock
 62
     0
370
    -2
100
AcDbPolyline
 90
       63
 70
     1
 43
0.0
 10
460.083420768949
 20
233.1077162821725
 10
472.1544150642903
 20
222.3038120482902
 10
482.9478523731918
 20
204.3621964435279
 10
491.1153454531504
 20
180.9797478399305
 10
494.2429880313548
 20
157.6154465505246
 10
490.6591547161588
 20
137.1328412260595
 10
479.8938440026695
 20
118.2480355112234
 10
461.4770369701445
 20
99.67715046655076
 10
448.6776944724765
 20
86.78872590353558
 10
443.3524504604856
 20
77.22723347371311
 10
440.5385369781129
 20
73.18990887805103
 10
433.6327524624103
 20
73.75592395601734
 10
420.9824025491111
 20
77.48528410171957
 10
421.8487016878243
 20
83.62921232248027
 10
423.3234409115789
 20
88.7558459975744
 10
419.5877413970033
 20
89.42830674189508
 10
403.042145380536
 20
79.02127486483459
 10
389.4910303642373
 20
72.49574798643334
 10
371.0099936822489
 20
68.43604402538085
 10
356.3754561433293
 20
68.02699799042148
 10
353.2432331969571
 20
69.56171739659158
 10
354.3637863086924
 20
72.45341005860154
 10
359.700559612425
 20
74.49472166747546
 10
366.6639383392912
 20
73.52244709031811
 10
373.1580644427513
 20
75.0599704481051
 10
376.8137033015305
 20
84.69824935419683
 10
380.5039126196866
 20
95.01545028442251
 10
386.521123126377
 20
99.75701954801435
 10
398.8089621520485
 20
101.9995538710668
 10
409.5608452463038
 20
104.9056320239819
 10
412.3507596893709
 20
106.2304207916963
 10
411.3564018162492
 20
107.7809886200493
 10
399.8349994536889
 20
110.5089026422688
 10
396.5549159531024
 20
112.4726440616887
 10
398.0164017161083
 20
116.1183036392467
 10
401.6351712235005
 20
123.5278764060367
 10
403.5398032529323
 20
134.5500883015274
 10
404.3538722618355
 20
142.792173460838
 10
405.3522531959738
 20
143.532521182818
 10
409.3150902073753
 20
140.3046503961927
 10
417.2407468143301
 20
139.0167309798648
 10
424.3231628660555
 20
140.1556578118238
 10
418.954919123988
 20
144.8288872856942
 10
414.4974894295355
 20
149.6997692247905
 10
414.7125229116168
 20
154.7474916900924
 10
419.0516815785472
 20
158.8678550516538
 10
426.9665926069451
 20
160.9566945112283
 10
428.8343552849901
 20
162.738440313271
 10
423.2556584290109
 20
166.2711929446613
 10
415.4498054442505
 20
171.7976596708304
 10
423.2556584290109
 20
181.1026340673184
 10
431.9201301632729
 20
191.0737472551027
 10
435.8476478338102
 20
199.5582261945715
 10
434.6465115908204
 20
204.6040155006831
 10
427.9250390003517
 20
204.2590946200958
 10
421.6398160002823
 20
203.2499506915515
 10
422.8378696380782
 20
208.1113409931863
 10
425.7247555258873
 20
218.8977771309701
 10
426.063441532694
 20
234.1493059365698
 10
426.1363965222821
 20
246.899500909622
 10
430.8864124724213
 20
242.406751874304
 10
438.5263969155649
 20
236.034728285048
 10
448.0832741455206
 20
235.0770481889776
  0
LWPOLYLINE
  5
1044
330
FD9
100
AcDbEntity
  8
0
  6
ByBlock
 62
     0
370
    -2
100
AcDbPolyline
 90
       40
 70
     1
 43
0.0
 10
1340.521111070406
 20
-141.1371863860927
 10
1343.171245912989
 20
-148.7184097562183
 10
1340.43356159973
 20
-152.8690244467163
 10
1336.046788002857
 20
-164.7099031351297
 10
1334.222042470737
 20
-187.7849620117704
 10
1332.201455721641
 20
-213.725398203258
 10
1328.060924807455
 20
-216.3268731649842
 10
1320.398195266102
 20
-214.8243904944854
 10
1292.200647686323
 20
-208.0338118169593
 10
1286.640394213962
 20
-208.5915717827115
 10
1285.070616704654
 20
-211.6295401567167
 10
1282.062394599978
 20
-215.7221774873822
 10
1274.828687071875
 20
-217.4232704947774
 10
1268.840665527359
 20
-218.6658738731712
 10
1268.819923251732
 20
-221.6502885128762
 10
1269.057997901448
 20
-225.0417463649576
 10
1263.702032332612
 20
-227.2535591311635
 10
1257.098081888178
 20
-226.5777197122231
 10
1254.350975600852
 20
-223.0265411130645
 10
1251.853473254986
 20
-219.068301885681
 10
1245.853922418728
 20
-217.4232704947774
 10
1238.905904470287
 20
-213.8106487819239
 10
1234.137445136529
 20
-205.1292662587173
 10
1233.503090268842
 20
-197.4539624747094
 10
1236.490570097892
 20
-196.2758673993546
 10
1240.426534454976
 20
-195.7858899161704
 10
1242.063119159331
 20
-189.7755935013556
 10
1240.507169833776
 20
-183.716915859261
 10
1236.767046693668
 20
-183.1094336458907
 10
1233.096726274559
 20
-182.4534657101496
 10
1232.881779871721
 20
-174.9449186760341
 10
1241.792790358095
 20
-146.7680959560332
 10
1247.299281105975
 20
-129.7724569971133
 10
1249.14706780573
 20
-114.7950884794318
 10
1252.153844394977
 20
-103.0499272946649
 10
1260.888885147574
 20
-92.96188409969728
 10
1272.9335815116
 20
-86.4622720039431
 10
1285.869324935135
 20
-85.48240411681673
 10
1299.081074726533
 20
-92.88967799159696
 10
1314.371005478191
 20
-107.5268279077995
  0
LWPOLYLINE
  5
1045
330
FD9
100
AcDbEntity
  8
0
  6
ByBlock
 62
     0
370
    -2
100
AcDbPolyline
 90
       86
 70
     1
 43
0.0
 10
-1194.089670950814
 20
-448.6308162955124
 10
-1190.932456261768
 20
-448.023334082142
 10
-1188.675327457628
 20
-446.5203637678839
 10
-1183.252554693742
 20
-449.6207505431023
 10
-1170.012382237506
 20
-454.9782487066122
 10
-1164.716222692599
 20
-457.5961468135237
 10
-1162.967601834503
 20
-465.3046626207224
 10
-1164.756731956333
 20
-474.0154082645886
 10
-1170.0738253512
 20
-479.6399784656562
 10
-1175.567254212665
 20
-484.1196830304077
 10
-1171.960013997014
 20
-491.4793245593964
 10
-1165.54344066716
 20
-496.5204290022477
 10
-1159.94248635673
 20
-496.8061185819078
 10
-1155.33761408843
 20
-496.3230551905987
 10
-1151.322546947218
 20
-499.5217370150491
 10
-1150.85331173966
 20
-504.9107230327426
 10
-1154.775430497145
 20
-509.6960757395963
 10
-1161.414717698293
 20
-509.817429372312
 10
-1167.468797556369
 20
-503.976084104308
 10
-1173.040475825381
 20
-496.7685874282765
 10
-1178.242938105074
 20
-494.2018570844133
 10
-1181.773879488216
 20
-496.3410109304565
 10
-1182.330960235873
 20
-503.2510971607519
 10
-1180.119147469668
 20
-508.6070627295894
 10
-1176.727689617587
 20
-508.3689880798726
 10
-1173.743274977881
 20
-507.4873455785839
 10
-1172.500671599487
 20
-511.3057877896344
 10
-1174.184871233786
 20
-516.3699159842726
 10
-1178.232958823853
 20
-518.4757533120346
 10
-1183.433017716446
 20
-522.1129662030444
 10
-1187.891213708236
 20
-530.8557744240966
 10
-1192.338646705619
 20
-538.5610160517674
 10
-1197.51874703577
 20
-539.7091732834592
 10
-1201.544559755538
 20
-540.1377076529495
 10
-1203.22031270329
 20
-546.1234303054562
 10
-1201.415525733611
 20
-552.0292838764996
 10
-1197.076384482528
 20
-552.2673585262166
 10
-1192.737243231447
 20
-551.8987172598992
 10
-1190.932456261768
 20
-556.3407861759285
 10
-1190.177322484367
 20
-558.3215254635356
 10
-1188.12160796874
 20
-557.8928865989544
 10
-1181.366366047928
 20
-550.5654818056366
 10
-1172.45997076142
 20
-540.9740515321523
 10
-1164.470554732912
 20
-537.0918498995502
 10
-1162.451500578489
 20
-539.0640554213661
 10
-1167.892734141841
 20
-543.5429762729332
 10
-1175.485086239193
 20
-550.7958934819903
 10
-1178.644599820248
 20
-559.4311762540776
 10
-1181.62748186528
 20
-565.9422131464823
 10
-1190.932456261768
 20
-565.8454332760745
 10
-1199.854978624037
 20
-565.6012108318184
 10
-1203.22031270329
 20
-570.2506328407171
 10
-1201.802889037122
 20
-577.21526550868
 10
-1198.608526343113
 20
-582.3119439242629
 10
-1195.224087077998
 20
-583.9215514792104
 10
-1193.236433698516
 20
-580.4249889811128
 10
-1192.468447024883
 20
-576.629570521849
 10
-1191.700442935402
 20
-576.8430714092581
 10
-1191.346396150172
 20
-584.0852256239095
 10
-1195.540411135262
 20
-587.5949370876644
 10
-1198.801284954895
 20
-591.239830367886
 10
-1200.172922355217
 20
-597.8430145149836
 10
-1202.693465868718
 20
-604.8302007068221
 10
-1208.706844888727
 20
-609.3936058397186
 10
-1213.727189640103
 20
-609.5648732943868
 10
-1212.927715112287
 20
-605.2894566331596
 10
-1211.811063150627
 20
-600.3850666014478
 10
-1215.145675673032
 20
-598.3468201819193
 10
-1219.739802362776
 20
-594.8885551347891
 10
-1221.65209736557
 20
-586.5689172018731
 10
-1223.49681887598
 20
-577.6379481530561
 10
-1227.931189986949
 20
-572.7020702671612
 10
-1233.794043827916
 20
-562.1798151360748
 10
-1239.076270693981
 20
-539.8197639217697
 10
-1245.697706650361
 20
-516.4681239542619
 10
-1257.77378637348
 20
-495.8392255019532
 10
-1275.344844968585
 20
-477.8794625829989
 10
-1298.451200125074
 20
-462.5352814630985
 10
-1311.484298142018
 20
-453.2196485672959
 10
-1318.031124603199
 20
-443.7617456046657
 10
-1317.563526485405
 20
-435.6850761749097
 10
-1309.553281102029
 20
-430.5131264618812
 10
-1285.260662837214
 20
-428.766908990886
 10
-1251.741215088366
 20
-431.2196874376684
 10
-1220.160569263811
 20
-436.5385920807855
 10
-1201.684339356023
 20
-443.3908054463395
  0
LWPOLYLINE
  5
1046
330
FD9
100
AcDbEntity
  8
0
  6
ByBlock
 62
     0
370
    -2
100
AcDbPolyline
 90
       82
 70
     1
 43
0.0
 10
1193.292612832796
 20
653.9454998214765
 10
1204.476670208889
 20
642.418524387379
 10
1214.189645689423
 20
624.5544789720707
 10
1221.038793865633
 20
603.6146205438521
 10
1223.631334497051
 20
582.8602409027212
 10
1226.547391931187
 20
571.7128613036806
 10
1233.559918182669
 20
562.2657909988502
 10
1238.353055773826
 20
556.5295677927106
 10
1240.778264932348
 20
548.0787014409493
 10
1239.513386683656
 20
515.252456712049
 10
1235.044828261979
 20
477.3871451945783
 10
1230.362002655555
 20
454.4175915284704
 10
1224.200031615694
 20
442.2479016193806
 10
1215.294019477852
 20
436.7821987888119
 10
1196.76393976634
 20
433.4214799094265
 10
1194.09055476594
 20
431.1689663051525
 10
1195.191097067688
 20
424.4697685849833
 10
1195.585844690985
 20
417.4587923440217
 10
1186.276255094631
 20
418.6268907223065
 10
1174.791704667609
 20
418.9840201127303
 10
1165.749378683146
 20
411.9546004881518
 10
1158.636258490421
 20
405.301485103253
 10
1153.301784078699
 20
408.7351763880747
 10
1153.15434150485
 20
416.4504147128146
 10
1160.029387047857
 20
424.5250639041382
 10
1166.700928400526
 20
431.7388128698003
 10
1166.787711573863
 20
437.4273166509047
 10
1163.542947414142
 20
438.5693260880575
 10
1162.192052289447
 20
434.8591582074605
 10
1159.484880542855
 20
429.7950300128218
 10
1152.976159958306
 20
427.6891926850598
 10
1146.495078325414
 20
430.8464073741061
 10
1143.852432297707
 20
438.4410757793152
 10
1145.00057211355
 20
445.609491291194
 10
1149.904195847927
 20
439.9770491265808
 10
1154.898434242321
 20
434.7877358125451
 10
1156.6809463417
 20
443.0490132369609
 10
1156.834554125937
 20
459.7604952108931
 10
1159.89192375523
 20
464.7724106915697
 10
1168.170094552743
 20
470.604525559841
 10
1175.682577568631
 20
477.6416255736321
 10
1176.900624600564
 20
485.5404269421178
 10
1177.372924997468
 20
491.6221457518481
 10
1184.80785523975
 20
493.183459158758
 10
1189.510256259946
 20
494.2394517199086
 10
1180.623836951729
 20
499.3273873795187
 10
1170.064729885104
 20
505.779280050238
 10
1175.333912280603
 20
510.4110423887041
 10
1181.904842276182
 20
516.5741628745695
 10
1182.301122494151
 20
526.3914070403898
 10
1182.484685537898
 20
535.5358769766158
 10
1190.349682744344
 20
538.279900658746
 10
1197.405208725903
 20
539.8151077086758
 10
1194.853177358218
 20
544.939912719672
 10
1191.252537749169
 20
547.2285293779959
 10
1187.470477245746
 20
546.844544749103
 10
1178.405876390985
 20
537.6347827966533
 10
1170.523985811442
 20
528.7345353046839
 10
1165.319311718982
 20
526.9627861997105
 10
1166.566530297243
 20
533.8362991480444
 10
1174.191136546114
 20
545.7324905714617
 10
1181.495500171797
 20
557.9589038992876
 10
1181.95707240599
 20
565.6142317050057
 10
1178.336752888077
 20
575.2294868593107
 10
1177.504257911405
 20
590.1807316041631
 10
1179.282154810918
 20
604.8601149531064
 10
1183.493045753257
 20
613.659751087986
 10
1185.067438462431
 20
619.527969010307
 10
1177.914366313126
 20
627.4835982926211
 10
1170.749782287929
 20
634.5437394740474
 10
1174.842402202746
 20
636.7793597052245
 10
1178.737648305914
 20
639.1048282990864
 10
1171.407944620587
 20
646.2594330430625
 10
1159.120088179067
 20
659.8866727333852
 10
1157.832168762738
 20
662.5254872744085
 10
1154.733331998041
 20
662.7681771239922
 10
1152.665130319002
 20
664.4216552014431
 10
1153.85473727025
 20
670.448078692018
 10
1157.681922237274
 20
676.8535058787988
 10
1162.400171679654
 20
679.2292888591291
 10
1167.5412082615
 20
677.5431734814892
 10
1172.636737231079
 20
671.7628881785117
  0
LWPOLYLINE
  5
1047
330
FD9
100
AcDbEntity
  8
0
  6
ByBlock
 62
     0
370
    -2
100
AcDbPolyline
 90
       88
 70
     1
 43
0.0
 10
908.2450684295322
 20
-91.56490663973135
 10
904.9112222044637
 20
-92.92501474831079
 10
909.1666628874014
 20
-96.78724040262318
 10
916.1123645279863
 20
-99.18029990471769
 10
921.4545193289218
 20
-97.7211130337214
 10
924.0339980739259
 20
-96.08337888336155
 10
925.73221746631
 20
-98.24489467894705
 10
927.9547932269201
 20
-118.7026301716782
 10
929.1290393997455
 20
-124.3069457408787
 10
932.0911965849996
 20
-127.6689185613602
 10
945.3236712361762
 20
-128.7970998147621
 10
957.7413279969601
 20
-125.4709339789049
 10
964.2838353277007
 20
-119.955996544478
 10
964.5168245496392
 20
-117.0177513192859
 10
962.5258969906294
 20
-115.8587614297942
 10
951.0498106660039
 20
-118.8070730154493
 10
938.6644254725874
 20
-121.754635719617
 10
940.2917971930579
 20
-111.6616986712058
 10
945.0471946404009
 20
-103.6100732316686
 10
949.6367061302775
 20
-105.8802465063747
 10
954.5026942159307
 20
-109.9951412914909
 10
959.8663575898276
 20
-109.6403456247733
 10
966.0847733948489
 20
-108.4929546904179
 10
973.0082175809835
 20
-110.6909566887213
 10
983.2366150994388
 20
-114.7917272206614
 10
994.9504800043564
 20
-116.6789782332368
 10
1004.589629702875
 20
-116.1297694491245
 10
1008.593846770438
 20
-112.921195422696
 10
1001.497602534962
 20
-103.176923662312
 10
997.4472334687348
 20
-101.9197258028311
 10
999.3779544392978
 20
-106.8325625210907
 10
1001.308675409861
 20
-111.7453992393505
 10
997.2583063436337
 20
-110.4882013798696
 10
991.8016249226152
 20
-105.371355411662
 10
990.4454527958092
 20
-100.1825297413861
 10
993.0256107589061
 20
-96.16065300339052
 10
999.3779544392978
 20
-94.54470607957
 10
1005.886675023845
 20
-96.45700108236475
 10
1008.593846770438
 20
-101.0511277721086
 10
1010.378657761827
 20
-104.5424132680943
 10
1014.670184082965
 20
-103.8035981407875
 10
1017.93415792364
 20
-104.0263294279291
 10
1016.673111161629
 20
-110.6540873373351
 10
1015.644008670644
 20
-118.1442954829242
 10
1022.688022776311
 20
-117.3816903064939
 10
1031.157419590933
 20
-116.82720452027
 10
1037.359725736041
 20
-120.9267385269624
 10
1040.208192261944
 20
-124.3542820172454
 10
1040.628279944886
 20
-122.1923830729915
 10
1041.956151317794
 20
-117.8501592167158
 10
1046.993389442266
 20
-116.0423070576919
 10
1052.622766417534
 20
-119.194906546872
 10
1055.36757381285
 20
-126.7941901519471
 10
1054.562526213496
 20
-133.9917946260007
 10
1050.682832463086
 20
-137.023824195649
 10
1043.342557357688
 20
-135.9593849479506
 10
1032.155817940919
 20
-130.8676178016587
 10
1022.880781388092
 20
-127.1751095914937
 10
1025.434345350449
 20
-134.4863873090514
 10
1030.698929961931
 20
-141.607187890987
 10
1035.258503608145
 20
-144.2490850372044
 10
1047.487215827982
 20
-144.8765258130161
 10
1047.254992903378
 20
-148.0100375321817
 10
1042.95683114394
 20
-153.2130745348772
 10
1028.696786596452
 20
-170.1088858498926
 10
1015.041907954476
 20
-180.4675364996735
 10
988.87184379982
 20
-195.0102228533253
 10
953.7900028614526
 20
-212.5265608522771
 10
930.5045257025971
 20
-201.154151074086
 10
910.0129860478242
 20
-186.4233213085178
 10
894.9311746863719
 20
-165.1998806183139
 10
876.4993900240911
 20
-136.1083775323197
 10
874.643922935124
 20
-132.8044865667618
 10
879.5713541344708
 20
-131.4082754041324
 10
885.4318916675806
 20
-130.2393933126623
 10
880.3209148403352
 20
-125.8541697263094
 10
875.6000704365209
 20
-120.0320167234108
 10
876.1368965523129
 20
-113.5601654902496
 10
880.8408475830306
 20
-109.7056202251492
 10
886.1392189407037
 20
-110.1687076381686
 10
890.1788424283745
 20
-109.0973717144427
 10
891.8592105759913
 20
-101.5610638177343
 10
893.2823988880295
 20
-93.65787365541292
 10
897.6598550059275
 20
-87.97224348931967
 10
905.1534244102873
 20
-84.37630615937996
 10
915.9249699975585
 20
-82.74221192136748
 10
920.717236796287
 20
-83.75520475244139
 10
920.0168410308883
 20
-86.86478709569518
  0
LWPOLYLINE
  5
1048
330
FD9
100
AcDbEntity
  8
0
  6
ByBlock
 62
     0
370
    -2
100
AcDbPolyline
 90
       35
 70
     1
 43
0.0
 10
328.7674176212145
 20
-146.5231072144406
 10
344.6871054565418
 20
-149.8400600664133
 10
358.5646979698108
 20
-151.6448470360915
 10
366.5533477009812
 20
-155.9839882871736
 10
374.5419974321512
 20
-160.3231295382556
 10
388.4195899454212
 20
-162.127916507934
 10
402.5161519225439
 20
-165.5252260851291
 10
405.6962510365888
 20
-169.6890245729814
 10
406.3053355080255
 20
-175.4226005701405
 10
399.8337629284415
 20
-191.3782869644271
 10
383.1480912420648
 20
-212.9504974377496
 10
363.3177965251448
 20
-238.9692527001789
 10
348.4226133967841
 20
-265.0387054977459
 10
337.0463721319106
 20
-284.5433760942733
 10
331.3372131544233
 20
-289.4887630334785
 10
325.6839416349408
 20
-291.1504091439013
 10
317.6661029415964
 20
-289.3010898494738
 10
314.3299578245187
 20
-284.8528905547539
 10
309.7412126319773
 20
-278.6628799987229
 10
298.7059562659201
 20
-272.6203294323884
 10
279.6534359295206
 20
-262.628857117646
 10
260.7886932722167
 20
-248.564531876194
 10
246.3568065470572
 20
-234.0682239272378
 10
240.6028191753944
 20
-222.7807686582873
 10
243.5549796635791
 20
-213.2699737636021
 10
250.6542890884011
 20
-204.4411486665479
 10
264.1886848900885
 20
-189.5657325262943
 10
276.7559960374874
 20
-170.1365248015456
 10
285.3547055276136
 20
-151.5459598480086
 10
286.9833311891807
 20
-139.1864894372388
 10
285.6086285995134
 20
-128.6757635978945
 10
287.4318415369607
 20
-116.7549984121701
 10
291.901549404643
 20
-107.2081178792832
 10
298.3250194105244
 20
-115.5446491852956
 10
315.8659311717843
 20
-138.547519369685
  0
LWPOLYLINE
  5
1049
330
FD9
100
AcDbEntity
  8
0
  6
ByBlock
 62
     0
370
    -2
100
AcDbPolyline
 90
       78
 70
     1
 43
0.0
 10
-1265.774435624303
 20
-647.6207490267224
 10
-1247.15170359849
 20
-651.6008625598885
 10
-1230.748847876761
 20
-647.6299620106069
 10
-1217.621686861783
 20
-635.7080473788776
 10
-1208.664594040137
 20
-628.0465717786203
 10
-1198.643079386641
 20
-626.0620880835743
 10
-1188.104714595644
 20
-629.2354124325318
 10
-1192.468447024883
 20
-629.7914482292769
 10
-1195.721640455303
 20
-631.2767414572542
 10
-1197.076384482528
 20
-635.8677855418041
 10
-1200.016249381636
 20
-639.5587611572964
 10
-1207.158575952383
 20
-638.7984374570266
 10
-1213.961432803139
 20
-637.3868829318223
 10
-1209.179928998815
 20
-644.6474631142423
 10
-1202.993749929466
 20
-656.3685381804607
 10
-1199.447935411661
 20
-670.9004615397068
 10
-1199.341959973217
 20
-683.0562361858032
 10
-1205.917505168662
 20
-676.5037321579943
 10
-1213.179617945755
 20
-669.2992135920653
 10
-1217.511096223473
 20
-674.5683959875643
 10
-1217.984946630898
 20
-681.5793896443745
 10
-1214.279376534319
 20
-685.7933457760586
 10
-1211.019269012022
 20
-690.8966596299408
 10
-1215.237840343573
 20
-702.2897942679096
 10
-1219.117725668318
 20
-711.7429949514307
 10
-1218.482987651963
 20
-713.2097577165477
 10
-1216.122565450056
 20
-712.3904117055328
 10
-1211.202048342584
 20
-713.1392061140602
 10
-1209.456405594591
 20
-722.3988818884627
 10
-1210.745857605592
 20
-732.0379270918904
 10
-1215.790793535125
 20
-727.3693128178868
 10
-1219.821204038911
 20
-723.780498570005
 10
-1218.229935372491
 20
-734.5454261348258
 10
-1217.918122020001
 20
-748.9352710015785
 10
-1227.255367983858
 20
-757.8001817368342
 10
-1236.50119815866
 20
-761.0994749183744
 10
-1240.083882027851
 20
-758.7586455460893
 10
-1236.924368446796
 20
-753.755943049297
 10
-1229.332016349445
 20
-750.0342632928059
 10
-1223.933033634682
 20
-747.6819046287789
 10
-1232.403980459825
 20
-746.5137888346453
 10
-1242.165911890642
 20
-747.9222955863534
 10
-1246.227810248611
 20
-752.3075191727059
 10
-1247.843670093189
 20
-755.9032475124631
 10
-1251.726620607279
 20
-755.4163526344725
 10
-1257.144029289811
 20
-756.1605318431339
 10
-1262.441634350147
 20
-762.7337607307208
 10
-1265.66412363957
 20
-767.9983453422017
 10
-1266.103421003465
 20
-765.6091173267884
 10
-1267.480422485142
 20
-762.0092614309242
 10
-1274.128922670174
 20
-760.0803517086101
 10
-1307.728535569909
 20
-760.7124076842883
 10
-1356.935256655147
 20
-767.3785675397532
 10
-1361.190697338085
 20
-767.9898986556533
 10
-1362.962446443058
 20
-764.2328821424487
 10
-1364.795638661727
 20
-760.5158001699756
 10
-1369.204669713051
 20
-761.2223611457629
 10
-1372.577701597363
 20
-765.6290933050781
 10
-1371.914157767501
 20
-770.8007469486815
 10
-1371.136940694136
 20
-774.8403704363522
 10
-1374.230413377478
 20
-776.5207385839694
 10
-1379.448915653689
 20
-773.6891480153151
 10
-1383.77807762355
 20
-766.8809096673567
 10
-1383.35711914818
 20
-755.6296619475472
 10
-1376.424566473252
 20
-742.7552397267679
 10
-1365.299914556573
 20
-731.3761074310355
 10
-1352.302728019345
 20
-724.6106946546685
 10
-1341.126438111706
 20
-718.0403393820927
 10
-1335.481421704439
 20
-706.1420406410011
 10
-1335.542185600039
 20
-689.7970751998625
 10
-1341.483271432705
 20
-669.8867198271455
 10
-1348.235448164172
 20
-647.7232587113042
 10
-1346.601545500494
 20
-640.2077975853135
 10
-1341.643009595631
 20
-631.5547506477026
 10
-1331.461565204875
 20
-620.6907443204648
 10
-1319.500290755416
 20
-617.7017318967416
 10
-1304.589938422966
 20
-622.6729291235019
 10
-1285.561242967386
 20
-635.6896214111088
  0
LWPOLYLINE
  5
104A
330
FD9
100
AcDbEntity
  8
0
  6
ByBlock
 62
     0
370
    -2
100
AcDbPolyline
 90
       47
 70
     1
 43
0.0
 10
1641.199100896233
 20
-154.3124499747728
 10
1644.876718555886
 20
-160.4844177117034
 10
1647.562381729515
 20
-180.7747346522967
 10
1649.69202652225
 20
-199.622775510838
 10
1652.603764825943
 20
-203.8294518178277
 10
1656.96873378043
 20
-205.1354140532565
 10
1664.655549440332
 20
-202.4282423066634
 10
1669.913986257273
 20
-195.9195217221161
 10
1674.584620769709
 20
-188.5458430191934
 10
1679.318039416178
 20
-186.9401714460195
 10
1682.209436008762
 20
-190.5921529766022
 10
1681.353986943698
 20
-198.991485832496
 10
1680.178486829778
 20
-206.9427785685207
 10
1682.451446640252
 20
-210.7947462880352
 10
1687.458067702969
 20
-210.2242205052937
 10
1694.483568761624
 20
-204.9080849820966
 10
1703.873027439442
 20
-201.8073324740587
 10
1716.520294747547
 20
-204.5379111211068
 10
1728.676818275131
 20
-211.6161125374826
 10
1736.594045611386
 20
-221.5581412581832
 10
1743.235631704542
 20
-264.9711320053609
 10
1745.189393842742
 20
-297.1653207585827
 10
1727.113972273548
 20
-283.7961316962667
 10
1716.473933758699
 20
-276.4700679232883
 10
1708.527813529695
 20
-273.6955142586439
 10
1699.921615224691
 20
-275.2201673043505
 10
1687.301307650146
 20
-280.7917410782718
 10
1658.44328142985
 20
-291.1504091439013
 10
1648.543102993221
 20
-295.8067452446758
 10
1634.75844144783
 20
-307.0017397736594
 10
1615.840510789047
 20
-319.4616299671848
 10
1592.955145334843
 20
-326.2445282554988
 10
1567.691314859631
 20
-329.6298383130413
 10
1567.691314859631
 20
-292.7293996370927
 10
1563.851364075617
 20
-236.6230418306912
 10
1562.177805524785
 20
-226.0574038208597
 10
1563.231586273169
 20
-220.2863489176152
 10
1568.051213369975
 20
-217.8606346994836
 10
1577.675193864404
 20
-217.3311058242359
 10
1593.637219627564
 20
-215.8032830940927
 10
1603.62792564497
 20
-209.9146189655705
 10
1609.62467252961
 20
-197.3893670924267
 10
1613.604890557868
 20
-175.9517462967205
 10
1616.640281386288
 20
-155.7669345666604
 10
1619.949257779623
 20
-146.3433930732242
 10
1625.604845606963
 20
-145.2498693584427
 10
1635.68001848985
 20
-150.0550935484946
  0
LWPOLYLINE
  5
104B
330
FD9
100
AcDbEntity
  8
0
  6
ByBlock
 62
     0
370
    -2
100
AcDbPolyline
 90
       49
 70
     1
 43
0.0
 10
-1686.211410825013
 20
-441.4631496651213
 10
-1665.600067548046
 20
-440.7550560946615
 10
-1654.544068906362
 20
-440.5077684610601
 10
-1651.727072818795
 20
-449.7251933868733
 10
-1653.061753788488
 20
-463.890878866903
 10
-1657.132969625433
 20
-473.8316710623567
 10
-1664.041523261056
 20
-479.6909546543702
 10
-1673.888217626779
 20
-481.6121839874722
 10
-1684.271459454716
 20
-483.1435595507202
 10
-1688.590642143357
 20
-486.8222395771344
 10
-1695.809755190373
 20
-493.3417057402389
 10
-1713.166355026399
 20
-501.6905500511779
 10
-1727.945182870578
 20
-508.7046088973336
 10
-1735.989511069571
 20
-515.4421911477133
 10
-1737.230198704625
 20
-521.8042180399004
 10
-1731.598139688679
 20
-527.6916456431751
 10
-1726.477183580214
 20
-534.2497053266726
 10
-1725.941123761758
 20
-543.4723201753545
 10
-1729.697356561779
 20
-553.602701298154
 10
-1737.453295724586
 20
-562.8840598040047
 10
-1768.077706968501
 20
-582.6352517367972
 10
-1783.586903253439
 20
-589.5312485456133
 10
-1794.849889255173
 20
-592.2028919611586
 10
-1806.141646238717
 20
-596.7117680722365
 10
-1821.262625843564
 20
-607.5565647185205
 10
-1838.478679781769
 20
-618.399828770132
 10
-1854.796180429739
 20
-622.9163852704214
 10
-1863.10613515086
 20
-622.1973545470705
 10
-1867.934208934214
 20
-619.1179016218127
 10
-1871.114464790895
 20
-600.398894785199
 10
-1869.027053430902
 20
-581.957130841697
 10
-1863.115069481168
 20
-569.2430389226949
 10
-1857.014907287821
 20
-559.6055088980911
 10
-1854.476704103887
 20
-548.5625721428219
 10
-1851.317190522832
 20
-539.0709695132418
 10
-1843.72483842548
 20
-533.1597344449956
 10
-1805.325278337804
 20
-515.7601348788932
 10
-1783.954203499417
 20
-502.101807898904
 10
-1775.756093357703
 20
-489.5378580102758
 10
-1776.597975476745
 20
-483.6741856244272
 10
-1780.734396250673
 20
-478.0936252726528
 10
-1798.892577932189
 20
-467.7944845773765
 10
-1816.453465671739
 20
-459.3619396982924
 10
-1823.757063000085
 20
-452.8094530863318
 10
-1818.151110341121
 20
-443.9406934485459
 10
-1804.455914009745
 20
-435.6386977702136
 10
-1787.355431642537
 20
-430.0208500866879
 10
-1771.533673123622
 20
-429.2044821857753
 10
-1716.287466661395
 20
-438.272914527219
  0
LWPOLYLINE
  5
104C
330
FD9
100
AcDbEntity
  8
0
  6
ByBlock
 62
     0
370
    -2
100
AcDbPolyline
 90
       38
 70
     1
 43
0.0
 10
262.2878146839444
 20
-559.2553110153913
 10
265.178532058435
 20
-576.4498563806328
 10
263.8075912920562
 20
-586.4957880537999
 10
259.7428889824691
 20
-595.5143762366856
 10
243.82069326495
 20
-610.2975232113062
 10
217.9891235427653
 20
-620.4554562065164
 10
182.8253236211085
 20
-625.6442992926409
 10
148.9169799740775
 20
-630.8881416284955
 10
122.7499810087661
 20
-641.0163980177717
 10
111.4097383028525
 20
-648.6593605710172
 10
104.220667594589
 20
-656.6150595167258
 10
99.88967696062992
 20
-666.9335143880471
 10
97.12365706177706
 20
-681.6646228071918
 10
92.19326516817591
 20
-707.8527471967973
 10
85.00092028038535
 20
-723.6660590291647
 10
73.71558974495792
 20
-731.4408247242576
 10
56.50615382920432
 20
-733.5132410386473
 10
42.02189764744661
 20
-732.2085849918596
 10
30.30623891012874
 20
-728.6124038400401
 10
21.6043056856297
 20
-723.2014216056243
 10
16.16127828987646
 20
-716.4523274793512
 10
14.22230220709889
 20
-708.8418280678078
 10
16.03254033737448
 20
-700.8466473934304
 10
21.83715558078075
 20
-692.9434746469573
 10
31.88129342154662
 20
-685.6090338508245
 10
45.76656632402728
 20
-674.611395717641
 10
53.03482689565953
 20
-662.8580664999028
 10
63.33819964213398
 20
-608.4105682681559
 10
71.68895969641425
 20
-574.8619489729826
 10
77.42382446636611
 20
-564.2132721972516
 10
85.25820461105604
 20
-556.9912681193756
 10
95.98694204258391
 20
-552.7030856411591
 10
110.4049135047494
 20
-550.8558910802547
 10
153.4880654961853
 20
-552.5131135651451
 10
197.3572469803548
 20
-554.0199153660848
 10
219.8732048709053
 20
-550.1169888737049
 10
236.5478349092996
 20
-543.6512680192345
 10
253.2961688187697
 20
-549.410427897918
  0
LWPOLYLINE
  5
104D
330
FD9
100
AcDbEntity
  8
0
  6
ByBlock
 62
     0
370
    -2
100
AcDbPolyline
 90
       33
 70
     1
 43
0.0
 10
-234.268296301223
 20
-246.1661082927449
 10
-217.5806217922623
 20
-254.2868398193393
 10
-208.2639439455465
 20
-258.2465071463043
 10
-199.148837129981
 20
-268.2189613544269
 10
-192.222519328835
 20
-281.3444156162463
 10
-189.4721562778304
 20
-294.7630308567548
 10
-185.5661471802568
 20
-309.0253917121011
 10
-176.176688502439
 20
-324.8314237197733
 10
-168.96736316231
 20
-334.7024131942271
 10
-166.1943420923385
 20
-342.0712851229489
 10
-167.5938274344957
 20
-349.8594784372765
 10
-172.9019864990559
 20
-360.9884494843968
 10
-180.4943385964065
 20
-381.6973215132596
 10
-184.667611305872
 20
-404.4567355507292
 10
-186.4001921674503
 20
-428.6822505510708
 10
-216.4808632036984
 20
-429.2106125644656
 10
-242.5411030173809
 20
-426.8997384516914
 10
-260.4591027315055
 20
-418.8150925632982
 10
-280.850797326525
 20
-407.8850453383481
 10
-289.2016444600481
 20
-403.7645774816951
 10
-294.9979697595431
 20
-393.3945891145058
 10
-297.2381006954956
 20
-379.7621769171635
 10
-294.9203995700886
 20
-365.8544375700494
 10
-290.4084408538169
 20
-344.3913896354563
 10
-288.2235181577767
 20
-315.7261220269429
 10
-288.9129767702848
 20
-294.8161317789923
 10
-293.0664650757945
 20
-277.7405192435178
 10
-302.6642347181519
 20
-259.3965801213371
 10
-319.6865721729032
 20
-234.6815578657222
 10
-323.5234577675715
 20
-223.8505894031889
 10
-315.7483089238094
 20
-211.6418357457947
 10
-300.6465389999157
 20
-198.9976336270351
 10
-261.7800425966902
 20
-226.6453106204567
  0
LWPOLYLINE
  5
104E
330
FD9
100
AcDbEntity
  8
0
  6
ByBlock
 62
     0
370
    -2
100
AcDbPolyline
 90
       52
 70
     1
 43
0.0
 10
-968.3886158979589
 20
249.8393658087289
 10
-954.2499075673372
 20
234.8067019718924
 10
-941.5074103993461
 20
223.1209636623876
 10
-923.9910549845458
 20
216.1906053843773
 10
-908.4973239731224
 20
211.6474548833471
 10
-897.3701815901
 20
203.98646692685
 10
-889.4236956282762
 20
191.9859371547527
 10
-883.4718642170532
 20
174.4241786227758
 10
-869.521299298348
 20
114.4310213997542
 10
-869.479536093519
 20
101.9121088954834
 10
-872.9104408425719
 20
92.08939615321742
 10
-881.6463349717482
 20
81.23000502584636
 10
-894.3404683283093
 20
77.48528410171957
 10
-908.4377095235263
 20
75.52767306099076
 10
-921.5765043253368
 20
70.81912424625534
 10
-936.2060609315699
 20
66.48247346151629
 10
-949.9791061059763
 20
68.43681032271752
 10
-961.0046792602387
 20
75.95986475867722
 10
-967.3917675584934
 20
88.32931445066742
 10
-974.5090327231729
 20
106.5111294386702
 10
-986.2866570496422
 20
120.4651252795402
 10
-1002.767831842312
 20
130.2259072643528
 10
-1023.995783237291
 20
135.8280284366351
 10
-1045.590930383157
 20
140.9436204637468
 10
-1057.209861497613
 20
147.2065860093657
 10
-1060.562133690451
 20
149.0943072498526
 10
-1061.909963625801
 20
141.9965304197039
 10
-1063.187137463572
 20
133.7721223466737
 10
-1068.053891846562
 20
138.9245663093234
 10
-1072.948302597052
 20
144.4786719871463
 10
-1074.10565539678
 20
137.1489683018194
 10
-1074.550334257878
 20
131.5888193245496
 10
-1076.386591665892
 20
129.9736386980653
 10
-1088.021649856108
 20
139.1150260290969
 10
-1098.512417133011
 20
151.5042601250434
 10
-1096.395451078024
 20
155.4703539001243
 10
-1089.557640619222
 20
160.5757750716816
 10
-1065.063329412317
 20
181.4897013014042
 10
-1058.196538981524
 20
190.7895031908729
 10
-1055.76603540504
 20
198.3670692328023
 10
-1053.740850871927
 20
204.1170161276018
 10
-1048.872546478416
 20
206.5077767376874
 10
-1045.513360193703
 20
208.7587577472886
 10
-1049.683550297975
 20
215.7973903557518
 10
-1057.869173276277
 20
230.6550423304811
 10
-1059.767274362501
 20
246.5592823081424
 10
-1055.52066351478
 20
261.6329256366244
 10
-1045.272202938792
 20
273.9988224955096
 10
-1033.84228602868
 20
281.8007569143451
 10
-1023.643269046734
 20
283.4136386488208
 10
-1010.141510545234
 20
278.1364797946844
 10
-988.8033690764618
 20
265.2683098635357
  0
LWPOLYLINE
  5
104F
330
FD9
100
AcDbEntity
  8
0
  6
ByBlock
 62
     0
370
    -2
100
AcDbPolyline
 90
       66
 70
     1
 43
0.0
 10
-1410.269150698731
 20
-272.3914677665557
 10
-1419.050360865843
 20
-287.691377799435
 10
-1425.312943262793
 20
-296.9876268557987
 10
-1428.601107717108
 20
-306.1116505858229
 10
-1427.756317151357
 20
-331.3562713800804
 10
-1426.355490788861
 20
-354.6594256252169
 10
-1430.066616541129
 20
-358.06133298643
 10
-1437.727900567052
 20
-358.7336195722653
 10
-1458.533552466323
 20
-365.167086275216
 10
-1488.790088741257
 20
-380.6367311680908
 10
-1534.992436624348
 20
-407.3136661790279
 10
-1543.855814764931
 20
-415.4835452302384
 10
-1552.226150232985
 20
-428.4180521285247
 10
-1559.18184857064
 20
-438.5683918137661
 10
-1567.091395517683
 20
-443.9253326701225
 10
-1574.779743772258
 20
-444.0752831261618
 10
-1581.071898280051
 20
-438.60468644215
 10
-1588.05293667735
 20
-434.265545191068
 10
-1599.503682942332
 20
-432.4607582213896
 10
-1610.954429207314
 20
-434.265545191068
 10
-1617.935467604613
 20
-438.60468644215
 10
-1624.119330366105
 20
-442.9438276932319
 10
-1633.657781628292
 20
-444.7486146629103
 10
-1642.081113523492
 20
-442.9438276932319
 10
-1645.583144598035
 20
-438.60468644215
 10
-1641.973588074526
 20
-434.265545191068
 10
-1633.295288156514
 20
-432.4607582213896
 10
-1623.931935835677
 20
-429.2213755588713
 10
-1621.204039229306
 20
-418.6369110167545
 10
-1624.877059104941
 20
-401.1356551426497
 10
-1636.985480058822
 20
-388.9870906578542
 10
-1660.03432808339
 20
-380.7380043274256
 10
-1696.52859433939
 20
-374.9351655005717
 10
-1710.731828388899
 20
-371.4538592858066
 10
-1720.797109069809
 20
-365.8482897755102
 10
-1728.950112163772
 20
-360.8233298242674
 10
-1738.559202107689
 20
-358.7336195722653
 10
-1745.834777335713
 20
-355.0637693810675
 10
-1752.71175603791
 20
-346.7329853050774
 10
-1756.671893592785
 20
-337.7593996748522
 10
-1755.196962794697
 20
-332.1611274050995
 10
-1717.264356438418
 20
-307.4441023269007
 10
-1707.756522237987
 20
-301.2290477806507
 10
-1700.658083605594
 20
-299.268841778487
 10
-1692.814298902685
 20
-301.6527753759403
 10
-1681.070478738257
 20
-308.4701396285404
 10
-1659.434735249415
 20
-317.8431925770214
 10
-1631.274701407418
 20
-325.9427116000789
 10
-1606.852874962189
 20
-330.3316795938704
 10
-1599.250804821345
 20
-330.3731467292748
 10
-1596.431718831952
 20
-328.5730794545541
 10
-1589.998252129001
 20
-322.3477321418093
 10
-1574.528607236126
 20
-312.869191398644
 10
-1561.755284016196
 20
-306.4358291907849
 10
-1552.824419462471
 20
-304.2054859617185
 10
-1544.155053874766
 20
-306.1119292393996
 10
-1532.166227552896
 20
-312.0889091359331
 10
-1514.485640686243
 20
-318.7922344122094
 10
-1499.316941656361
 20
-318.6729010179256
 10
-1486.985597841004
 20
-311.8133033325849
 10
-1477.81704178623
 20
-298.2958009039935
 10
-1468.289440597692
 20
-283.1602268180586
 10
-1454.260452112953
 20
-268.7803612325267
 10
-1437.557695479145
 20
-256.7275142513777
 10
-1420.008824675098
 20
-248.572978562742
 10
-1412.464070091841
 20
-259.773372004777
  0
LWPOLYLINE
  5
1050
330
FD9
100
AcDbEntity
  8
0
  6
ByBlock
 62
     0
370
    -2
100
AcDbPolyline
 90
      147
 70
     1
 43
0.0
 10
-1373.3287948979
 20
110.7454446973133
 10
-1375.715706605455
 20
103.3475753807511
 10
-1380.024143715539
 20
98.50367059106339
 10
-1385.448449074097
 20
91.69926372978626
 10
-1385.301772797586
 20
84.98702153905105
 10
-1384.06376720321
 20
79.2593495145511
 10
-1386.86231990716
 20
74.83110878227262
 10
-1389.847500844201
 20
68.4690644742368
 10
-1389.068002294675
 20
58.08890525149308
 10
-1388.170981599114
 20
49.13336244036873
 10
-1392.711345564375
 20
49.24165418667008
 10
-1398.473675127496
 20
51.64056541387845
 10
-1399.352165360196
 20
49.1395102349079
 10
-1387.482864006945
 20
32.68376258112494
 10
-1380.586309890975
 20
23.55388712598642
 10
-1379.905681113683
 20
21.12702346185097
 10
-1381.338935786185
 20
20.65395676761091
 10
-1387.242769118796
 20
20.31035949151237
 10
-1387.291637989835
 20
16.27869504663022
 10
-1382.639237870834
 20
10.91419571200185
 10
-1374.439299065021
 20
6.572058934968936
 10
-1365.649642211362
 20
2.059351337210046
 10
-1369.831361607375
 20
-3.522410708114875
 10
-1374.923146169515
 20
-8.870695887740566
 10
-1370.642365426933
 20
-12.57856487632898
 10
-1365.21727635519
 20
-16.54216818506666
 10
-1362.962446443058
 20
-21.68999694784998
 10
-1364.385530260005
 20
-25.04690175640235
 10
-1367.803860766403
 20
-24.69438756584532
 10
-1373.83796464619
 20
-28.31623967843143
 10
-1381.553969268266
 20
-41.22770540908232
 10
-1389.483474777751
 20
-55.84026414712844
 10
-1392.588476752836
 20
-46.24728386312244
 10
-1392.4348689686
 20
-36.33635984793682
 10
-1387.396847130942
 20
-36.26340485834908
 10
-1382.767401100333
 20
-36.62513203279059
 10
-1384.312604847333
 20
-27.43457976129457
 10
-1385.223436310795
 20
-15.35177752063464
 10
-1381.14847606641
 20
-5.162844315000256
 10
-1377.193319444221
 20
1.988695239630942
 10
-1383.716634509856
 20
3.758145452595726
 10
-1390.754500820983
 20
2.113114061692158
 10
-1393.68208754686
 20
-1.84512516569157
 10
-1396.232777894206
 20
-5.178396667757624
 10
-1402.332731097371
 20
-6.015315269962684
 10
-1409.653796521815
 20
-4.476834040505309
 10
-1415.867806117152
 20
-0.6839060475849692
 10
-1420.485653192625
 20
1.39983056836354
 10
-1425.268794086712
 20
-0.0725923475329182
 10
-1428.997875578838
 20
-4.286757469400072
 10
-1430.453492200881
 20
-10.42817780796895
 10
-1428.745485101611
 20
-13.20447305746802
 10
-1424.401728650662
 20
-8.529710988925216
 10
-1419.590269586828
 20
-3.742059390062877
 10
-1418.349965100443
 20
-12.78745056387151
 10
-1415.62666627809
 20
-22.77900995785694
 10
-1406.20342085408
 20
-23.93253127090247
 10
-1400.074365767983
 20
-23.36480943977858
 10
-1396.928384301254
 20
-25.22429958976136
 10
-1397.749367402033
 20
-39.63027153227358
 10
-1398.109561981802
 20
-55.66363261110564
 10
-1393.11070838754
 20
-68.42072426018467
 10
-1388.892903353325
 20
-74.66526383803466
 10
-1390.315220872936
 20
-74.56465248094492
 10
-1397.463677822372
 20
-74.28970847984146
 10
-1407.00825946325
 20
-80.12490595330655
 10
-1414.953143167007
 20
-86.02614432448353
 10
-1418.257800429902
 20
-85.91863629136696
 10
-1420.512630342033
 20
-84.25209632750101
 10
-1425.937719413776
 20
-86.41014636922433
 10
-1429.086278426091
 20
-90.34100788268302
 10
-1424.612164348725
 20
-91.90972302522823
 10
-1405.048349530512
 20
-87.38703614624842
 10
-1396.714117116509
 20
-85.87102136142403
 10
-1391.75289917097
 20
-90.70475529555711
 10
-1392.410486780626
 20
-94.72354942835909
 10
-1398.875249763426
 20
-97.4469527458034
 10
-1434.281164811664
 20
-100.1295333142397
 10
-1475.19358802363
 20
-98.59047736178013
 10
-1487.919383392859
 20
-94.59655306071159
 10
-1499.79387466898
 20
-87.63279118517676
 10
-1529.855336024274
 20
-63.24368911937881
 10
-1536.552321931677
 20
-54.49617861921706
 10
-1536.669722166772
 20
-49.11649266465111
 10
-1538.05595404818
 20
-46.48767482069707
 10
-1546.616749236007
 20
-45.39328031348714
 10
-1555.228224543123
 20
-43.59004335433019
 10
-1556.434742283315
 20
-39.1510570434948
 10
-1552.335974573959
 20
-35.5883317367452
 10
-1547.900837165654
 20
-35.79032074826091
 10
-1544.895680250322
 20
-33.85575087516691
 10
-1544.226754923257
 20
-25.14289791362535
 10
-1547.490728763932
 20
-15.55221652162891
 10
-1553.934174748104
 20
-11.50951042876386
 10
-1559.321628171125
 20
-10.41896482408447
 10
-1554.548553637501
 20
-6.287176665872266
 10
-1548.560148944317
 20
-3.607278138112633
 10
-1544.062418976313
 20
-4.219741284168776
 10
-1539.004421160366
 20
-15.64438119216993
 10
-1536.039111706523
 20
-23.74917721733891
 10
-1531.128678375363
 20
-25.2058736219924
 10
-1525.177996410145
 20
-20.30129201594627
 10
-1519.091958469974
 20
-9.322271424866357
 10
-1514.460196131508
 20
7.227922375619073
 10
-1516.125865302947
 20
12.38806414332839
 10
-1520.541914941238
 20
17.20720359637471
 10
-1525.113000463346
 20
22.44336554301662
 10
-1523.159238325147
 20
23.72592087799103
 10
-1518.498287024506
 20
24.19515608554912
 10
-1516.560651962067
 20
27.47985478600185
 10
-1512.389695560459
 20
30.4220185771178
 10
-1502.362033112424
 20
30.06030881852485
 10
-1489.892163637678
 20
30.84057366538764
 10
-1480.108723633899
 20
37.0582405889204
 10
-1474.339584473995
 20
47.23872710800651
 10
-1493.371937257771
 20
49.96662371437742
 10
-1497.088427091393
 20
48.92350146530725
 10
-1498.128867299786
 20
46.22498539544494
 10
-1496.023029972024
 20
42.26674616806121
 10
-1490.958901777386
 20
40.62171477715764
 10
-1486.983020295418
 20
39.53884956168986
 10
-1487.481444465151
 20
36.93535436153207
 10
-1492.459555783787
 20
35.83712836764062
 10
-1499.253199650658
 20
38.3791804541047
 10
-1512.149304602885
 20
43.60151421699629
 10
-1512.330551338774
 20
46.42080919657291
 10
-1506.005376382125
 20
53.06930938160485
 10
-1491.008049302002
 20
62.28520171274522
 10
-1472.767508072679
 20
80.26002934069765
 10
-1462.955157760302
 20
93.2704693386745
 10
-1459.729324627958
 20
100.3775636477989
 10
-1461.265297975224
 20
111.9342853512244
 10
-1458.763180429491
 20
118.3961747190133
 10
-1451.18310650537
 20
117.9369013768273
 10
-1444.423249384692
 20
116.5330272408346
 10
-1448.860703100854
 20
123.4234335622655
 10
-1453.250541887073
 20
131.0004422970414
 10
-1446.655038129187
 20
132.7806380885631
 10
-1439.61717181806
 20
134.6130640098949
 10
-1436.689585092183
 20
139.0167309798648
 10
-1431.397936252051
 20
146.8086687016312
 10
-1418.594187544699
 20
156.0653663659309
 10
-1402.88510956592
 20
164.0076376924048
 10
-1388.877542574902
 20
167.8563312323917
 10
-1382.522220784407
 20
167.1514944256114
 10
-1378.386775297999
 20
162.8305875679639
 10
-1373.683607980466
 20
137.0690992203563
  0
LWPOLYLINE
  5
1051
330
FD9
100
AcDbEntity
  8
0
  6
ByBlock
 62
     0
370
    -2
100
AcDbPolyline
 90
      143
 70
     1
 43
0.0
 10
-713.5415461531374
 20
-245.9456933134604
 10
-714.7780191528409
 20
-255.8228131666051
 10
-711.952576378726
 20
-265.4065804667266
 10
-706.5881641233404
 20
-269.0322640659942
 10
-690.5202500009795
 20
-266.3396868004886
 10
-688.8055203841681
 20
-264.0038383608898
 10
-690.2023062697995
 20
-260.4307680400996
 10
-689.2745814332402
 20
-256.0916267890175
 10
-681.711400882215
 20
-254.2868398193393
 10
-671.8350299105582
 20
-256.2237085844422
 10
-665.350116790983
 20
-260.8792783878801
 10
-659.985704535597
 20
-262.3438293402307
 10
-652.349568994984
 20
-254.7353501671198
 10
-643.0125146054615
 20
-245.2278991153564
 10
-632.4002369532059
 20
-242.9382375061198
 10
-619.1568077332899
 20
-248.0247450661482
 10
-601.9263508883332
 20
-260.645801522181
 10
-571.9316967280869
 20
-285.4611390654604
 10
-565.1760542427582
 20
-294.6771184758436
 10
-564.5328695398543
 20
-304.8429234345997
 10
-569.5090651151494
 20
-313.7887656180806
 10
-579.6115982961132
 20
-319.3448915343354
 10
-587.5868900714436
 20
-322.2225644382606
 10
-592.2473537283244
 20
-326.9203676744392
 10
-594.9714188480138
 20
-348.024753623936
 10
-595.8600799362693
 20
-361.3391175950074
 10
-599.1408426549492
 20
-372.1081901317837
 10
-605.7358761849241
 20
-382.2862732637696
 10
-616.567332291217
 20
-393.8277386838629
 10
-636.1626175477649
 20
-409.2159819006019
 10
-643.7648618470944
 20
-411.5594062343211
 10
-650.8135782318695
 20
-410.7849756967237
 10
-663.921181248922
 20
-410.2994218390717
 10
-680.0164382535108
 20
-413.8999569530295
 10
-693.6614421093572
 20
-419.8413214392719
 10
-699.4181986009403
 20
-426.3782731143233
 10
-702.4986093978682
 20
-429.4579176139154
 10
-709.9058832726491
 20
-430.2427976606447
 10
-719.8598244337603
 20
-434.6802513768071
 10
-729.0073595593312
 20
-446.9788533968849
 10
-734.4385964256139
 20
-463.9422382042853
 10
-729.9166584281215
 20
-478.9518608734863
 10
-725.5068610794605
 20
-493.4308052214348
 10
-731.9441592690927
 20
-508.1908239491774
 10
-739.7278941261911
 20
-517.1066237939046
 10
-748.9340335821416
 20
-523.0929211694135
 10
-758.8043090068058
 20
-526.2292020084991
 10
-768.5803995224951
 20
-526.5949522439566
 10
-777.5040190832228
 20
-524.2696752244293
 10
-784.8168816429984
 20
-519.3328394668638
 10
-789.7606837399848
 20
-511.8639309040547
 10
-791.5771219123457
 20
-501.9424354687973
 10
-795.5476393129588
 20
-496.262378374241
 10
-805.0937709643577
 20
-493.9000404289932
 10
-814.0615919487123
 20
-492.3632833685424
 10
-811.7169136738967
 20
-487.0065515023688
 10
-807.9107496360766
 20
-479.2014648149449
 10
-808.4360638759749
 20
-470.110757603202
 10
-808.8035382804386
 20
-467.4400546434783
 10
-807.136615167904
 20
-467.5594925328534
 10
-798.9436949490582
 20
-475.4682557667122
 10
-785.844834687979
 20
-490.8280763186128
 10
-785.6359490004369
 20
-477.0042291139778
 10
-783.2359754064664
 20
-467.214658731508
 10
-777.7532921235592
 20
-463.08823465465
 10
-774.1022510487982
 20
-461.6451922752617
 10
-778.9943629072804
 20
-457.3498170515929
 10
-786.7357075890004
 20
-454.2509628710474
 10
-792.8181926960665
 20
-454.7324936676837
 10
-798.5358854393457
 20
-455.411398275969
 10
-805.4009691169808
 20
-452.7910097027147
 10
-809.4321459181033
 20
-448.7137505663208
 10
-803.8649783538662
 20
-446.9911489859635
 10
-787.8108924152566
 20
-445.4551582228488
 10
-783.2928033202947
 20
-440.8971345871552
 10
-782.0417532553524
 20
-430.9247674582752
 10
-781.9242485251666
 20
-415.1156876771063
 10
-780.8572143160341
 20
-412.1805076412597
 10
-779.3507085845194
 20
-414.0289735591086
 10
-771.873544909496
 20
-424.780839237515
 10
-768.5826984145042
 20
-430.5976107432111
 10
-771.8489711471879
 20
-432.4607582213896
 10
-775.8862957428505
 20
-435.5296571424243
 10
-776.6658117082247
 20
-442.9115735417122
 10
-774.3702809580258
 20
-449.8841652524633
 10
-768.8261545614237
 20
-442.0882915489242
 10
-765.6213249424345
 20
-428.2705921388282
 10
-767.0751303162282
 20
-410.6190897392582
 10
-768.9367451997341
 20
-395.4888971505261
 10
-767.2997773467109
 20
-393.0187551027366
 10
-763.849575837461
 20
-393.4038020983905
 10
-759.2708099261407
 20
-399.0055401220049
 10
-759.1801952661203
 20
-408.2844081615124
 10
-759.0089278114524
 20
-417.3866272491491
 10
-750.8244542791544
 20
-419.6875394965506
 10
-744.8763498595217
 20
-418.4495339021748
 10
-747.0336510197571
 20
-416.1056219246961
 10
-753.2970867932867
 20
-411.6129773844697
 10
-754.5177113708072
 20
-406.7476511010617
 10
-751.228310391245
 20
-403.5769042976903
 10
-743.9616869093774
 20
-404.167963365875
 10
-736.8500818954776
 20
-405.8475652161559
 10
-744.5207704796193
 20
-399.136089322757
 10
-751.0329568180286
 20
-389.201653912025
 10
-752.0685902522209
 20
-377.4994750414862
 10
-748.3119568876845
 20
-369.0908421224651
 10
-744.8503828293296
 20
-367.7032343890207
 10
-740.447342829907
 20
-369.03699231874
 10
-737.6510890179665
 20
-369.2074760602234
 10
-741.5778403911668
 20
-363.0650804341355
 10
-746.403893936088
 20
-352.952184823283
 10
-746.2533687570457
 20
-343.1341917759748
 10
-745.3417535803983
 20
-337.3212691728093
 10
-748.6372152752565
 20
-337.2728705296811
 10
-752.9287415963954
 20
-338.011685656988
 10
-754.7135525877834
 20
-334.5204001610018
 10
-752.2267958204743
 20
-329.9262734712581
 10
-746.2472209625066
 20
-328.0139784684634
 10
-737.7947175209815
 20
-324.8567637794174
 10
-729.3514096474918
 20
-317.2620953742085
 10
-724.0361449167226
 20
-309.5637678384137
 10
-732.8534581378835
 20
-315.7261220269429
 10
-741.0049112213251
 20
-321.0252596819525
 10
-739.7469470645078
 20
-316.5739777820388
 10
-738.3553511017448
 20
-308.886395824801
 10
-743.1752568521265
 20
-302.3507851700881
 10
-746.7594733159903
 20
-298.647531381366
 10
-738.70861417379
 20
-300.0959726738056
 10
-725.2511093434622
 20
-300.9146394667268
 10
-711.060937180368
 20
-297.8165689993664
 10
-699.9527258247231
 20
-292.6241904959854
 10
-710.1700816951952
 20
-291.5374763779873
 10
-728.6018663574764
 20
-290.2103887182639
 10
-731.4338226589498
 20
-285.5498379821402
 10
-730.8812526160668
 20
-276.2145251774732
 10
-727.7205895890074
 20
-266.2433074945975
 10
-722.7282669379528
 20
-259.6750595396968
 10
-719.9005252718279
 20
-253.5380454108117
 10
-723.4962536115854
 20
-242.9267082143779
 10
-727.1588065622395
 20
-232.8913827929794
 10
-716.4491743165736
 20
-235.6154479126687
 10
-708.5457751640697
 20
-239.6896418597171
 10
-709.1440443935553
 20
-241.6119161437323
  0
LWPOLYLINE
  5
1052
330
FD9
100
AcDbEntity
  8
0
  6
ByBlock
 62
     0
370
    -2
100
AcDbPolyline
 90
       51
 70
     1
 43
0.0
 10
1550.481408715966
 20
1219.666876917544
 10
1560.384164698182
 20
1216.831750931634
 10
1567.795757703402
 20
1217.214690609613
 10
1577.931032679646
 20
1217.948124239717
 10
1586.859598341361
 20
1213.17966490596
 10
1594.768657644646
 20
1202.741127758867
 10
1601.84541354559
 20
1186.464327948963
 10
1609.607500502939
 20
1172.741092101418
 10
1620.240328856485
 20
1169.206040578019
 10
1626.293450842891
 20
1168.374015829257
 10
1632.064314171803
 20
1164.512835125858
 10
1643.574970955806
 20
1146.922009542646
 10
1649.752877497093
 20
1130.200252218068
 10
1650.144368356712
 20
1116.250749666124
 10
1644.492524936811
 20
1103.783858301481
 10
1632.540480887085
 20
1091.509917122954
 10
1625.793668236973
 20
1081.915404244276
 10
1622.986668846474
 20
1069.975446793446
 10
1619.501095748813
 20
1060.302893497402
 10
1610.159687397153
 20
1046.300586092646
 10
1580.60124799561
 20
1012.234803174697
 10
1547.695134185246
 20
981.634216811603
 10
1534.169132822561
 20
971.9633702687174
 10
1524.825129509466
 20
968.3548761119714
 10
1512.616184277737
 20
966.7030177084347
 10
1500.023620149937
 20
961.86304890052
 10
1475.065455232677
 20
943.3122269133805
 10
1462.02612234195
 20
935.1206477148734
 10
1446.334913023787
 20
931.8860544107074
 10
1431.268079292091
 20
933.7547749604228
 10
1420.101873160765
 20
940.8730850760152
 10
1416.783091644695
 20
947.7866370601727
 10
1416.540697864536
 20
958.815658552448
 10
1426.337966052066
 20
1003.848358046733
 10
1440.884379397309
 20
1052.533996943271
 10
1455.453259187184
 20
1087.554760500764
 10
1469.942670460113
 20
1108.712526026075
 10
1477.125697868927
 20
1114.030873362039
 10
1484.250626006969
 20
1115.809153410219
 10
1496.926315979913
 20
1119.795031589256
 10
1504.943370960072
 20
1133.135031689398
 10
1507.358043530222
 20
1149.692348571941
 10
1503.713829468094
 20
1167.0894576717
 10
1494.294694184342
 20
1184.564885842401
 10
1479.384637921316
 20
1201.357212185315
 10
1467.985338072961
 20
1213.870081390139
 10
1463.244535106705
 20
1223.032994709982
 10
1472.636292676532
 20
1243.050666541481
 10
1480.208982280867
 20
1252.908890198946
 10
1485.995502457626
 20
1257.119502487708
 10
1522.601021154181
 20
1235.228686480961
  0
LWPOLYLINE
  5
1053
330
FD9
100
AcDbEntity
  8
0
  6
ByBlock
 62
     0
370
    -2
100
AcDbPolyline
 90
     2372
 70
     1
 43
0.0
 10
363.9754886298933
 20
1701.672934645122
 10
351.7733529949487
 20
1695.09940968811
 10
344.2747852420544
 20
1684.029687357766
 10
339.0346873136391
 20
1666.27440391667
 10
337.4976515996114
 20
1648.087607995981
 10
342.5620758636747
 20
1635.476426326077
 10
354.4888843488475
 20
1628.134427051673
 10
373.539001298147
 20
1625.75519573333
 10
399.726429053811
 20
1621.653833062539
 10
409.0769458942636
 20
1617.09056725643
 10
415.5350560229171
 20
1611.353055277499
 10
418.8030006770618
 20
1604.816939563178
 10
418.5831081732344
 20
1597.857827719206
 10
414.5776371645756
 20
1590.851327351322
 10
406.4888811359241
 20
1584.173080896962
 10
400.4450766284939
 20
1578.956598859185
 10
396.6793347751641
 20
1571.489710534808
 10
394.2010246944033
 20
1543.991792423091
 10
392.6656260701388
 20
1520.692870229153
 10
387.198477724141
 20
1506.215859040394
 10
376.5082467337629
 20
1498.812033503627
 10
359.3035130971184
 20
1496.732703097362
 10
348.4883756409195
 20
1495.878211903967
 10
340.6482482662077
 20
1492.509516565944
 10
334.1225298134723
 20
1485.418758322762
 10
327.2506365390536
 20
1473.398060998041
 10
312.4376213841651
 20
1453.305117869097
 10
293.2009806968649
 20
1438.138055928979
 10
271.0521314779594
 20
1426.212692959236
 10
256.0486566032973
 20
1444.576904129132
 10
244.6670338412214
 20
1464.473239743764
 10
240.7318357814729
 20
1487.516810766221
 10
238.400410967407
 20
1509.560833992688
 10
231.9967079496332
 20
1527.529148093281
 10
221.4942372225028
 20
1541.474714663453
 10
206.8665092803676
 20
1551.450530130346
 10
173.2530856127296
 20
1574.557843158506
 10
159.0828720120757
 20
1585.778961460319
 10
146.9079225167229
 20
1592.442822423775
 10
139.3155530035233
 20
1596.516232657638
 10
136.156039422468
 20
1601.511254765219
 10
128.9663939912029
 20
1609.16064376658
 10
112.0603247413905
 20
1617.000091923198
 10
92.43210611522954
 20
1622.480284739762
 10
77.07602997076719
 20
1623.051872889266
 10
56.65284752156413
 20
1609.549818318341
 10
26.01384179656179
 20
1581.721660886367
 10
1.601803058219957
 20
1554.160679987041
 10
-9.746120036906177
 20
1533.022576954746
 10
-10.61447424574862
 20
1524.512757955633
 10
-8.328887945073802
 20
1517.18939363918
 10
-2.926770377570846
 20
1510.912756652447
 10
5.55455629330936
 20
1505.543102226647
 10
30.13026917635079
 20
1489.439868763422
 10
51.67701767908875
 20
1476.353286675572
 10
59.54586378806425
 20
1469.112682471442
 10
62.42890077334414
 20
1455.937018318245
 10
65.31270405595932
 20
1441.024941816788
 10
72.24689382065207
 20
1428.485948839137
 10
78.19451059652511
 20
1419.483940544072
 10
77.93694761227789
 20
1412.20761643456
 10
71.33538313909548
 20
1406.391994374869
 10
58.25103027986097
 20
1401.772144476813
 10
39.12642574630036
 20
1394.344145742254
 10
21.54028502634947
 20
1382.635348849266
 10
7.03112418116143
 20
1367.910649462389
 10
-2.862627807351145
 20
1351.434943246164
 10
-12.17298370104208
 20
1336.366960068462
 10
-22.71366479989729
 20
1330.846641136832
 10
-32.15582383543551
 20
1328.276845603624
 10
-41.66076700500662
 20
1321.305890982637
 10
-50.07708031324
 20
1311.04140782598
 10
-56.25336718061134
 20
1298.591026685764
 10
-62.61885982666036
 20
1291.06105815793
 10
-72.48408465524381
 20
1288.126365765843
 10
-82.38387994320374
 20
1289.977043496457
 10
-88.85304913568779
 20
1296.803133089183
 10
-89.04657404480714
 20
1309.895845555723
 10
-84.68745681543442
 20
1328.794566533552
 10
-80.20162187199231
 20
1349.074137895589
 10
-82.57500146522261
 20
1354.106011938707
 10
-88.33694787967397
 20
1358.230137123557
 10
-126.2511282681844
 20
1388.605710723349
 10
-152.9157851058912
 20
1412.567027301145
 10
-166.9853873494548
 20
1399.357576401755
 10
-179.9582787779513
 20
1390.024196756278
 10
-191.4013446537215
 20
1386.141995123675
 10
-198.7354719645805
 20
1383.744895144716
 10
-201.4236256045542
 20
1377.70176985538
 10
-199.386337056696
 20
1369.734820271506
 10
-192.544120388211
 20
1361.566282240634
 10
-185.970891500624
 20
1349.398995718644
 10
-183.3282280570702
 20
1330.508721427362
 10
-185.9217265601596
 20
1311.239060291206
 10
-189.6863363833326
 20
1306.210739081193
 10
-195.5607891794357
 20
1303.21739011118
 10
-205.8756738018037
 20
1301.509383011909
 10
-213.494915969321
 20
1302.861044433941
 10
-220.8815520635667
 20
1302.628351281426
 10
-229.1350446036786
 20
1296.110400297146
 10
-235.850648053185
 20
1285.98214390787
 10
-238.6235820439138
 20
1274.918464876974
 10
-240.8784119560446
 20
1265.823908762701
 10
-246.3035010277881
 20
1260.867306017028
 10
-275.4871513684757
 20
1252.425548154059
 10
-319.0537498998892
 20
1242.245044219125
 10
-341.1227300373316
 20
1238.497258105653
 10
-341.5282406550346
 20
1265.585834112984
 10
-343.5183845008605
 20
1286.962673597241
 10
-348.4270936630132
 20
1303.716597994097
 10
-355.7261802865837
 20
1314.648369388054
 10
-364.887456516663
 20
1318.558784695311
 10
-398.033943868752
 20
1311.050899463441
 10
-410.9180493013268
 20
1306.515429351624
 10
-417.7167785959754
 20
1302.023167960065
 10
-419.8349985920576
 20
1295.90083539151
 10
-418.6775412972387
 20
1286.475186580399
 10
-417.4453003487338
 20
1277.233083397188
 10
-419.0492477529014
 20
1271.556962284404
 10
-424.5423108815462
 20
1268.086889291956
 10
-434.977382274777
 20
1265.462965301444
 10
-452.3908100246303
 20
1257.814534171753
 10
-464.3207881942389
 20
1241.323467177105
 10
-475.3307045006526
 20
1225.873780846671
 10
-488.3865476158062
 20
1217.497314999928
 10
-498.7559612599929
 20
1211.801879711099
 10
-502.8124955366088
 20
1202.880907359351
 10
-505.4198222234486
 20
1191.612940424931
 10
-511.6904681582796
 20
1179.957906256426
 10
-517.0808996914029
 20
1173.633793666537
 10
-521.9224185098392
 20
1172.453869927085
 10
-539.3381451517011
 20
1188.381238151625
 10
-552.5936783863608
 20
1205.242479007263
 10
-558.1078495234519
 20
1217.214690609613
 10
-562.229849974778
 20
1226.646382720171
 10
-572.7350027425854
 20
1235.571203974449
 10
-586.8320523634683
 20
1242.222020467338
 10
-601.72974337402
 20
1244.831646046187
 10
-615.4230239620551
 20
1247.449735727433
 10
-625.4391571183478
 20
1253.740340224705
 10
-640.5217347771367
 20
1265.599662296735
 10
-666.4007278549302
 20
1281.596920321518
 10
-689.0016402547208
 20
1295.782372789654
 10
-701.2421778357238
 20
1307.815365703453
 10
-704.3946902456609
 20
1319.672075398201
 10
-699.7315445481026
 20
1333.328782704274
 10
-695.6404572279575
 20
1349.097945360561
 10
-701.9863570443853
 20
1370.530271738306
 10
-708.8506570088347
 20
1394.016971611342
 10
-711.7060550424607
 20
1417.826230415422
 10
-714.4329937771613
 20
1439.621241839281
 10
-722.550085391409
 20
1457.168876118082
 10
-735.961699460799
 20
1470.334351999875
 10
-754.572240392626
 20
1478.982888232712
 10
-776.5736470376837
 20
1482.733756951377
 10
-795.3679251717426
 20
1477.084421413668
 10
-807.3685594389303
 20
1468.268658203028
 10
-810.4942688579445
 20
1459.457492776406
 10
-807.4223047475642
 20
1434.273531382658
 10
-803.0186551934431
 20
1417.209535218168
 10
-793.1131126754603
 20
1399.19169044429
 10
-779.2892654708248
 20
1374.8187328701
 10
-782.2438990095052
 20
1369.924774931671
 10
-790.1311885020978
 20
1366.123260925415
 10
-814.8441731034322
 20
1362.107723556292
 10
-841.7090773677996
 20
1363.392473288184
 10
-852.286262085221
 20
1366.216313804232
 10
-859.0067419723222
 20
1370.59786264654
 10
-863.616978321977
 20
1384.768825128681
 10
-862.4350517599413
 20
1409.224734389528
 10
-861.4366534099548
 20
1435.734250848327
 10
-864.9216169529163
 20
1443.568334923591
 10
-871.7553869348526
 20
1450.880570512819
 10
-882.7023275328993
 20
1463.287464279197
 10
-890.2117453594424
 20
1476.187400718107
 10
-894.1871566134992
 20
1482.598697045849
 10
-900.9981814972261
 20
1487.87700534599
 10
-924.8389281554901
 20
1496.013863948345
 10
-941.9423712169523
 20
1499.393217785682
 10
-952.6378966252901
 20
1499.165697140188
 10
-960.933831588326
 20
1494.242689566373
 10
-970.83852072973
 20
1483.535547787051
 10
-980.1522378821914
 20
1473.7036220609
 10
-988.0668528411634
 20
1468.479076485243
 10
-996.7106867948901
 20
1466.999634982379
 10
-1008.212026099918
 20
1468.403056306309
 10
-1026.996324952756
 20
1469.022050395573
 10
-1039.859409456127
 20
1460.471234488967
 10
-1046.247751695478
 20
1454.289200391573
 10
-1052.158011476205
 20
1451.841315798234
 10
-1071.267168152099
 20
1457.251827804739
 10
-1086.904806320114
 20
1462.019224771735
 10
-1100.430859930345
 20
1461.946548435724
 10
-1112.87173201725
 20
1456.829336734696
 10
-1125.253860446988
 20
1446.463075359098
 10
-1134.880627477186
 20
1439.479738069789
 10
-1142.420000563239
 20
1438.758600028764
 10
-1152.496427387223
 20
1438.870340113079
 10
-1165.2938367257
 20
1430.625572913091
 10
-1178.607347320193
 20
1415.95963459923
 10
-1190.23204308052
 20
1396.807861341928
 10
-1200.580923439263
 20
1371.81042368618
 10
-1202.44771082979
 20
1354.443165350841
 10
-1195.317488273787
 20
1341.772560805675
 10
-1178.675321377095
 20
1330.865067104602
 10
-1154.13647784544
 20
1318.34375121323
 10
-1143.347725399798
 20
1330.846641136832
 10
-1134.574195621899
 20
1344.611344119783
 10
-1128.620744536761
 20
1360.140899531679
 10
-1124.613357784761
 20
1372.793548336986
 10
-1120.228134198408
 20
1363.102273003748
 10
-1114.133353502264
 20
1353.205926053801
 10
-1105.734595369373
 20
1348.829915451333
 10
-1090.868218054518
 20
1344.837419249846
 10
-1074.165565915802
 20
1335.188098695772
 10
-1058.059632996051
 20
1321.604729527954
 10
-1044.983448169787
 20
1305.810139732781
 10
-1026.958689304033
 20
1281.024095646767
 10
-1010.684954683476
 20
1264.049077052534
 10
-996.2544089786556
 20
1254.961731099562
 10
-983.7591994442655
 20
1253.838652689786
 10
-976.4486880240438
 20
1255.068385756099
 10
-972.2024603249911
 20
1253.658938548569
 10
-969.7510403143956
 20
1239.756754857143
 10
-972.4674250448734
 20
1226.383055090053
 10
-979.4876316855679
 20
1214.171131748222
 10
-989.1182302024477
 20
1205.268881433669
 10
-999.6658253931787
 20
1201.824148500865
 10
-1013.369085262434
 20
1197.909117993741
 10
-1033.302290228452
 20
1188.272180107987
 10
-1053.634091720298
 20
1176.075513049489
 10
-1068.533123751189
 20
1164.481347271675
 10
-1076.383805130123
 20
1154.065276569215
 10
-1076.324382254862
 20
1146.52111412481
 10
-1068.409575721555
 20
1141.932943655271
 10
-1052.694071294661
 20
1140.384866293262
 10
-1036.603116004664
 20
1138.609076711423
 10
-1028.566868759399
 20
1133.37617152846
 10
-1028.668246413825
 20
1124.827863504045
 10
-1036.99018323875
 20
1113.105830566157
 10
-1046.933378821305
 20
1096.65084920971
 10
-1048.761955840106
 20
1074.325351038933
 10
-1048.724041537806
 20
1061.160258305808
 10
-1050.956108935879
 20
1051.284078908485
 10
-1056.239781317374
 20
1042.787983598032
 10
-1065.356699381188
 20
1033.763143125516
 10
-1087.818911963105
 20
1017.702909392366
 10
-1114.329961016576
 20
1039.618299161422
 10
-1126.739345249299
 20
1051.216209346674
 10
-1136.352876234597
 20
1057.347371750446
 10
-1145.874225133505
 20
1059.129779354734
 10
-1158.0071501863
 20
1057.681442557385
 10
-1176.050317603974
 20
1056.664635655479
 10
-1188.149264336242
 20
1060.753406667766
 10
-1197.456067396828
 20
1064.941169363227
 10
-1211.925485275619
 20
1067.220660116909
 10
-1249.299774358992
 20
1065.508821530957
 10
-1255.90536189319
 20
1065.612393582301
 10
-1259.861946614961
 20
1069.986976085188
 10
-1263.424671921711
 20
1100.449332858319
 10
-1267.872104919094
 20
1132.873149574709
 10
-1272.796366434004
 20
1142.87728321135
 10
-1280.443352048266
 20
1151.505373237984
 10
-1289.904894923244
 20
1159.047532859807
 10
-1300.338155068225
 20
1162.92924684865
 10
-1340.05174092921
 20
1162.699618885481
 10
-1374.36000470656
 20
1159.656930816518
 10
-1394.576025637227
 20
1154.352324585063
 10
-1406.953939431614
 20
1143.728987868976
 10
-1417.747846968427
 20
1124.730143177816
 10
-1427.819379938967
 20
1106.669768901772
 10
-1435.767224336977
 20
1098.96633852235
 10
-1443.317639071014
 20
1100.986838192204
 10
-1452.19686563378
 20
1112.098219232286
 10
-1462.274441903767
 20
1123.344677593743
 10
-1472.969479668346
 20
1129.725147869548
 10
-1483.837700630934
 20
1130.212634886389
 10
-1493.934103433207
 20
1126.809856732749
 10
-1501.374014608175
 20
1120.554763150676
 10
-1504.272795520546
 20
1112.485286466371
 10
-1507.882352044054
 20
1103.974405100498
 10
-1516.560651962067
 20
1095.951986038983
 10
-1526.672694196341
 20
1084.706084984679
 10
-1528.863102884675
 20
1070.242710405337
 10
-1523.393951716093
 20
1054.945290838801
 10
-1510.527314379617
 20
1041.197289654613
 10
-1500.56839228582
 20
1032.874569116503
 10
-1495.187469806006
 20
1024.307626134137
 10
-1493.140376135413
 20
1011.994429632972
 10
-1493.18301013267
 20
992.4329311226161
 10
-1490.204168564502
 20
960.8064816163674
 10
-1481.397409347564
 20
936.6552800418004
 10
-1475.737728795814
 20
929.0010668503896
 10
-1469.736053226033
 20
925.1574935698776
 10
-1463.764036846337
 20
925.7718202117294
 10
-1458.193333864844
 20
931.4913067874091
 10
-1451.107086326437
 20
935.8304480384914
 10
-1439.399055730785
 20
937.6352350081697
 10
-1427.471480948276
 20
934.6711794954222
 10
-1425.118059917487
 20
931.0892096760222
 10
-1425.147440453996
 20
926.2167428947073
 10
-1432.282365289108
 20
912.9285723598595
 10
-1448.731686494775
 20
895.4633150447135
 10
-1462.821351795871
 20
880.6402161135128
 10
-1471.05948355756
 20
866.1805859416094
 10
-1474.501917598356
 20
849.240712529755
 10
-1474.204402657528
 20
826.9769361262497
 10
-1467.463755217803
 20
813.2214635430328
 10
-1452.166144076933
 20
793.1853309120679
 10
-1429.703931495017
 20
762.5332807164991
 10
-1426.644262973715
 20
741.0295319438382
 10
-1421.888865526373
 20
707.2379267296565
 10
-1420.826725170683
 20
693.3334441462216
 10
-1427.897629346514
 20
700.731505037118
 10
-1435.546809357694
 20
709.5879865016745
 10
-1436.597420421641
 20
700.731505037118
 10
-1434.930027081196
 20
687.3271882082717
 10
-1429.842944798165
 20
679.522658828001
 10
-1420.821831317239
 20
676.9389480317991
 10
-1407.35232696726
 20
679.1970347076098
 10
-1392.830382889234
 20
681.8366155459694
 10
-1389.745078238862
 20
680.7375361754989
 10
-1389.23388825214
 20
678.0112592430432
 10
-1394.521496615408
 20
673.7158840193747
 10
-1405.306400158519
 20
672.899516118462
 10
-1416.067496236659
 20
672.1200001530869
 10
-1416.248742972548
 20
664.7833823758851
 10
-1415.155881060011
 20
657.8852956652431
 10
-1417.790864114352
 20
655.0145368531929
 10
-1422.570069026666
 20
657.7217085997863
 10
-1426.625837005946
 20
664.2304291843338
 10
-1431.230221630487
 20
671.5600457904174
 10
-1435.923897310559
 20
673.1844394007858
 10
-1438.929907602469
 20
669.5638412292951
 10
-1438.471330894226
 20
661.1584650739537
 10
-1437.934504778434
 20
652.480165155941
 10
-1441.16235814921
 20
648.8706086324327
 10
-1445.158981906804
 20
658.1955590072107
 10
-1446.483004377182
 20
680.6162870378748
 10
-1448.099630519096
 20
705.8071625234979
 10
-1450.85048121386
 20
712.0231749414183
 10
-1455.121369754464
 20
714.8748285676056
 10
-1461.263765380551
 20
715.8832061988127
 10
-1455.121369754464
 20
710.868991826127
 10
-1449.828379893993
 20
705.39243892191
 10
-1458.193333864844
 20
703.5331403462619
 10
-1478.161109290239
 20
703.7051740982656
 10
-1483.583882054125
 20
702.6484152397793
 10
-1485.841010858266
 20
698.6978738174557
 10
-1481.445024277507
 20
695.2518869435557
 10
-1470.87440533499
 20
695.4047284304551
 10
-1459.104931625643
 20
695.3816872628195
 10
-1451.828224367463
 20
691.5156127059772
 10
-1452.533148253486
 20
684.706224912014
 10
-1458.900661137967
 20
676.9637133684409
 10
-1467.453479867157
 20
671.3915648715178
 10
-1474.714356119003
 20
671.0931965541107
 10
-1480.025980937425
 20
669.0192302292007
 10
-1485.942388512691
 20
660.7545044667713
 10
-1489.918844717661
 20
650.9484064440248
 10
-1489.410632841041
 20
644.2503755857087
 10
-1486.888556732868
 20
643.9385622332192
 10
-1485.841010858266
 20
648.2070648025715
 10
-1483.75591580613
 20
652.2390253168786
 10
-1478.744766622789
 20
651.3588979944143
 10
-1474.748909162532
 20
650.0287451453455
 10
-1475.807984328876
 20
653.6935969880091
 10
-1475.468532024733
 20
658.3407026890504
 10
-1467.544390596603
 20
659.4811795315304
 10
-1458.558892525967
 20
655.81786028354
 10
-1455.121369754464
 20
647.758554454791
 10
-1457.49215438626
 20
640.5670977752765
 10
-1464.632164649149
 20
640.6193104892377
 10
-1474.10534131096
 20
639.931959194404
 10
-1483.518607453749
 20
632.7428014068991
 10
-1488.826958092643
 20
627.1426133938057
 10
-1488.421464890788
 20
629.8551492217529
 10
-1486.874728549117
 20
635.1842421362735
 10
-1491.03262306431
 20
634.0944628289303
 10
-1495.75001913011
 20
628.5611865059772
 10
-1497.967596542187
 20
621.1714678065373
 10
-1497.339755201859
 20
614.9026505358051
 10
-1493.52092984214
 20
612.7320262514267
 10
-1484.305037511
 20
611.9640395777937
 10
-1482.854297326551
 20
610.6860994426865
 10
-1485.841010858266
 20
609.7030618711237
 10
-1490.196296600956
 20
607.3752769694042
 10
-1492.040234398181
 20
602.8587378849634
 10
-1494.31578917009
 20
598.3659888496458
 10
-1499.720153382056
 20
596.1126915321874
 10
-1503.556255263539
 20
595.3662134315172
 10
-1502.079408722109
 20
594.5091272766876
 10
-1499.343831726527
 20
591.2927857818053
 10
-1500.156368140758
 20
584.8693157759239
 10
-1499.446933549959
 20
578.1613927156294
 10
-1494.015505109342
 20
572.7511767785499
 10
-1486.704035817451
 20
570.3741572729723
 10
-1480.354478672827
 20
572.7657712596374
 10
-1479.874480470864
 20
576.4060493399929
 10
-1483.96097000699
 20
579.4565048774102
 10
-1487.892510738543
 20
583.8718752976078
 10
-1487.807068585543
 20
590.6983654548498
 10
-1484.477628570157
 20
596.969586112682
 10
-1478.677193130405
 20
599.7191828663499
 10
-1475.708905566459
 20
597.8345268152088
 10
-1476.791004484591
 20
593.304925844353
 10
-1477.585114931053
 20
586.3599730852552
 10
-1473.927926061753
 20
578.663944441469
 10
-1470.71158456687
 20
571.3879860647766
 10
-1477.024481350289
 20
566.6279908334159
 10
-1485.6751249008
 20
564.9522204698168
 10
-1492.537892270577
 20
566.2716451561768
 10
-1496.487667395564
 20
565.10044675685
 10
-1498.128867299786
 20
557.4366722645836
 10
-1499.716600548951
 20
548.1305310062425
 10
-1503.637674355523
 20
542.1213840374321
 10
-1508.628934639816
 20
540.4920965736205
 10
-1513.427244737993
 20
544.3255338302747
 10
-1518.18955627721
 20
548.7345648815999
 10
-1524.228275356864
 20
550.5677571002674
 10
-1525.860645425869
 20
549.5788678035901
 10
-1525.177508766386
 20
546.8867781818439
 10
-1517.721853664325
 20
538.0402934143571
 10
-1508.121959288444
 20
531.221292071993
 10
-1505.295959207175
 20
530.9374311564306
 10
-1504.272795520546
 20
532.9224024952363
 10
-1503.210672580705
 20
537.0918263021717
 10
-1500.660173807693
 20
536.7132057546337
 10
-1502.189233063083
 20
528.6439206446639
 10
-1510.938955376011
 20
514.3124362864114
 10
-1523.406525958748
 20
501.2058956361206
 10
-1528.160007662749
 20
499.9166351994545
 10
-1532.436556354133
 20
501.8402679196565
 10
-1539.436804432386
 20
504.7617068509953
 10
-1545.105349651049
 20
500.1814083450021
 10
-1549.154952419941
 20
495.7600817045995
 10
-1550.352257176249
 20
501.4163313341846
 10
-1551.584881273422
 20
506.7584687192707
 10
-1555.181393326364
 20
503.3270937423067
 10
-1555.473213284715
 20
496.2984404150643
 10
-1548.945300435062
 20
489.6937236732933
 10
-1541.580259993022
 20
484.2164044717401
 10
-1550.352257176249
 20
482.6834963138194
 10
-1556.87633853922
 20
481.3349000811331
 10
-1555.304262137904
 20
479.0278574550407
 10
-1551.263854937049
 20
473.879244979073
 10
-1551.845230793438
 20
465.6893899495721
 10
-1553.185380339576
 20
458.4833213731221
 10
-1543.821261721402
 20
464.5527620096222
 10
-1535.030072273071
 20
470.7128173061423
 10
-1540.417525696092
 20
462.9430499595837
 10
-1548.790456125579
 20
457.0032180680136
 10
-1556.727345954851
 20
458.3105387396299
 10
-1562.052694461932
 20
465.4745480418251
 10
-1562.590966093154
 20
477.1047994578407
 10
-1562.68234705051
 20
486.4604713894655
 10
-1566.086849373158
 20
492.433915868743
 10
-1570.162593330728
 20
493.0383154769187
 10
-1571.85600594891
 20
489.4909683644418
 10
-1573.210749976136
 20
485.3491835091599
 10
-1576.463960822405
 20
484.520537435018
 10
-1580.171812395145
 20
483.8016808701523
 10
-1582.607889043165
 20
479.9125825615233
 10
-1581.737741001921
 20
475.5734413104415
 10
-1577.489980708196
 20
473.7686543407626
 10
-1574.097773974627
 20
472.457693756799
 10
-1575.290463531069
 20
469.3081594569648
 10
-1576.828753186192
 20
463.7755623521051
 10
-1574.270574023968
 20
456.7315482464387
 10
-1573.391996712025
 20
454.2401762792633
 10
-1578.982954325385
 20
459.6560523671219
 10
-1592.206912626618
 20
469.290203717107
 10
-1602.209322094252
 20
468.9510474823896
 10
-1606.482892675533
 20
460.2288770418726
 10
-1602.520351733557
 20
444.7140206061544
 10
-1598.499920510992
 20
435.0649787056572
 10
-1603.773718106356
 20
439.9770491265808
 10
-1614.297871564935
 20
446.1615911061662
 10
-1628.690415888213
 20
448.3135978484419
 10
-1642.553030771727
 20
446.395625279019
 10
-1651.487465574405
 20
440.3702641552063
 10
-1655.893431436385
 20
436.3436851381006
 10
-1659.585155933365
 20
441.7219255772375
 10
-1666.381307682428
 20
448.2835380938395
 10
-1678.224293688515
 20
453.3377915023484
 10
-1690.147932489251
 20
455.3980167227505
 10
-1697.185990374713
 20
452.9775969225793
 10
-1694.396650654647
 20
436.9050850162007
 10
-1690.386198713302
 20
429.2612690863761
 10
-1689.02070910752
 20
434.7915672992266
 10
-1685.753687493348
 20
441.770306804517
 10
-1676.302785701837
 20
441.7587949286235
 10
-1667.624485783824
 20
437.699961759999
 10
-1664.014929260316
 20
432.4568857214808
 10
-1666.605362574059
 20
429.1568262426048
 10
-1672.831458768292
 20
429.7596932561086
 10
-1679.628951537693
 20
430.58220895156
 10
-1683.583341862547
 20
427.8059311179094
 10
-1687.612986068997
 20
423.4491127805463
 10
-1694.587110374421
 20
420.4700796380438
 10
-1713.018895036702
 20
409.8042134197912
 10
-1720.415423332925
 20
405.1010461022587
 10
-1720.250303672797
 20
415.6593868715458
 10
-1720.185795369757
 20
426.1539856351309
 10
-1727.38339984381
 20
422.4975804790151
 10
-1735.345159504815
 20
418.2905210233579
 10
-1740.629720094586
 20
421.244214106216
 10
-1746.147722718358
 20
425.7960899473705
 10
-1753.826875404897
 20
427.6891926850598
 10
-1759.297280514575
 20
426.0088245374431
 10
-1759.509997688798
 20
421.9692010497724
 10
-1758.891769896871
 20
416.7668258493217
 10
-1762.379223906176
 20
412.2925027817728
 10
-1766.402720318087
 20
404.670195424911
 10
-1767.085473828903
 20
391.9008081867541
 10
-1768.106129633339
 20
379.351835927881
 10
-1774.605637234002
 20
374.6363730212702
 10
-1788.429484438637
 20
372.3323955845226
 10
-1799.181350117043
 20
369.3218745878366
 10
-1801.849440699484
 20
367.8602843297399
 10
-1800.675090031569
 20
366.3520544292187
 10
-1791.501448549017
 20
365.5249235339006
 10
-1788.245921394891
 20
364.0227369328268
 10
-1786.893493675522
 20
359.3871431076796
 10
-1790.46081676629
 20
355.4519624637797
 10
-1799.175202322504
 20
355.7376520434396
 10
-1809.031597315871
 20
356.0947640180152
 10
-1815.487338889121
 20
352.4383588618998
 10
-1816.403551849787
 20
348.967031928355
 10
-1812.42152257328
 20
350.3064151771568
 10
-1807.410373389939
 20
351.3823663007488
 10
-1805.325278337804
 20
347.8181258151753
 10
-1803.644910190186
 20
344.0050476854795
 10
-1799.605286702516
 20
344.4819806980977
 10
-1794.409825593941
 20
345.1094214739096
 10
-1789.947031818134
 20
341.6496238321069
 10
-1789.877333592226
 20
339.0888497084484
 10
-1793.513571195717
 20
337.7059965016592
 10
-1811.696535629724
 20
338.5039384348029
 10
-1831.701929287994
 20
339.3387323034844
 10
-1834.568943692604
 20
337.068837682355
 10
-1833.906827962324
 20
332.6856343344343
 10
-1833.213328872951
 20
325.2107695514205
 10
-1836.413560707923
 20
319.9431197505942
 10
-1839.596115456613
 20
315.6538923214648
 10
-1838.852702545288
 20
310.5306199051411
 10
-1833.727514385624
 20
306.5553131461757
 10
-1826.627821812135
 20
304.9381122812597
 10
-1820.511915691696
 20
305.8391560378359
 10
-1818.33812172288
 20
309.4185831433474
 10
-1817.789000018011
 20
313.8137860109214
 10
-1814.793073502412
 20
304.5095779117692
 10
-1814.843474968124
 20
300.1187812538796
 10
-1817.283661756403
 20
297.38569472464
 10
-1830.625978164401
 20
296.2152800384974
 10
-1843.131166980012
 20
295.4580389434218
 10
-1848.332775883126
 20
291.9083755230868
 10
-1846.527988913448
 20
288.003150138698
 10
-1842.188847662366
 20
286.3788436075715
 10
-1836.033494644955
 20
284.9188033599967
 10
-1836.334457923796
 20
281.6472536252013
 10
-1841.686870659529
 20
278.2270944547049
 10
-1850.68590084449
 20
276.3212259000257
 10
-1858.61281139254
 20
276.2283994272398
 10
-1861.980740433227
 20
277.9286390580551
 10
-1857.032584374102
 20
291.4475870020769
 10
-1852.094390180349
 20
304.9442600757984
 10
-1856.012677451152
 20
311.9068725053289
 10
-1863.008118755205
 20
313.0781405680505
 10
-1870.550748604938
 20
310.0383435299473
 10
-1876.584277761722
 20
304.1404664175411
 10
-1879.052416986928
 20
296.7375116732019
 10
-1876.402073154163
 20
295.6062478146059
 10
-1870.033132170101
 20
302.1011576312512
 10
-1862.18119685007
 20
310.6988221704642
 10
-1860.81723983896
 20
300.8600868475296
 10
-1863.199745336832
 20
291.1733222190674
 10
-1869.219063161196
 20
284.7852586332933
 10
-1876.699100451231
 20
283.0109145668853
 10
-1883.46376434611
 20
287.1652736648221
 10
-1885.180984429265
 20
287.9163669653589
 10
-1882.566743650549
 20
280.7509992269766
 10
-1876.154785520562
 20
271.7086732425132
 10
-1868.742913861763
 20
267.9470589452908
 10
-1863.006777734867
 20
266.1983510079526
 10
-1860.620632324647
 20
261.9935904443037
 10
-1863.095093502878
 20
258.7442285005645
 10
-1869.043964219847
 20
259.2779720111621
 10
-1877.932682420074
 20
258.6198096785038
 10
-1887.475748882128
 20
252.5012215173879
 10
-1894.544336750102
 20
247.2773551598234
 10
-1897.484201649209
 20
248.7718613716847
 10
-1894.324688068154
 20
255.0440399011882
 10
-1886.732335970803
 20
261.3116206466734
 10
-1881.287270920769
 20
265.7905414982401
 10
-1883.297878388644
 20
267.7627470200568
 10
-1889.685245340476
 20
265.9180255096471
 10
-1894.768583216068
 20
261.2256037706711
 10
-1901.845617770591
 20
257.2681482564726
 10
-1913.028334126344
 20
257.1951758510358
 10
-1923.810938777447
 20
257.0047161312627
 10
-1924.916845160549
 20
248.390941932138
 10
-1924.509801948173
 20
242.7559918853331
 10
-1926.36526903714
 20
239.5805428028525
 10
-1939.176907123887
 20
239.1013108982252
 10
-1951.838002615742
 20
238.56525107977
 10
-1955.7532246972
 20
231.7347378615123
 10
-1960.55547077715
 20
224.2698697755673
 10
-1974.283304408714
 20
220.8046906365621
 10
-1987.061138333419
 20
220.9045356963156
 10
-1981.914058452124
 20
225.6031052298299
 10
-1972.516919385094
 20
228.8501682815604
 10
-1965.091985839881
 20
228.0238210994271
 10
-1961.844922788151
 20
228.1274976458622
 10
-1962.781878024443
 20
233.9957155681827
 10
-1967.497340931054
 20
240.1534719726942
 10
-1974.922274476268
 20
236.6990384122459
 10
-1983.694271659494
 20
232.8444931471454
 10
-1992.954696315384
 20
233.3997452307058
 10
-1999.004927270931
 20
234.3397656563434
 10
-1998.170899699585
 20
229.9714354430862
 10
-1997.322260231304
 20
225.5984900299636
 10
-2003.288790618706
 20
226.5062563040815
 10
-2013.792219217507
 20
226.3004358058843
 10
-2025.519058929596
 20
221.0120611452803
 10
-2034.174700828641
 20
213.3667126207829
 10
-2035.46453598831
 20
206.0899879467543
 10
-2035.671906497029
 20
202.0449829618806
 10
-2041.141527893522
 20
200.3638485169267
 10
-2045.688039653322
 20
200.9276517821267
 10
-2047.276243130398
 20
203.2753081670444
 10
-2041.706776674152
 20
217.2596598319419
 10
-2036.306261364716
 20
231.5458281522601
 10
-2039.595174700519
 20
233.0637586804246
 10
-2047.512785185442
 20
232.4965941564546
 10
-2058.595656481443
 20
233.6193939126538
 10
-2064.955401897469
 20
238.6405223772149
 10
-2067.477478005643
 20
243.250009845382
 10
-2069.336010283956
 20
243.3713460622493
 10
-2079.667039397932
 20
225.0908528763466
 10
-2088.52350344664
 20
218.7956331792079
 10
-2091.851219293018
 20
220.6004201488859
 10
-2091.017940603161
 20
224.9395613999686
 10
-2089.796062084544
 20
229.251063699397
 10
-2092.191437894497
 20
230.9913249501874
 10
-2105.798701606529
 20
225.1945294227817
 10
-2110.679092598936
 20
220.0635940330944
 10
-2112.116196173967
 20
215.1584202881977
 10
-2112.564689105899
 20
204.9718033904219
 10
-2113.842629241006
 20
203.5210632059734
 10
-2114.825666812569
 20
206.5077767376874
 10
-2117.303680823904
 20
211.1195630978636
 10
-2121.742963204165
 20
212.5150079631567
 10
-2125.987553813454
 20
210.7793444963845
 10
-2127.881509927723
 20
205.9978232762128
 10
-2128.984351121481
 20
202.3982634497738
 10
-2131.635443835733
 20
203.0978929178373
 10
-2138.988972401881
 20
203.9634257592143
 10
-2151.388185779048
 20
200.769341718782
 10
-2164.725103273994
 20
197.7795629977222
 10
-2172.20994733823
 20
201.5864933328794
 10
-2175.632126747158
 20
205.4018703545844
 10
-2175.570683633464
 20
201.5680499492619
 10
-2177.212649835022
 20
197.718119884028
 10
-2183.213733265953
 20
198.1581835452603
 10
-2188.871236836633
 20
202.3486282813983
 10
-2188.610399672858
 20
207.1167915457299
 10
-2183.344195387461
 20
211.0290355170864
 10
-2173.985545345733
 20
212.6517049584477
 10
-2165.471598790514
 20
215.7651362042325
 10
-2161.353638816052
 20
223.4035880527021
 10
-2160.966571581966
 20
231.8699196779789
 10
-2170.342202076033
 20
236.7727596991695
 10
-2177.870045870344
 20
240.6457483478871
 10
-2182.992551989332
 20
237.5284681995731
 10
-2184.732046942785
 20
232.9765923584182
 10
-2183.324323904262
 20
231.0834896207289
 10
-2183.048613605823
 20
227.0215912627591
 10
-2187.514472570975
 20
217.2596598319419
 10
-2193.065513059452
 20
203.8858555697602
 10
-2195.409425036931
 20
191.1479561857863
 10
-2197.70340577661
 20
182.6501367063265
 10
-2203.144639339961
 20
179.4744960495113
 10
-2206.655117101052
 20
180.1779744201049
 10
-2204.318119215449
 20
181.0104693967769
 10
-2200.739284248788
 20
183.3044675523037
 10
-2201.270728867377
 20
187.5291866783941
 10
-2206.866319096452
 20
190.8768610872134
 10
-2215.45706954379
 20
191.0680871043232
 10
-2238.165019748786
 20
188.5490761854944
 10
-2246.113734939225
 20
186.6375474800361
 10
-2242.772974622281
 20
180.7032712441546
 10
-2237.593640589466
 20
172.7000444477453
 10
-2235.49241846157
 20
163.8074773449875
 10
-2236.58296406625
 20
157.4607938153758
 10
-2241.544182011789
 20
163.5002791923648
 10
-2246.265792712939
 20
169.0175329346498
 10
-2247.595945562008
 20
164.3788565043082
 10
-2250.250120881455
 20
159.3761714233646
 10
-2256.90400256369
 20
159.580459326889
 10
-2263.461104375517
 20
159.8768944851058
 10
-2266.285780852296
 20
155.6299004887164
 10
-2267.17337957379
 20
154.0532263033828
 10
-2269.474483395526
 20
155.3012111789799
 10
-2276.920925513702
 20
165.0362699554794
 10
-2286.329576456624
 20
176.9677633039123
 10
-2294.240655998341
 20
181.932063854646
 10
-2302.644203489584
 20
185.35537529373
 10
-2311.523517131593
 20
193.771409948386
 10
-2318.555061489696
 20
204.3992573692485
 10
-2321.415248881674
 20
214.4580245227985
 10
-2325.168608066682
 20
225.4371321931221
 10
-2334.977962853108
 20
231.8537926022191
 10
-2348.667220380127
 20
233.00701784584
 10
-2364.060252955218
 20
228.1958374355827
 10
-2390.694188236079
 20
218.7956331792079
 10
-2400.899248517473
 20
214.2836918787848
 10
-2413.57417219308
 20
203.4358126273073
 10
-2429.543007553023
 20
191.8184141075239
 10
-2448.742012591601
 20
188.0759920754062
 10
-2468.113242956517
 20
185.5838538108946
 10
-2486.591684677071
 20
178.8201652035345
 10
-2502.010457876323
 20
168.8539458691934
 10
-2512.202647845637
 20
156.754250255437
 10
-2520.688955449204
 20
147.6842679034716
 10
-2533.184164983593
 20
147.5445057188353
 10
-2542.802154426121
 20
148.324735734001
 10
-2550.524341674434
 20
145.4978996920017
 10
-2556.302693818222
 20
139.2544050650649
 10
-2560.089195363027
 20
129.7847115729641
 10
-2561.494532430298
 20
101.928427545577
 10
-2554.356141841324
 20
63.45255120954243
 10
-2549.956027704459
 20
50.74211661873642
 10
-2543.305524696843
 20
41.59245675964257
 10
-2532.036686969995
 20
33.76067157638682
 10
-2513.781638338828
 20
25.00384359725013
 10
-2479.847188334816
 20
13.13300964932614
 10
-2446.530199825395
 20
5.939236661954055
 10
-2413.647893480003
 20
2.074712115633246
 10
-2404.315280131862
 20
24.42016884885152
 10
-2397.968875255827
 20
38.71614229190436
 10
-2392.969743007988
 20
45.12674198570493
 10
-2386.94648920185
 20
45.00559734317175
 10
-2377.527737066766
 20
39.70626811382818
 10
-2364.332898064312
 20
35.72193994531244
 10
-2346.304307711877
 20
39.58952968097901
 10
-2335.001195595078
 20
42.67368488534612
 10
-2324.809771923101
 20
42.84965461912361
 10
-2297.78570421881
 20
33.1568466912131
 10
-2264.583921547565
 20
20.9795808880026
 10
-2261.328394393438
 20
20.27840140941817
 10
-2259.97596667407
 20
16.90000544375152
 10
-2255.195229167084
 20
14.07456266963618
 10
-2243.70069945884
 20
14.71891423439274
 10
-2232.402010967573
 20
15.38015917224538
 10
-2230.794423651058
 20
13.75555657169434
 10
-2231.775336489097
 20
10.79294657437731
 10
-2232.790715291423
 20
6.512357406129922
 10
-2229.806979869811
 20
3.753530252728978
 10
-2212.821320192112
 20
3.192896671965627
 10
-2206.390936094355
 20
1.664603713911674
 10
-2201.061843179834
 20
-3.264360080107962
 10
-2200.124887943543
 20
-7.865400861727266
 10
-2206.744965463736
 20
-6.69266986772709
 10
-2213.964862223937
 20
-5.460812067889946
 10
-2216.968469128748
 20
-8.007479354220777
 10
-2212.714090812572
 20
-13.51569427110644
 10
-2202.706108273402
 20
-16.73954199671607
 10
-2191.077284956968
 20
-17.01197811562724
 10
-2181.960366893153
 20
-13.66602787581451
 10
-2175.774205239652
 20
-10.24156699072546
 10
-2173.960971583426
 20
-14.58147453914444
 10
-2171.349795994055
 20
-18.91218651952658
 10
-2165.070703372677
 20
-18.72249309708968
 10
-2160.680202784212
 20
-18.52416141376989
 10
-2157.244108112291
 20
-22.08474457114744
 10
-2152.094729338986
 20
-42.57936683111393
 10
-2147.433029156858
 20
-61.0257459744821
 10
-2144.643689436793
 20
-65.52260515005855
 10
-2141.895816852132
 20
-66.06759929882128
 10
-2138.528932762358
 20
-66.75801578300024
 10
-2139.825298865234
 20
-75.03773659103308
 10
-2140.851492909511
 20
-85.12964610437938
 10
-2138.62541656334
 20
-96.83168564812991
 10
-2126.816304382688
 20
-121.4220800915011
 10
-2109.197735352731
 20
-141.5208923614077
 10
-2099.709807467196
 20
-147.6084280645543
 10
-2090.56943025538
 20
-149.8400600664133
 10
-2076.635009828283
 20
-150.9871549313438
 10
-2066.142709956708
 20
-154.2844278744514
 10
-2059.527996517868
 20
-159.5158875419847
 10
-2057.226335388979
 20
-166.4655251643435
 10
-2052.036255777607
 20
-177.7841896339007
 10
-2039.556389605791
 20
-192.1348662572579
 10
-2025.202264644421
 20
-211.0692897246213
 10
-2017.389097003269
 20
-232.7062871545599
 10
-2016.9302242256
 20
-252.9286474541006
 10
-2019.712806596426
 20
-261.2227189213411
 10
-2024.638931607131
 20
-267.6191595302687
 10
-2039.164724587688
 20
-275.6600219754002
 10
-2058.528849286394
 20
-281.3877114157485
 10
-2079.439710326772
 20
-282.1065505647655
 10
-2086.957574839864
 20
-278.7179837435442
 10
-2094.470824153088
 20
-272.3377050420736
 10
-2103.085382065397
 20
-260.651183019384
 10
-2103.268840614052
 20
-256.2821735880338
 10
-2100.848229239547
 20
-252.4436683194506
 10
-2095.292956699871
 20
-242.5394494059578
 10
-2094.172856400198
 20
-230.9936648554233
 10
-2097.167633469792
 20
-221.4177869346961
 10
-2103.957045285465
 20
-217.4232704947774
 10
-2116.284069970381
 20
-212.9113291943542
 10
-2132.071676010284
 20
-202.0634499428763
 10
-2152.027626074513
 20
-189.1989199240749
 10
-2161.229063251354
 20
-186.9858532167734
 10
-2170.424370049505
 20
-187.7073918223159
 10
-2190.331364163451
 20
-198.3197739696629
 10
-2214.818099476236
 20
-221.7670269457256
 10
-2232.990771143748
 20
-240.8210798767986
 10
-2244.867282658301
 20
-250.591266419829
 10
-2254.083836791686
 20
-253.2145286080947
 10
-2264.276723394942
 20
-250.8278084748731
 10
-2276.996945692635
 20
-243.0104261983711
 10
-2283.593233163705
 20
-232.6540744405988
 10
-2288.95668754742
 20
-218.0508157656805
 10
-2299.443031198791
 20
-207.3326323383753
 10
-2315.839059907887
 20
-199.9701868577692
 10
-2338.931586880626
 20
-195.4341594387981
 10
-2367.74737966818
 20
-189.0498402604635
 10
-2388.291915750099
 20
-179.7118454151191
 10
-2405.168796037738
 20
-169.421534555059
 10
-2413.044033763132
 20
-168.8324783094576
 10
-2421.853875585264
 20
-171.9919918905129
 10
-2446.20774538944
 20
-191.6901873961594
 10
-2486.090961615329
 20
-232.783091046678
 10
-2513.74478640329
 20
-257.3588039297197
 10
-2518.819189948575
 20
-261.4682301383898
 10
-2520.960050547776
 20
-267.0423988737457
 10
-2517.185374364139
 20
-289.6144183807871
 10
-2514.423673595727
 20
-311.9812966077252
 10
-2517.094759704119
 20
-332.2371649998811
 10
-2524.228622172469
 20
-346.9254652632831
 10
-2529.16599782134
 20
-351.101629003608
 10
-2534.855320147326
 20
-352.5896913515048
 10
-2553.370526724175
 20
-343.5312382912818
 10
-2580.71743201309
 20
-322.7363493864166
 10
-2605.494263115219
 20
-299.7757126347678
 10
-2616.299229715863
 20
-284.2200508658909
 10
-2619.019167279446
 20
-274.2227268260347
 10
-2626.036587384372
 20
-266.6515001529778
 10
-2635.720861546491
 20
-262.637582457771
 10
-2646.441343865805
 20
-263.3122724307063
 10
-2657.626167539234
 20
-270.9086650049221
 10
-2669.459574828618
 20
-285.2384077783188
 10
-2679.882925355773
 20
-303.3029096104697
 10
-2686.837665821758
 20
-322.1035271134019
 10
-2687.861787380057
 20
-330.7977625328406
 10
-2685.409200507609
 20
-338.472474177998
 10
-2666.175642425502
 20
-357.4311056748497
 10
-2646.710906369705
 20
-371.369375004477
 10
-2634.393094668674
 20
-377.1654042345465
 10
-2622.973836257876
 20
-382.7087643338121
 10
-2605.670232848997
 20
-396.0395514500687
 10
-2583.929175723955
 20
-412.1489327078336
 10
-2561.851731484116
 20
-424.387641624738
 10
-2470.935428966953
 20
-467.6800624523846
 10
-2442.546829528549
 20
-484.7312753840364
 10
-2432.00595685536
 20
-495.1902587373304
 10
-2454.173249457884
 20
-543.5061243373954
 10
-2471.580529413198
 20
-581.9671101229175
 10
-2472.495018204857
 20
-593.5138525451225
 10
-2469.533070009785
 20
-605.2218831407746
 10
-2462.725597959162
 20
-639.9043438401297
 10
-2460.97452146642
 20
-648.0808583296391
 10
-2456.173773149447
 20
-657.2024786725628
 10
-2440.138217673697
 20
-675.7718311225628
 10
-2420.048809962009
 20
-690.5937806077591
 10
-2401.335463276174
 20
-696.6496717140849
 10
-2384.091282742557
 20
-690.3250714804378
 10
-2364.406619351237
 20
-674.589904560527
 10
-2347.250563011296
 20
-654.3020780862766
 10
-2337.592203631824
 20
-634.3195166054597
 10
-2331.503570730219
 20
-621.8488808333774
 10
-2319.922275264485
 20
-618.4190384510857
 10
-2295.254397710902
 20
-614.0199866809821
 10
-2289.382539876234
 20
-612.8477433307416
 10
-2284.207612053103
 20
-615.6273824231627
 10
-2272.405135310748
 20
-636.5374771662048
 10
-2259.612706904956
 20
-657.7417081754549
 10
-2245.783495618967
 20
-670.4212470509283
 10
-2237.921093373955
 20
-674.9981842981504
 10
-2233.885005303541
 20
-681.587070033586
 10
-2233.888854206071
 20
-712.967938659392
 10
-2235.95369462634
 20
-732.2388537366443
 10
-2239.505169294925
 20
-745.508493808632
 10
-2245.762666264097
 20
-755.6896595458117
 10
-2255.945556170284
 20
-765.6951342027905
 10
-2270.350082597367
 20
-775.7750267806357
 10
-2282.575642548614
 20
-780.1686970535365
 10
-2290.487000743907
 20
-778.578960981788
 10
-2291.948974150671
 20
-770.70858227814
 10
-2294.732932373534
 20
-760.6179441217378
 10
-2303.972632169646
 20
-747.8224505266003
 10
-2318.413174571536
 20
-737.0613544484609
 10
-2334.452666029059
 20
-736.7510911064924
 10
-2349.734150094169
 20
-737.1335431407121
 10
-2363.089510972733
 20
-732.9172881170186
 10
-2375.146102361322
 20
-728.1909751367593
 10
-2385.110127298745
 20
-730.1133365000175
 10
-2392.656118407249
 20
-738.4926062983788
 10
-2397.458643140775
 20
-753.1369489600333
 10
-2405.124733940899
 20
-771.6163485522577
 10
-2422.052799407434
 20
-784.9072011277828
 10
-2462.442973568848
 20
-814.0294257706246
 10
-2477.712945758064
 20
-832.02576197154
 10
-2479.38840263639
 20
-840.2040006300557
 10
-2478.103844478832
 20
-850.17415594617
 10
-2477.756624706235
 20
-867.232282969697
 10
-2481.403903957708
 20
-887.5499776242154
 10
-2487.356310091934
 20
-904.5579992514564
 10
-2493.924470967592
 20
-911.6871594406973
 10
-2505.733095504485
 20
-902.4712671095567
 10
-2516.352304664464
 20
-894.9352552822738
 10
-2529.225943172058
 20
-894.1009316415033
 10
-2543.16631981936
 20
-899.755753171507
 10
-2556.985743398463
 20
-911.6871594406973
 10
-2570.201342092392
 20
-924.7046006097921
 10
-2578.901133167518
 20
-930.1189441029785
 10
-2583.925518395759
 20
-932.1504157574198
 10
-2589.41177192762
 20
-937.7020832164452
 10
-2600.262803447686
 20
-956.1092941164183
 10
-2608.440084234532
 20
-978.8272410184838
 10
-2610.929435963275
 20
-999.3425881382279
 10
-2610.761634262468
 20
-1011.826372875967
 10
-2613.107461983288
 20
-1021.587450930205
 10
-2618.812475988821
 20
-1030.593969930044
 10
-2628.722250558003
 20
-1040.814094920436
 10
-2647.740775158027
 20
-1054.249342296312
 10
-2665.708706109953
 20
-1059.141436738946
 10
-2678.60902569753
 20
-1061.807036855043
 10
-2686.20331095407
 20
-1070.195136488621
 10
-2688.749577675884
 20
-1084.892649735907
 10
-2686.505893906827
 20
-1106.486542940678
 10
-2682.014015663936
 20
-1124.926112487262
 10
-2675.946786840203
 20
-1136.841391680692
 10
-2667.500709846793
 20
-1143.24673178823
 10
-2655.872269679028
 20
-1145.156431829591
 10
-2644.625045020234
 20
-1147.073342032252
 10
-2637.594075385133
 20
-1151.681279489898
 10
-2628.414477682377
 20
-1160.039423863964
 10
-2614.757108574058
 20
-1165.108062763378
 10
-2599.238107166385
 20
-1166.323323259544
 10
-2584.473682228959
 20
-1163.121280176322
 10
-2572.254182993007
 20
-1156.472779991291
 10
-2567.172377712088
 20
-1150.556947139026
 10
-2565.830033769032
 20
-1146.492662809804
 10
-2562.185436558236
 20
-1144.408212144065
 10
-2550.284246786285
 20
-1145.478990760637
 10
-2536.058372133657
 20
-1152.369588656402
 10
-2524.097289258532
 20
-1163.680381162413
 10
-2506.669667592109
 20
-1183.266645009411
 10
-2487.07859697091
 20
-1194.476808742484
 10
-2463.020117374039
 20
-1198.093087783534
 10
-2432.190268780594
 20
-1194.897680138611
 10
-2369.448472675575
 20
-1180.901799181972
 10
-2356.397053185955
 20
-1177.722327038475
 10
-2346.450217691053
 20
-1178.20615672712
 10
-2336.072548934652
 20
-1183.327896548771
 10
-2321.728594828836
 20
-1194.062102556745
 10
-2303.894400177947
 20
-1209.607488974976
 10
-2292.594840894253
 20
-1222.750411332893
 10
-2287.973371322281
 20
-1233.279458644915
 10
-2290.173376143168
 20
-1240.983272173005
 10
-2298.891610601912
 20
-1266.228676680447
 10
-2300.146596648627
 20
-1276.847398196667
 10
-2298.72495834711
 20
-1284.63973648295
 10
-2293.896884563757
 20
-1291.2904310649
 10
-2284.932598996658
 20
-1298.484308547363
 10
-2266.330034523469
 20
-1307.060272939279
 10
-2244.518617370274
 20
-1310.787525767307
 10
-2224.542308179087
 20
-1309.386124681809
 10
-2211.445085007772
 20
-1302.576162164844
 10
-2204.957855580339
 20
-1280.087843225947
 10
-2199.230949853176
 20
-1237.923603651703
 10
-2192.832819906939
 20
-1193.021470774018
 10
-2188.722244252264
 20
-1179.015906605583
 10
-2184.006293701894
 20
-1170.647591375962
 10
-2177.347901314883
 20
-1159.868644053056
 10
-2174.316550963328
 20
-1147.775287808173
 10
-2175.154723506629
 20
-1136.905325260729
 10
-2180.104899804186
 20
-1129.79661127769
 10
-2185.961605850613
 20
-1121.853852307456
 10
-2184.579222871735
 20
-1110.57379877414
 10
-2176.351732193511
 20
-1096.973640728318
 10
-2161.673115141905
 20
-1082.070568220562
 10
-2144.31651530588
 20
-1064.377598685588
 10
-2137.097402258863
 20
-1051.375518294917
 10
-2135.741700359968
 20
-1039.182700138949
 10
-2131.836666549912
 20
-1030.02997509051
 10
-2125.625338995253
 20
-1024.275604570178
 10
-2117.350825525937
 20
-1022.277867414383
 10
-2108.783116246235
 20
-1024.584910040476
 10
-2108.89677207389
 20
-1032.274042008235
 10
-2109.852344852285
 20
-1043.526735243474
 10
-2103.413322493647
 20
-1051.973770108554
 10
-2090.066983024632
 20
-1057.277035319671
 10
-2070.300621887749
 20
-1059.098437008869
 10
-2044.719596562846
 20
-1055.931225622753
 10
-2024.092126210119
 20
-1047.345090375282
 10
-2009.069459070352
 20
-1040.016919284628
 10
-1997.912849071578
 20
-1038.854184987698
 10
-1992.463952534863
 20
-1038.824996025523
 10
-1993.489223539167
 20
-1031.690367259837
 10
-1994.763036118167
 20
-1026.557115562293
 10
-1993.288784538172
 20
-1023.690971950109
 10
-1979.739115037304
 20
-1023.322330683792
 10
-1970.119453673316
 20
-1025.161583617757
 10
-1964.528287069773
 20
-1029.193631211307
 10
-1961.63506181309
 20
-1037.323297068209
 10
-1960.109259321379
 20
-1051.455387376381
 10
-1961.179846363617
 20
-1073.875349109707
 10
-1967.107191091774
 20
-1090.254292871372
 10
-1972.480067449557
 20
-1102.680378902857
 10
-1972.913217018913
 20
-1114.737841083873
 10
-1971.881798220071
 20
-1127.628564538897
 10
-1973.730351217162
 20
-1142.072172130132
 10
-1976.299763601702
 20
-1150.746727640706
 10
-1979.60931471804
 20
-1154.265565009103
 10
-1996.450597011237
 20
-1147.884328435962
 10
-2007.404260126824
 20
-1142.790053407479
 10
-2015.568966671015
 20
-1141.606785825104
 10
-2024.099998173665
 20
-1144.692752277721
 10
-2036.15265358048
 20
-1152.406266433454
 10
-2051.871136117478
 20
-1164.983661357165
 10
-2060.341299229436
 20
-1175.206381308991
 10
-2059.688605473223
 20
-1181.368718081672
 10
-2054.885889165362
 20
-1190.035331965306
 10
-2036.995911551558
 20
-1210.784330109234
 10
-2015.002568444381
 20
-1229.259323491775
 10
-2005.070623499992
 20
-1235.083409653863
 10
-1997.237027068487
 20
-1237.26620761638
 10
-1984.063661807299
 20
-1239.395834993265
 10
-1971.917883858272
 20
-1244.442303517471
 10
-1965.444587109681
 20
-1247.439396894922
 10
-1959.096283906154
 20
-1247.581858536084
 10
-1941.87408217341
 20
-1238.29837529671
 10
-1916.690120779662
 20
-1225.027498699475
 10
-1908.06020208893
 20
-1219.613155206289
 10
-1896.513459666724
 20
-1206.595714037194
 10
-1884.903445466727
 20
-1194.665265639674
 10
-1873.245642178302
 20
-1188.934232356404
 10
-1863.245531602677
 20
-1189.786790390609
 10
-1856.608647788629
 20
-1197.607150777213
 10
-1856.977289054946
 20
-1207.513459592533
 10
-1862.949183523702
 20
-1218.060288485927
 10
-1870.667974681547
 20
-1228.669500948837
 10
-1871.583699998453
 20
-1237.427478373979
 10
-1865.167039589356
 20
-1246.003442765895
 10
-1850.888656153341
 20
-1256.066616129129
 10
-1838.414746201731
 20
-1263.094311584702
 10
-1828.515543052622
 20
-1266.227144085774
 10
-1818.252296421212
 20
-1265.869457388197
 10
-1804.68630827025
 20
-1262.42559524782
 10
-1785.64089360006
 20
-1258.516520960901
 10
-1773.825354971291
 20
-1259.298335818285
 10
-1761.25180895011
 20
-1262.053122494821
 10
-1740.383965055657
 20
-1262.88638376883
 10
-1720.399296257166
 20
-1264.244959282737
 10
-1709.953078720861
 20
-1268.262325315957
 10
-1703.869827316459
 20
-1272.441728404113
 10
-1694.37207689234
 20
-1274.178924465558
 10
-1687.926610669736
 20
-1275.465206792122
 10
-1684.685399343119
 20
-1281.713682351745
 10
-1685.131610798891
 20
-1323.434793075412
 10
-1685.163098653074
 20
-1367.10891705579
 10
-1681.467420758473
 20
-1378.341355659163
 10
-1674.379727704636
 20
-1388.019778096168
 10
-1659.475331592391
 20
-1399.503544810006
 10
-1642.511180487654
 20
-1405.591411414275
 10
-1607.718111734141
 20
-1412.202275950585
 10
-1592.161683667927
 20
-1412.833565628926
 10
-1578.68805176184
 20
-1403.889534693695
 10
-1569.718907172996
 20
-1393.109228934602
 10
-1563.937437592317
 20
-1382.264258129833
 10
-1561.251652507746
 20
-1371.817587781466
 10
-1561.569526575532
 20
-1362.232165975732
 10
-1564.799051867769
 20
-1353.97095821471
 10
-1570.848203040705
 20
-1347.496912584631
 10
-1579.624972166436
 20
-1343.272994587575
 10
-1591.037351317055
 20
-1341.762134893922
 10
-1603.745208362276
 20
-1339.995854365394
 10
-1607.807977512673
 20
-1334.465451657452
 10
-1603.213554753504
 20
-1324.823619918255
 10
-1589.949870901721
 20
-1310.723017464268
 10
-1579.257428098577
 20
-1301.963681602939
 10
-1568.585135432209
 20
-1296.436831728101
 10
-1539.262471788373
 20
-1292.131477223211
 10
-1505.873764814612
 20
-1290.246455439251
 10
-1485.150594374086
 20
-1286.345444690212
 10
-1472.810403307664
 20
-1278.967725510425
 10
-1464.570738951304
 20
-1266.652613265919
 10
-1457.896881290778
 20
-1248.141725819511
 10
-1455.121369754464
 20
-1230.225258700059
 10
-1455.727127798827
 20
-1221.114296856449
 10
-1458.193333864844
 20
-1215.812372665671
 10
-1463.493429391524
 20
-1213.345487381561
 10
-1472.600838402029
 20
-1212.739642257955
 10
-1488.307025349948
 20
-1216.378387743637
 10
-1501.446586449095
 20
-1225.297827500712
 10
-1513.179957104392
 20
-1233.636675114582
 10
-1525.438624583738
 20
-1236.049710594967
 10
-1532.082317994569
 20
-1233.94127830577
 10
-1535.881776930697
 20
-1228.522633097991
 10
-1537.910810366341
 20
-1198.928090642398
 10
-1537.244950228622
 20
-1179.388867002341
 10
-1534.55160666578
 20
-1166.328408687321
 10
-1528.469121558714
 20
-1156.143306968369
 10
-1517.635836788323
 20
-1145.230153116515
 10
-1501.489011456169
 20
-1133.541819845576
 10
-1484.274315954152
 20
-1124.952898062336
 10
-1471.911762938189
 20
-1121.811705953958
 10
-1469.400066675752
 20
-1123.01787537718
 10
-1470.321452143438
 20
-1126.466596539303
 10
-1469.76388375202
 20
-1131.149038997057
 10
-1463.980916408365
 20
-1135.227848143972
 10
-1458.271670351634
 20
-1136.184761942706
 10
-1457.879987917682
 20
-1133.372381055005
 10
-1456.796356404878
 20
-1130.397945696521
 10
-1449.413656292405
 20
-1130.976238947717
 10
-1441.434236960968
 20
-1135.9044364444
 10
-1440.689274039122
 20
-1144.228706993031
 10
-1441.947255611788
 20
-1151.116814422453
 10
-1435.657399996004
 20
-1144.996693666664
 10
-1427.169559797764
 20
-1138.451870028067
 10
-1418.257800429902
 20
-1135.879096384756
 10
-1412.72980110906
 20
-1137.137077957422
 10
-1416.721827082636
 20
-1141.003135098416
 10
-1422.116960894868
 20
-1146.598725327491
 10
-1424.309563980121
 20
-1153.198826869395
 10
-1422.559323448109
 20
-1156.01199147028
 10
-1418.04891474236
 20
-1151.300360050351
 10
-1411.481049936127
 20
-1145.598028085495
 10
-1403.401785544936
 20
-1153.161974933857
 10
-1396.079762248821
 20
-1160.056996455154
 10
-1391.716029819583
 20
-1156.233939044237
 10
-1389.254613111918
 20
-1155.091163309748
 10
-1387.839209684183
 20
-1163.588216491872
 10
-1386.207222763846
 20
-1174.469882489542
 10
-1380.902721027482
 20
-1168.196153949518
 10
-1374.655882557623
 20
-1160.603801852166
 10
-1368.436683039418
 20
-1157.444288271111
 10
-1365.293296534123
 20
-1159.441833852572
 10
-1366.439903755294
 20
-1164.245612527194
 10
-1366.234849554433
 20
-1168.312126085031
 10
-1356.818518222298
 20
-1166.660180602252
 10
-1347.627199653465
 20
-1165.056616346753
 10
-1346.840787012064
 20
-1168.503352102141
 10
-1346.266325247549
 20
-1172.139798695814
 10
-1338.392881354556
 20
-1171.513890514675
 10
-1329.467293802942
 20
-1171.266585465225
 10
-1326.098877118496
 20
-1175.912942284779
 10
-1323.883999162945
 20
-1180.023988167365
 10
-1315.936816567179
 20
-1175.089642876142
 10
-1309.699191081205
 20
-1168.375868090734
 10
-1314.400843219913
 20
-1166.44514712017
 10
-1316.588848521148
 20
-1164.09355475348
 10
-1309.344377998639
 20
-1158.617785562448
 10
-1298.892796380979
 20
-1154.074338991993
 10
-1298.868988916008
 20
-1159.39192003062
 10
-1298.259207810628
 20
-1167.69466459044
 10
-1292.276550347467
 20
-1175.9006466957
 10
-1283.648181667256
 20
-1180.351928595614
 10
-1279.226855026853
 20
-1171.642907120754
 10
-1273.267238731327
 20
-1162.523010946837
 10
-1261.132972658193
 20
-1160.87259805873
 10
-1249.453364727379
 20
-1160.098463590558
 10
-1242.234251680363
 20
-1155.951314653922
 10
-1241.289633470707
 20
-1152.450816174052
 10
-1245.275494233896
 20
-1153.788649412333
 10
-1250.286643417236
 20
-1154.864600535925
 10
-1252.371738469372
 20
-1151.300360050351
 10
-1254.456833521508
 20
-1147.736119564777
 10
-1259.467982704848
 20
-1148.812070688369
 10
-1263.506073597847
 20
-1150.103055294043
 10
-1261.913254920904
 20
-1145.684811258834
 10
-1255.661818667027
 20
-1141.581428349611
 10
-1247.143256911941
 20
-1142.256501471215
 10
-1234.159306419613
 20
-1146.612065867482
 10
-1223.943012915903
 20
-1147.702315402736
 10
-1215.236969551146
 20
-1145.45067259089
 10
-1206.783786891526
 20
-1139.780490282463
 10
-1197.365156667383
 20
-1132.887001355839
 10
-1198.710670294875
 20
-1140.020114942701
 10
-1195.733169747045
 20
-1155.497422808939
 10
-1181.323348902003
 20
-1179.937204994026
 10
-1166.590603393094
 20
-1203.874139383848
 10
-1160.735046792671
 20
-1221.881813302171
 10
-1163.735971656804
 20
-1234.166395564164
 10
-1175.572635709868
 20
-1240.934124648388
 10
-1183.165667025312
 20
-1243.680569133468
 10
-1187.86432363807
 20
-1247.869864423602
 10
-1190.907882499461
 20
-1264.090602617014
 10
-1187.289112992068
 20
-1283.632125149079
 10
-1178.62002605794
 20
-1303.510034795942
 10
-1169.958619513024
 20
-1320.444248057016
 10
-1166.356743378727
 20
-1332.90873603456
 10
-1169.608421630324
 20
-1345.491111890957
 10
-1177.933441060443
 20
-1359.264644709123
 10
-1189.186813513775
 20
-1371.390847244376
 10
-1201.223533419165
 20
-1379.031197420339
 10
-1213.239336890442
 20
-1387.327515532043
 10
-1214.987470104778
 20
-1398.38227764848
 10
-1206.761703595562
 20
-1411.115474753344
 10
-1188.855807896181
 20
-1424.44711524618
 10
-1165.399829579993
 20
-1435.477007530883
 10
-1146.431985099257
 20
-1440.064986426088
 10
-1127.812805906547
 20
-1446.202000554973
 10
-1104.917461171123
 20
-1461.568735198749
 10
-1084.470471256949
 20
-1476.755755701309
 10
-1071.451480077334
 20
-1483.07248397141
 10
-1057.022850115853
 20
-1478.421146219171
 10
-1040.522953285989
 20
-1467.067545557416
 10
-1026.603493072799
 20
-1452.912327002367
 10
-1019.91620779304
 20
-1439.856100738546
 10
-1016.666741354209
 20
-1426.176735413504
 10
-1011.218715609922
 20
-1418.686422772824
 10
-1003.166045219472
 20
-1417.11155983574
 10
-992.1026448421535
 20
-1421.178543621487
 10
-984.8771053470208
 20
-1426.325919572208
 10
-979.8155546979684
 20
-1433.359658327228
 10
-974.1869614358856
 20
-1457.102092520412
 10
-968.6302607966286
 20
-1479.528393622612
 10
-957.5607126247705
 20
-1495.19138926612
 10
-940.6149004085605
 20
-1504.412454104281
 10
-917.4293553887009
 20
-1507.513032453833
 10
-903.6461219428911
 20
-1506.676200930871
 10
-892.8620891922074
 20
-1502.901246093657
 10
-882.1828824339631
 20
-1494.554038872482
 10
-868.7141443813198
 20
-1480.00051986103
 10
-849.0720104921651
 20
-1460.474340691539
 10
-835.6045089647686
 20
-1452.352842867609
 10
-823.2782505771892
 20
-1456.864784168032
 10
-806.3901370672342
 20
-1467.712663419509
 10
-781.8144241841928
 20
-1483.07248397141
 10
-756.7041840773685
 20
-1498.837797725166
 10
-735.9430819186964
 20
-1510.973596392972
 10
-715.0483479540776
 20
-1518.012995298772
 10
-703.8341437441399
 20
-1519.06841313692
 10
-695.1266722798018
 20
-1517.618247675474
 10
-687.2900803223456
 20
-1513.069245449331
 10
-678.6885842964511
 20
-1504.828135577539
 10
-669.1553229571327
 20
-1491.419290628069
 10
-667.0996084415055
 20
-1480.615682463612
 10
-672.345174946367
 20
-1473.407419490244
 10
-684.7157740843617
 20
-1470.78462752989
 10
-696.4238046800142
 20
-1467.628945435516
 10
-699.4181986009403
 20
-1455.28964257737
 10
-697.2833116377919
 20
-1446.886373739704
 10
-691.3671653002539
 20
-1438.091927527692
 10
-671.1223385560802
 20
-1421.193138102575
 10
-644.546206476567
 20
-1408.320561961742
 10
-617.501204922315
 20
-1403.201417101526
 10
-593.2818377165126
 20
-1403.201417101526
 10
-597.2323791388362
 20
-1436.820988563703
 10
-599.1171222692205
 20
-1456.077222080625
 10
-598.1639528779255
 20
-1467.198112174017
 10
-593.1154641152875
 20
-1473.920716794641
 10
-582.7142839633402
 20
-1479.982093893261
 10
-568.243803717788
 20
-1491.257723801045
 10
-565.1718396074084
 20
-1498.248567321079
 10
-564.2517777442126
 20
-1507.058374311514
 10
-561.7780828633181
 20
-1525.51704904396
 10
-555.8345936435516
 20
-1545.298196236264
 10
-550.6345347509591
 20
-1561.968977372129
 10
-549.9548638453379
 20
-1572.958151402915
 10
-546.2577404353059
 20
-1583.351372512074
 10
-533.796317647108
 20
-1598.596770938983
 10
-520.5469496228356
 20
-1614.196198735273
 10
-514.9467616097426
 20
-1625.445739701924
 10
-508.9834009067772
 20
-1633.29882446796
 10
-495.0673019523578
 20
-1643.135644047553
 10
-478.8414783311695
 20
-1651.54168200514
 10
-465.9489262120464
 20
-1655.1024741527
 10
-451.8882582987908
 20
-1649.731426459016
 10
-431.2641492048341
 20
-1637.390294936772
 10
-412.6226080625833
 20
-1623.73705338456
 10
-404.5096440044431
 20
-1614.429675600972
 10
-407.2168157510359
 20
-1607.258943781236
 10
-413.7255363355834
 20
-1599.807120165857
 10
-420.8657381728071
 20
-1590.731669237446
 10
-422.2932456152857
 20
-1580.379253461447
 10
-418.0575893363047
 20
-1569.136347933094
 10
-408.2082825932989
 20
-1557.389445163472
 10
-396.8642954799457
 20
-1542.792229788001
 10
-390.2803035979528
 20
-1527.13059258068
 10
-380.6773440327265
 20
-1486.14444808179
 10
-377.1822270500588
 20
-1462.20617267163
 10
-377.7835614688902
 20
-1439.161835351836
 10
-378.2881334331619
 20
-1419.978173675834
 10
-374.7120675864212
 20
-1415.492826376151
 10
-367.8672559565016
 20
-1412.484900340899
 10
-358.4826040528847
 20
-1410.118905067456
 10
-351.0298225658353
 20
-1412.873500169658
 10
-324.5709862263252
 20
-1447.959938892044
 10
-303.2822883515937
 20
-1473.577816152485
 10
-294.0531425597046
 20
-1479.511987893275
 10
-284.3344024332992
 20
-1482.077168226618
 10
-269.7161835444735
 20
-1485.152685170102
 10
-259.2710283749307
 20
-1490.525840181462
 10
-253.0018105396812
 20
-1498.194891675839
 10
-250.9114384854342
 20
-1508.158150315926
 10
-246.7707159969141
 20
-1521.094085313794
 10
-236.0607876818231
 20
-1532.757670663939
 10
-221.3500209737881
 20
-1541.125411170558
 10
-205.2067484747395
 20
-1544.173846469544
 10
-186.3831942992633
 20
-1539.082061907404
 10
-171.7384684889402
 20
-1526.645230297362
 10
-163.7395608229726
 20
-1510.028960767468
 10
-163.0032187461602
 20
-1501.142837528675
 10
-164.8534436647123
 20
-1492.398966940861
 10
-169.8889576201782
 20
-1475.813906611574
 10
-169.5182090361863
 20
-1464.33273485917
 10
-163.0857176207546
 20
-1456.048311772027
 10
-149.9359856660526
 20
-1449.053549686069
 10
-131.8136980484032
 20
-1437.383938452324
 10
-117.8892569025274
 20
-1421.719218639809
 10
-108.7493847503196
 20
-1408.64033435702
 10
-102.1300735274626
 20
-1403.201417101526
 10
-98.72863639416028
 20
-1398.608823006455
 10
-97.31323296642541
 20
-1387.565119953849
 10
-97.86061308644002
 20
-1379.067979692483
 10
-100.5910175750027
 20
-1374.887897386233
 10
-119.1303276862486
 20
-1376.020676423653
 10
-138.0654303717056
 20
-1376.425020179503
 10
-144.8820805745149
 20
-1373.399765374942
 10
-150.1272116831624
 20
-1367.929133859233
 10
-156.4901093677772
 20
-1348.770429094206
 10
-158.3285785885564
 20
-1317.186422010881
 10
-157.7286896851551
 20
-1294.903348847179
 10
-155.0316017148739
 20
-1279.745325732459
 10
-148.8082746405616
 20
-1267.287542856609
 10
-137.6296858409146
 20
-1253.10524265706
 10
-125.4910135580976
 20
-1239.416681763983
 10
-117.5651479609596
 20
-1233.40551455674
 10
-110.5124955944116
 20
-1233.823582001251
 10
-100.9934455875122
 20
-1239.422725063431
 10
-89.71703196654379
 20
-1249.226889926988
 10
-85.02537652490445
 20
-1258.10026476464
 10
-79.39753214430948
 20
-1274.810980441236
 10
-65.86245712452864
 20
-1303.460887271326
 10
-54.42243902225527
 20
-1323.044051097282
 10
-42.4891344255725
 20
-1338.358886512371
 10
-30.0439257923772
 20
-1349.412081202437
 10
-17.06816074886956
 20
-1356.210357685023
 10
-3.543169505400328
 20
-1358.760386230125
 10
10.54966548013271
 20
-1357.068871939434
 10
25.22901399737885
 20
-1351.142502498795
 10
40.51351100428838
 20
-1340.98800042575
 10
53.50946101626914
 20
-1326.685705029672
 10
54.94386513477502
 20
-1319.057336957514
 10
53.77825722283296
 20
-1309.254617609387
 10
53.01391046154776
 20
-1295.119444696022
 10
56.55683394849257
 20
-1284.023807583032
 10
63.92668116473351
 20
-1276.774634781413
 10
74.64303592794067
 20
-1274.178924465558
 10
87.29491843591222
 20
-1270.172321426743
 10
102.6839105341387
 20
-1260.539406602006
 10
119.8400713691694
 20
-1251.111545978129
 10
136.6966970249418
 20
-1248.650895567801
 10
149.3467682846631
 20
-1248.560960125874
 10
156.7973379589457
 20
-1242.705891169211
 10
160.9221249460406
 20
-1227.712099506344
 10
163.5948307283474
 20
-1200.206030777505
 10
168.8786076049332
 20
-1159.533232225777
 10
202.9036722689661
 20
-1153.327860891323
 10
228.2888563768929
 20
-1152.123642043139
 10
233.1312285719082
 20
-1154.368092109533
 10
234.4588909546337
 20
-1158.808245282221
 10
238.0653822887962
 20
-1165.174121076939
 10
249.8187115065348
 20
-1165.093485698139
 10
260.6665907580127
 20
-1164.671848004675
 10
265.178532058435
 20
-1167.784512953124
 10
262.7043495337816
 20
-1175.217039808306
 10
256.2045632795421
 20
-1181.750438650252
 10
247.0632630277532
 20
-1186.395733103044
 10
236.6645559263006
 20
-1188.163929374913
 10
224.725765337324
 20
-1190.017376225448
 10
219.4984332258969
 20
-1196.185599554939
 10
220.7775228070095
 20
-1207.580371282673
 10
228.3579624639506
 20
-1225.113515575477
 10
239.1798224376898
 20
-1243.100830366843
 10
249.5045992620371
 20
-1252.380273129352
 10
260.6530412278385
 20
-1253.595812279095
 10
273.9459140417957
 20
-1247.391398816311
 10
282.5684484127423
 20
-1242.335908882555
 10
288.4647929304756
 20
-1241.944801171605
 10
293.9706044602617
 20
-1247.216874597963
 10
301.4215572832127
 20
-1259.150875828588
 10
313.561204853549
 20
-1275.437654919712
 10
324.9589546913849
 20
-1284.457723449725
 10
348.1215630387005
 20
-1298.883653954679
 10
364.4006617406126
 20
-1307.309284741887
 10
386.2876462606778
 20
-1312.707501159314
 10
409.47099688362
 20
-1319.214689149189
 10
426.7331331570944
 20
-1332.896440445481
 10
441.312671446285
 20
-1349.841399285113
 10
465.3722830733122
 20
-1337.338509361511
 10
505.6027364876481
 20
-1318.402919032294
 10
520.4149679293514
 20
-1307.036657048642
 10
533.2504134810692
 20
-1288.463560191203
 10
545.0705498938555
 20
-1270.889610565239
 10
557.4574850977938
 20
-1263.144434396837
 10
564.564666486161
 20
-1263.894273756278
 10
570.9725841392846
 20
-1269.608605240786
 10
587.0404982616451
 20
-1303.172115086472
 10
599.4228182657166
 20
-1340.238439719886
 10
600.008130103879
 20
-1351.72490589025
 10
597.4606094409696
 20
-1361.93264821232
 10
594.8208196124274
 20
-1371.56517988839
 10
594.9538766953706
 20
-1381.075591634407
 10
604.7411656016797
 20
-1407.213401637543
 10
613.3506206703628
 20
-1423.44009605116
 10
622.4779011640671
 20
-1433.168432310118
 10
636.9169980505271
 20
-1439.708066025846
 10
661.4619022974779
 20
-1446.368652809774
 10
690.379839036796
 20
-1452.42598943153
 10
709.3031337769339
 20
-1452.461900911246
 10
721.9066350576262
 20
-1445.689556627155
 10
731.8651740027548
 20
-1431.322178205035
 10
739.7977621174336
 20
-1420.084932827462
 10
746.9792395157269
 20
-1415.298813823273
 10
754.7543883594885
 20
-1410.915889128929
 10
764.1146580751315
 20
-1400.657832420389
 10
771.3829186467642
 20
-1386.719563090762
 10
769.0514938326973
 20
-1381.716581940393
 10
762.5786673120178
 20
-1375.320263242405
 10
753.6633551110494
 20
-1364.400404288859
 10
751.26999953953
 20
-1353.366471527291
 10
755.4326137496805
 20
-1341.781919297878
 10
766.1851586461803
 20
-1329.210097445704
 10
778.2251527310968
 20
-1313.177224010631
 10
780.7508687516188
 20
-1298.36833641185
 10
774.1183214838606
 20
-1287.05343376558
 10
758.6834212088493
 20
-1281.502480356345
 10
742.0257890386424
 20
-1277.712164740708
 10
731.9534897707658
 20
-1269.081775822064
 10
727.3681058369962
 20
-1253.819379526968
 10
727.1712196691074
 20
-1230.133111445366
 10
729.0451127258425
 20
-1197.379821706054
 10
770.535062891668
 20
-1199.542486947644
 10
794.2639649705265
 20
-1200.353577846445
 10
808.8247812225223
 20
-1198.676954106266
 10
819.2165742320989
 20
-1193.047873200424
 10
830.4383543361568
 20
-1182.001575186384
 10
843.6364849339875
 20
-1162.252873719934
 10
849.2003783186961
 20
-1141.081471585206
 10
846.9146526912332
 20
-1121.174947699171
 10
836.5638565891481
 20
-1105.220898394648
 10
827.9076399671007
 20
-1095.944712395818
 10
825.1346188971297
 20
-1086.610932185823
 10
828.3127500202876
 20
-1073.526300673012
 10
837.5100248093254
 20
-1052.997508518185
 10
855.0570843651243
 20
-1016.133939193623
 10
859.3897295046959
 20
-1012.26065447548
 10
867.6889038155627
 20
-1009.047970308793
 10
891.1902852489278
 20
-1005.032624514005
 10
915.5683456667425
 20
-1004.944413241085
 10
930.8301498229889
 20
-1009.639813090163
 10
941.7103703052294
 20
-1014.69962215436
 10
957.484809963627
 20
-1015.844400711433
 10
974.0875299633467
 20
-1013.255604487453
 10
987.4525914695555
 20
-1007.114654376795
 10
1002.922044788095
 20
-999.2704865252191
 10
1019.053892490493
 20
-998.7074495573557
 10
1035.955259461197
 20
-1005.444561579824
 10
1053.733288000503
 20
-1019.500805867548
 10
1069.583852332925
 20
-1036.617032161847
 10
1076.177057198801
 20
-1047.14848286097
 10
1081.10544626982
 20
-1051.928663060803
 10
1093.568976375693
 20
-1052.650375824831
 10
1110.0852092715
 20
-1049.59358091854
 10
1127.171654464774
 20
-1043.03820327572
 10
1145.788430270383
 20
-1032.39529114586
 10
1158.584794657948
 20
-1022.125043343333
 10
1165.965666106323
 20
-1011.814477851406
 10
1168.335980510208
 20
-1001.050595237498
 10
1170.593109314348
 20
-989.344114652367
 10
1176.015899494082
 20
-979.706584627763
 10
1178.961912187729
 20
-973.8744697594922
 10
1166.664825346475
 20
-975.553287896588
 10
1152.236003810662
 20
-976.0086078411525
 10
1148.066371013543
 20
-973.4673046361761
 10
1145.955187020276
 20
-969.2150684693727
 10
1147.994008162807
 20
-955.9830640461076
 10
1158.524135257439
 20
-937.1230236679132
 10
1175.212576063736
 20
-918.5506931078109
 10
1183.496894655787
 20
-914.8087587194531
 10
1193.274186865027
 20
-913.7330862494378
 10
1206.87699211983
 20
-911.8020169619031
 10
1219.810297324566
 20
-906.494676442225
 10
1231.477122022542
 20
-898.5399353681874
 10
1241.280538004612
 20
-888.6666295858754
 10
1248.623599645777
 20
-877.6036123572247
 10
1252.909361321046
 20
-866.079719528321
 10
1253.540877405419
 20
-854.8238217769483
 10
1249.921202273901
 20
-844.5647375333432
 10
1246.413789702156
 20
-832.6455223581399
 10
1252.882575745972
 20
-818.7541016611199
 10
1267.204080823004
 20
-801.0964514670108
 10
1271.35265785922
 20
-795.5715173355144
 10
1273.330331957483
 20
-786.6827991352866
 10
1270.613947227005
 20
-760.6939817165193
 10
1269.191629707394
 20
-742.7590886292982
 10
1272.063921114117
 20
-726.1835373533206
 10
1274.880150904347
 20
-708.9836104908763
 10
1273.249696578683
 20
-689.516575543071
 10
1271.467968192488
 20
-670.3989721806292
 10
1273.85179729485
 20
-654.0046676405404
 10
1275.736453345993
 20
-640.3881909446234
 10
1269.428171762438
 20
-628.7531153385589
 10
1262.924066377759
 20
-617.5757804800075
 10
1267.69559090086
 20
-605.0805709456171
 10
1272.579238656945
 20
-592.0270267224728
 10
1266.989029925073
 20
-578.3790447565236
 10
1251.202695242114
 20
-550.7665129454817
 10
1244.865520765812
 20
-532.2028206462614
 10
1245.206714654809
 20
-526.0216225095985
 10
1247.869806888715
 20
-521.7514306029368
 10
1260.107836587528
 20
-518.4757533120346
 10
1270.681538135238
 20
-514.4407276083816
 10
1280.407366512005
 20
-504.7379229834018
 10
1289.693914940725
 20
-494.8869094872377
 10
1294.034223053658
 20
-495.4768191094183
 10
1299.58871188015
 20
-499.3435554685054
 10
1306.691103910165
 20
-508.2745245173223
 10
1309.646329587695
 20
-518.0210951697151
 10
1315.879339873804
 20
-531.3595626751837
 10
1330.867453970042
 20
-548.9189178200608
 10
1346.767183242929
 20
-567.7462164029757
 10
1348.110101908986
 20
-574.4230347577548
 10
1345.889354812474
 20
-581.0762372218964
 10
1342.670418356156
 20
-592.9720280807962
 10
1344.237409329694
 20
-605.8977051438662
 10
1350.077117507935
 20
-618.1137560418037
 10
1359.676332665722
 20
-627.8806858211549
 10
1367.864655100549
 20
-638.6448470886396
 10
1371.085611795301
 20
-653.6298785796841
 10
1372.890398764978
 20
-667.2586508646791
 10
1377.22954001606
 20
-675.1459229414235
 10
1381.568681267143
 20
-681.9871817382379
 10
1383.37346823682
 20
-693.1046234936161
 10
1384.377039093828
 20
-700.597809749308
 10
1388.425318258229
 20
-705.4500741463011
 10
1411.881296574417
 20
-711.1739146841196
 10
1465.947857950768
 20
-715.0814563763658
 10
1485.919464862844
 20
-717.0021980657086
 10
1498.043751654758
 20
-721.6185996257515
 10
1505.50708714603
 20
-724.1675658040908
 10
1515.043988397696
 20
-717.6987623444268
 10
1521.279123417326
 20
-712.2335471576175
 10
1526.702105171395
 20
-710.7899300552274
 10
1544.110917721382
 20
-720.9857773527367
 10
1555.116236243778
 20
-728.5318555404833
 10
1563.693158507364
 20
-731.4826750083303
 10
1573.562597971298
 20
-730.1665245014978
 10
1588.445502926429
 20
-724.9117450127521
 10
1618.581469281831
 20
-715.0814563763658
 10
1623.016711185229
 20
-718.0513810300753
 10
1622.568113758205
 20
-725.0492083053793
 10
1618.155529873776
 20
-733.207105252786
 10
1610.698812404954
 20
-739.6571692594072
 10
1601.855688896237
 20
-745.9723649348359
 10
1599.13364401498
 20
-752.8451115858338
 10
1602.578167957602
 20
-761.2569141892918
 10
1612.23478575222
 20
-772.1892777220994
 10
1625.626162605591
 20
-783.3948262553063
 10
1640.772569349326
 20
-792.4381275272883
 10
1676.954935173594
 20
-804.3465971239347
 10
1688.462039124492
 20
-805.6665791174486
 10
1697.82816056525
 20
-803.3866007200071
 10
1707.893545741251
 20
-796.1093013229763
 10
1721.498406066182
 20
-782.43733773357
 10
1738.6691613823
 20
-762.137041511756
 10
1745.730068861064
 20
-749.6471960587198
 10
1742.250016587393
 20
-739.6716592454033
 10
1733.897636859198
 20
-728.5067070551729
 10
1723.3069374433
 20
-719.0248050532368
 10
1713.111943522369
 20
-714.0984362206518
 10
1706.589725655193
 20
-710.5135231228457
 10
1700.326342129208
 20
-702.7497294123406
 10
1689.59990358969
 20
-678.0051524617313
 10
1682.980296297407
 20
-646.5041841443051
 10
1682.515188645955
 20
-614.8862684038469
 10
1690.711191469996
 20
-574.2196176466579
 10
1690.675088415946
 20
-560.2291181872212
 10
1683.860702273448
 20
-538.6585622195116
 10
1676.605503588231
 20
-517.3452731666237
 10
1676.987676968873
 20
-512.1323439619507
 10
1679.934734613433
 20
-509.7452232642122
 10
1712.589711887664
 20
-500.1238377312165
 10
1732.770117408042
 20
-495.6338752316674
 10
1748.070131936012
 20
-495.3308046351515
 10
1757.175921272601
 20
-499.0308887394369
 10
1758.773633802987
 20
-506.5503903422918
 10
1754.137848403505
 20
-526.9585080824963
 10
1753.933752074315
 20
-541.9493912986545
 10
1758.657853241808
 20
-554.5545296691105
 10
1768.806660332376
 20
-567.8053606246613
 10
1786.442035656186
 20
-583.2450502580252
 10
1794.127614790841
 20
-585.0592243700734
 10
1803.003758748413
 20
-583.8471509741926
 10
1818.062633437322
 20
-576.7727113811047
 10
1833.569043186491
 20
-563.7787816075561
 10
1847.996036058208
 20
-546.4130558668894
 10
1859.816677530602
 20
-526.2232457882942
 10
1868.778263641175
 20
-512.6443002460087
 10
1879.817455989005
 20
-506.9443716682535
 10
1894.18704622389
 20
-508.9408548829523
 10
1913.139825995629
 20
-518.4511795497266
 10
1932.990862988174
 20
-527.1202664838547
 10
1952.473258714404
 20
-530.7390359912472
 10
1968.416736598854
 20
-533.6159251819874
 10
1979.770720409278
 20
-540.5017337194001
 10
1989.845231489919
 20
-546.8714584166475
 10
2003.560020650917
 20
-547.0941722879408
 10
2060.440495509642
 20
-532.8341103246036
 10
2077.071725253443
 20
-525.706970373795
 10
2087.185021428812
 20
-518.1132598402564
 10
2096.665878479835
 20
-509.6899279450569
 10
2104.308144399139
 20
-506.1878968705139
 10
2112.569421823554
 20
-502.6259552769492
 10
2123.544785086439
 20
-494.0597785919194
 10
2133.573771138964
 20
-486.3438784649347
 10
2144.14297939775
 20
-481.3438754246678
 10
2154.991973263534
 20
-479.0206360594216
 10
2165.86033355291
 20
-479.3350966208906
 10
2186.613459252946
 20
-487.7206883722762
 10
2204.319020446424
 20
-506.1878968705139
 10
2218.018431413149
 20
-523.5444967065391
 10
2228.114451066754
 20
-530.7636097535553
 10
2241.36075390168
 20
-523.8217395996512
 10
2262.624895429953
 20
-507.1340650906904
 10
2281.452855815113
 20
-492.436638922647
 10
2299.851724523628
 20
-482.4369985749333
 10
2320.205504816348
 20
-476.1306501505694
 10
2344.898234785816
 20
-472.5130300891814
 10
2370.93005193466
 20
-470.0493144895078
 10
2380.925460231176
 20
-462.2135062452368
 10
2394.270841828519
 20
-444.3922689856715
 10
2403.597899520972
 20
-425.8741713779627
 10
2406.27915648492
 20
-410.7596356370796
 10
2402.338785918151
 20
-399.5606877104742
 10
2391.800978434308
 20
-392.7894057931446
 10
2378.851894470781
 20
-383.1526594817258
 10
2362.930656624933
 20
-364.8161046793314
 10
2347.072028754632
 20
-347.7293634166317
 10
2329.59370955307
 20
-336.809783116662
 10
2311.474887689284
 20
-332.4761104420256
 10
2293.694734416455
 20
-335.1470746394773
 10
2282.175247797234
 20
-336.770806447601
 10
2267.197513546733
 20
-334.1517588946849
 10
2223.807546551343
 20
-315.3144810305489
 10
2211.213275670384
 20
-312.4468048236931
 10
2195.692933242372
 20
-313.3115539518854
 10
2186.494421928087
 20
-314.3965439008762
 10
2179.519809978904
 20
-313.0519707292058
 10
2167.793353415483
 20
-301.1342881486751
 10
2159.988562797485
 20
-286.3823329588127
 10
2159.01445955623
 20
-272.3791721774776
 10
2165.713744355641
 20
-254.4200884766167
 10
2180.929083027948
 20
-227.8003645281758
 10
2199.869271141183
 20
-192.0096811378605
 10
2212.515005854614
 20
-160.0942678724234
 10
2219.274114093806
 20
-142.0915748867862
 10
2228.0573270835
 20
-127.5884747568948
 10
2238.129173539315
 20
-116.8906852882448
 10
2248.75419959271
 20
-110.303889454635
 10
2259.196933959304
 20
-108.1338050615618
 10
2268.721870523013
 20
-110.6861499145207
 10
2276.593572831153
 20
-118.2666244031591
 10
2282.076569599334
 20
-131.1809463329728
 10
2290.310974369433
 20
-150.2501684681344
 10
2302.406821080659
 20
-166.2136223308755
 10
2312.890674265686
 20
-178.8747352385803
 10
2317.250557792394
 20
-189.996774777976
 10
2319.494537630877
 20
-198.1321007856582
 10
2325.08330084732
 20
-196.549278805785
 10
2332.302117824911
 20
-186.7689039913514
 10
2339.436276362687
 20
-170.3116237428955
 10
2356.682285560401
 20
-128.3117375314441
 10
2361.254712102848
 20
-110.0428607165258
 10
2356.646966219537
 20
-92.04182223650127
 10
2343.433875407799
 20
-75.4243161813597
 10
2322.19028458082
 20
-61.3060540569395
 10
2309.650525305832
 20
-51.01727579155204
 10
2299.377874116204
 20
-36.18968357142512
 10
2289.977652443981
 20
-20.66934114341302
 10
2279.545263091427
 20
-8.720170708698788
 10
2270.486043733868
 20
5.562932422274116
 10
2264.394345642917
 20
26.69342472875133
 10
2263.838901985022
 20
47.1626895132249
 10
2266.155366585183
 20
53.32591449418169
 10
2270.235690910921
 20
56.78945654342351
 10
2283.790916067478
 20
55.66127529002097
 10
2304.710798517406
 20
43.86571263954238
 10
2323.320085508137
 20
33.52566211601561
 10
2338.289669141515
 20
31.08479610964332
 10
2350.110885336913
 20
36.59955938558506
 10
2359.275035182002
 20
50.12637929315224
 10
2366.955703047365
 20
62.05942265210706
 10
2375.562580570463
 20
69.09882155790637
 10
2379.408644317318
 20
72.67370312694584
 10
2382.262631667211
 20
79.41698035980244
 10
2384.894445037117
 20
98.48216201810055
 10
2383.258138986338
 20
118.4412817667648
 10
2377.153866652732
 20
131.4412548397613
 10
2367.219117756727
 20
136.5176786234774
 10
2354.114127116957
 20
139.8707345294997
 10
2347.082234441883
 20
142.2479630252605
 10
2341.734680727897
 20
146.9252155601466
 10
2336.275230186959
 20
161.5027336109042
 10
2338.100933590749
 20
180.2492923199283
 10
2347.576983867571
 20
199.8108953253759
 10
2357.086629316252
 20
215.8255169511644
 10
2359.884816287383
 20
227.5576510812139
 10
2355.985338133016
 20
234.7705118385998
 10
2345.402040452751
 20
237.2274178414891
 10
2337.935343702708
 20
238.4801049961948
 10
2330.913883120919
 20
242.3599032416969
 10
2317.250557792394
 20
258.7311666141504
 10
2303.807647443155
 20
274.8559086503392
 10
2290.051391146752
 20
280.2349153868113
 10
2275.80668996184
 20
283.9135954132257
 10
2264.33136993455
 20
293.0020037329596
 10
2258.125232302759
 20
304.5787014146754
 10
2259.68809572019
 20
315.7222495270344
 10
2271.063953836396
 20
327.8451778827598
 10
2287.561569190099
 20
337.8081230375729
 10
2307.093495589613
 20
344.6399946920174
 10
2327.572356506639
 20
347.3696154673953
 10
2349.013129570932
 20
345.3021800856923
 10
2353.28469732963
 20
341.2387491330492
 10
2355.22003350006
 20
334.2216076816999
 10
2361.112825184688
 20
322.9690015257038
 10
2375.617875889619
 20
316.8588774669843
 10
2407.467997138831
 20
305.8796653015698
 10
2421.297974722157
 20
300.7848155500842
 10
2435.699348880651
 20
298.6667000490929
 10
2449.428732522735
 20
295.0571435255842
 10
2461.632870980263
 20
286.3788436075715
 10
2472.709420323239
 20
278.540631976201
 10
2485.899853116009
 20
274.4665425242438
 10
2496.940682553603
 20
274.8126128508366
 10
2500.322648768224
 20
276.8482294772339
 10
2501.568404415205
 20
280.2349153868113
 10
2503.020659778477
 20
283.5228186033978
 10
2506.986387820739
 20
285.5051601490718
 10
2520.11231231047
 20
285.8466326916468
 10
2536.254139294089
 20
281.8462645266141
 10
2550.719830181289
 20
274.0909871660515
 10
2564.363963244706
 20
265.5632124270805
 10
2575.602741216953
 20
261.9382951251487
 10
2584.116687772172
 20
260.0536390740071
 10
2591.22061239686
 20
255.7083500283861
 10
2597.932506270625
 20
253.2306146706278
 10
2608.181297747735
 20
254.2997561974357
 10
2633.825681929673
 20
264.2353584700209
 10
2657.225981778038
 20
279.8283598181952
 10
2664.669689607991
 20
287.9692763132625
 10
2667.454466375734
 20
295.3919806298604
 10
2659.300696984436
 20
308.826461708401
 10
2639.696198744003
 20
331.5735801567925
 10
2615.410024343152
 20
353.4252279201441
 10
2605.975528280978
 20
358.5361176681467
 10
2598.224674545946
 20
359.8540794232281
 10
2577.759258664003
 20
359.4240124590656
 10
2574.689314792056
 20
363.9683124060998
 10
2571.732835173429
 20
376.2821707095095
 10
2566.909080520517
 20
420.0092911170336
 10
2559.11858831418
 20
496.8206720497683
 10
2557.733227225198
 20
505.9573745175389
 10
2559.186928103902
 20
511.5730103882988
 10
2564.471001049913
 20
514.9964263224742
 10
2574.576703915314
 20
517.5564341487966
 10
2589.808274158471
 20
523.6320051639868
 10
2592.856134734454
 20
528.7839788987253
 10
2593.727327726611
 20
536.1909567040807
 10
2595.338903272445
 20
549.6733836136868
 10
2599.801279067886
 20
561.0715688477357
 10
2606.555963681544
 20
570.0874575740963
 10
2615.044448266181
 20
576.422942713089
 10
2624.708258806251
 20
579.7799694325813
 10
2634.988886454515
 20
579.8604654845921
 10
2645.327839779582
 20
576.3663586211405
 10
2655.166609934215
 20
568.9995417625486
 10
2667.153416017652
 20
560.3212418445359
 10
2678.716285515616
 20
556.7116853210277
 10
2692.70044560618
 20
553.2223155683823
 10
2695.472717794663
 20
549.3867709940531
 10
2695.54603851707
 20
544.6250341778372
 10
2687.938517215629
 20
533.7260916584023
 10
2670.563299837501
 20
523.3317211032399
 10
2659.363968762227
 20
517.7514045733451
 10
2652.852653216246
 20
510.2766442854222
 10
2649.109569381884
 20
497.0292790837333
 10
2646.214898609771
 20
474.1311478125408
 10
2644.338706661027
 20
441.7616685436346
 10
2646.13152894275
 20
431.3893464527395
 10
2650.480335989778
 20
424.1502922591312
 10
2657.936618062386
 20
419.4882263441827
 10
2669.051882836696
 20
416.8468865051194
 10
2704.465495689993
 20
415.4013362435393
 10
2752.265260034044
 20
415.4013362435393
 10
2764.215196766096
 20
438.4410757793152
 10
2775.514651554699
 20
455.272361375442
 10
2785.897109669452
 20
463.385412512825
 10
2799.665661554933
 20
457.4081365468664
 10
2819.092761962006
 20
440.3579685661275
 10
2836.654415998891
 20
424.5914008712757
 10
2852.156315043286
 20
416.77527253587
 10
2865.53395079215
 20
416.9274348046756
 10
2876.722797526595
 20
425.0657389224602
 10
2888.943846773067
 20
435.2362461603256
 10
2907.067666985389
 20
446.120977347341
 10
2925.191487197711
 20
457.0057085343574
 10
2937.412536444183
 20
467.1762157722219
 10
2952.455649790151
 20
474.2752465434668
 10
2976.611553643828
 20
476.7000725533216
 10
3001.906784893979
 20
474.4259632968423
 10
3020.367845597677
 20
467.4281186056896
 10
3034.440896179253
 20
459.9675696501862
 10
3048.04162894808
 20
460.0392706986781
 10
3062.340476006144
 20
467.9802184206619
 10
3078.507834623742
 20
484.1273224063924
 10
3100.930391318502
 20
515.0227242537889
 10
3113.272498128265
 20
544.4752927119802
 10
3115.909100856523
 20
573.9589484598386
 10
3109.215197554314
 20
604.9476644237811
 10
3100.551492117388
 20
620.2383614727759
 10
3094.569705446655
 20
623.3782996400573
 10
3086.574820841702
 20
624.2948957493918
 10
3071.184278732954
 20
628.201671144302
 10
3056.512575773222
 20
637.5964939034738
 10
3041.968356824897
 20
647.3154256042135
 10
3035.033783911537
 20
646.9025306667231
 10
3025.958820626887
 20
643.4270935929207
 10
3014.073113544299
 20
639.9527885492735
 10
3005.816729973326
 20
642.1975346850931
 10
3000.971362252359
 20
650.3346893568727
 10
2999.318754967336
 20
664.5376273369565
 10
2997.666792068708
 20
675.1497308307266
 10
2993.826074987359
 20
682.9694119992377
 10
2981.058986641211
 20
711.8458816031506
 10
2974.086116276883
 20
727.0803254613201
 10
2965.655400061897
 20
733.9087139460539
 10
2955.878003357565
 20
732.2999771835343
 10
2944.86510894105
 20
722.2229756365496
 10
2935.233744126834
 20
714.3535548045719
 10
2925.395008803898
 20
713.5631016863053
 10
2916.049316153494
 20
719.6569245107798
 10
2907.897096772717
 20
732.4403140911735
 10
2902.679169219508
 20
747.097718639242
 10
2901.335379761023
 20
759.6141406771699
 10
2903.862262643396
 20
769.9314286866383
 10
2910.256369528619
 20
777.9913963176323
 10
2920.036726927204
 20
782.187710194733
 10
2931.250164839805
 20
775.1774828352591
 10
2943.702374644119
 20
768.3170143574912
 10
2957.25127784765
 20
766.6497080962881
 10
2964.809076901474
 20
768.7302924436485
 10
2969.417780656456
 20
773.5439633202495
 10
2973.483527916956
 20
798.6718630975055
 10
2973.874252479238
 20
814.9140053687883
 10
2972.010530278058
 20
826.5660614271919
 10
2967.043356112313
 20
836.2839307611698
 10
2958.123707365055
 20
846.7235302750246
 10
2936.979386874827
 20
863.9703057700762
 10
2910.379238340159
 20
880.0973466982737
 10
2883.183920597048
 20
891.0773077451759
 10
2874.11672478085
 20
891.5080539274322
 10
2865.83576744757
 20
889.01218867133
 10
2855.903334859423
 20
881.6463819319537
 10
2851.772312998546
 20
872.9396767649514
 10
2845.867992022174
 20
863.6531283362323
 10
2831.669373172532
 20
854.8826637476782
 10
2812.336649248765
 20
841.9915571439855
 10
2788.464501815561
 20
820.6241222179469
 10
2768.180802897417
 20
798.7406034517435
 10
2759.61338968714
 20
784.3012104958579
 10
2757.069805006003
 20
779.7285923790773
 10
2750.950450547551
 20
775.884043811046
 10
2746.176418142257
 20
776.1708828367109
 10
2740.120248382355
 20
779.9298150932563
 10
2725.539160082643
 20
796.7303791325361
 10
2711.116381846279
 20
813.0110278449691
 10
2697.002926496059
 20
820.3522608220373
 10
2683.883620028778
 20
818.6135147500717
 10
2672.443340688777
 20
807.6542959787957
 10
2663.189046411578
 20
798.4122798748262
 10
2652.635303426308
 20
800.5703473323983
 10
2644.830094827943
 20
803.3385093806233
 10
2635.933226010593
 20
803.5753997526384
 10
2615.191141958542
 20
796.6267025861015
 10
2591.062215254273
 20
780.0669997323065
 10
2564.199609881915
 20
754.2389828432273
 10
2537.045741858359
 20
727.4821787508272
 10
2520.891061978508
 20
716.3923759471026
 10
2482.552945004526
 20
701.3766228992108
 10
2452.688073747696
 20
690.0026805263469
 10
2423.28862362759
 20
689.7523102875516
 10
2397.289809511754
 20
690.1754631598396
 10
2389.436620250627
 20
686.7395774780998
 10
2382.345478858777
 20
680.2537935660966
 10
2375.369821958681
 20
674.1659269618276
 10
2366.919617409164
 20
670.165471717552
 10
2342.102747271211
 20
667.3023932947139
 10
2319.78031428978
 20
665.1358965664426
 10
2306.185346166827
 20
659.9235420847712
 10
2301.591027902748
 20
656.7191826936928
 10
2295.806719538756
 20
655.7249293156619
 10
2277.013973999368
 20
660.4334781303974
 10
2258.414770784949
 20
664.969244311641
 10
2247.271222672591
 20
661.7175660600442
 10
2240.384647837842
 20
658.3276582184844
 10
2234.9956444043
 20
659.4443101801439
 10
2232.389850312133
 20
655.8616263109529
 10
2232.194009095157
 20
641.1784114753286
 10
2232.265919133831
 20
626.9199866017552
 10
2230.124274821443
 20
616.9705735612678
 10
2225.578442279737
 20
610.8722400320184
 10
2218.437752798755
 20
608.1670885238577
 10
2209.295599170387
 20
606.6310977607431
 10
2209.057228451245
 20
602.9244827132502
 10
2216.226706329885
 20
595.7463665737277
 10
2239.99066651188
 20
581.4655797506125
 10
2250.634728087745
 20
574.7721466763141
 10
2255.360466345003
 20
566.5926540767027
 10
2253.668481826399
 20
559.4476454652785
 10
2245.059392490536
 20
555.857681771392
 10
2207.76192471513
 20
556.9873956194669
 10
2194.13670526324
 20
560.2078646704567
 10
2186.93784684809
 20
564.729506598524
 10
2182.250789190469
 20
568.4680971439597
 10
2179.688012244227
 20
555.1756945579131
 10
2178.007644096609
 20
550.7428560416173
 10
2174.207627853328
 20
554.7517753882889
 10
2172.789141820399
 20
561.0108920313778
 10
2175.854191838904
 20
565.8784301275523
 10
2179.019086917162
 20
571.5761468925411
 10
2176.198259342913
 20
580.8081662994413
 10
2173.928068652359
 20
589.5317822553884
 10
2183.859734943171
 20
590.4356996269761
 10
2191.198651612381
 20
589.1930962485826
 10
2189.764055919542
 20
588.2177564820799
 10
2184.341265739806
 20
586.1019398730968
 10
2182.084136935668
 20
582.1291235804746
 10
2186.146035293637
 20
578.806022933963
 10
2195.907984140302
 20
578.2707294128435
 10
2203.116334192912
 20
579.5240957856431
 10
2201.025875059422
 20
580.5009681468186
 10
2196.088447163006
 20
582.265054278429
 10
2196.436346153697
 20
585.3976777893185
 10
2196.172931444336
 20
591.9148624762629
 10
2189.776334092771
 20
601.8142571997059
 10
2184.239121788044
 20
609.3014001559504
 10
2184.1638504906
 20
610.6451025351934
 10
2186.046973947068
 20
610.0286859915154
 10
2192.094906010607
 20
609.9457517207065
 10
2196.755839895398
 20
615.5029400037233
 10
2200.979026426816
 20
621.2567183852038
 10
2205.971732226539
 20
621.6468682244835
 10
2210.758251795245
 20
620.6768577076381
 10
2214.513909872263
 20
623.6706072421675
 10
2218.594425772336
 20
637.8507130447988
 10
2217.537092190847
 20
656.7896472169373
 10
2210.665686560187
 20
673.0899758382352
 10
2207.528447849432
 20
678.2439698114058
 10
2210.026716492633
 20
678.1034239135847
 10
2217.192850528352
 20
677.008263109039
 10
2225.386537044535
 20
679.7745616614689
 10
2233.643982982268
 20
688.1418319401773
 10
2236.611504248877
 20
707.6004202014342
 10
2238.959247713038
 20
713.2489894418077
 10
2243.52341914327
 20
713.3818549504167
 10
2247.862560394353
 20
712.6123356821112
 10
2249.667347364031
 20
716.0913255890186
 10
2245.60774789807
 20
720.8129362901686
 10
2235.843500159395
 20
723.0278142457205
 10
2225.732903440552
 20
724.1498651204315
 10
2234.307526812131
 20
728.7416755023177
 10
2241.181039760465
 20
732.6553649891029
 10
2240.451455032891
 20
734.6521268573788
 10
2239.24033950868
 20
737.4691229449463
 10
2244.954949646766
 20
743.3642309374326
 10
2253.048042221706
 20
752.8343249940498
 10
2257.556152035449
 20
764.253583404848
 10
2261.029777861002
 20
772.8665913066361
 10
2268.01926294485
 20
771.7983205722557
 10
2273.449733513795
 20
765.4624000370495
 10
2268.037688912617
 20
755.3203154640223
 10
2262.451329083276
 20
747.2556281380707
 10
2270.568995420525
 20
754.1345225836075
 10
2277.967822608757
 20
764.5922694116543
 10
2275.127785353555
 20
776.2342416937463
 10
2271.800086923025
 20
787.1235880806279
 10
2275.674590750567
 20
795.2988486290414
 10
2281.231779033584
 20
804.2520925481571
 10
2284.761466475629
 20
815.9424460575287
 10
2288.144460225312
 20
826.7580711574868
 10
2293.356814706984
 20
833.6062440461764
 10
2297.823457385321
 20
838.0544433408964
 10
2299.414726051742
 20
843.0924651785534
 10
2302.376099523812
 20
859.3001589013992
 10
2305.504020755592
 20
863.9410645603557
 10
2311.04471623003
 20
867.3282555295418
 10
2326.350477988022
 20
870.2755047484357
 10
2342.265655118575
 20
868.0100337528383
 10
2352.762465694926
 20
860.3999174899627
 10
2362.525163423078
 20
853.4864525850485
 10
2382.112001993078
 20
852.7199985060883
 10
2395.46440217739
 20
854.5143185507864
 10
2403.937543399449
 20
858.5820860497191
 10
2410.004197500182
 20
867.0561851434499
 10
2416.13708407296
 20
882.06955222009
 10
2423.789433768574
 20
899.920640244075
 10
2431.175111991151
 20
909.5874288942477
 10
2439.515788269118
 20
912.0093987049399
 10
2450.033132130912
 20
908.1259431312419
 10
2456.592550250596
 20
906.7462596088885
 10
2464.985926886285
 20
910.0966160583853
 10
2493.274106541933
 20
934.6738615360996
 10
2511.851992757725
 20
953.6349834992947
 10
2521.657516057469
 20
967.2428219343297
 10
2525.488828580599
 20
981.1409651488906
 10
2526.144117298247
 20
1000.972984034817
 10
2522.919224621726
 20
1034.525661222703
 10
2514.113545187396
 20
1063.37764414355
 10
2501.030515932652
 20
1084.549324931855
 10
2493.292358351217
 20
1091.323933276258
 10
2484.973660874123
 20
1095.061113137962
 10
2471.06975301369
 20
1100.009460771421
 10
2463.837003357257
 20
1106.673130160542
 10
2463.043868198314
 20
1115.497932196581
 10
2468.458768998653
 20
1126.929660354943
 10
2474.697160781964
 20
1140.14611242545
 10
2477.834416908569
 20
1155.432107195337
 10
2477.769124892345
 20
1171.742223523521
 10
2474.399959326412
 20
1188.031022853077
 10
2469.733260795748
 20
1197.100813630708
 10
2463.336280295516
 20
1201.206687006274
 10
2455.637552195204
 20
1200.253029971219
 10
2447.065610864303
 20
1194.144246932838
 10
2442.710621191039
 20
1190.944972969537
 10
2438.560110995631
 20
1190.746641286218
 10
2427.95800419893
 20
1200.288175153598
 10
2418.461020072147
 20
1210.010172043684
 10
2411.498425058466
 20
1213.976840541767
 10
2402.282619806569
 20
1210.287310441705
 10
2391.459227238155
 20
1201.404060817922
 10
2381.74518939086
 20
1190.010630110528
 10
2375.857483134007
 20
1178.790556759628
 10
2374.495354786995
 20
1171.69001080956
 10
2375.683150489994
 20
1166.526507783079
 10
2387.494091334744
 20
1158.976389118469
 10
2398.008648660771
 20
1153.596232935991
 10
2402.606624253045
 20
1147.983366185152
 10
2401.152035166066
 20
1142.612422986558
 10
2393.509002949426
 20
1137.958020044973
 10
2383.521275042122
 20
1138.802810610725
 10
2373.141864700866
 20
1147.315224571272
 10
2366.691225971242
 20
1153.604871196873
 10
2358.861077877751
 20
1157.543326020301
 10
2334.484271401032
 20
1159.854966430412
 10
2310.296392049412
 20
1162.134370104851
 10
2295.531775537653
 20
1171.344114641453
 10
2286.392478108447
 20
1179.060415332954
 10
2276.708308441418
 20
1182.686586575981
 10
2266.593288097042
 20
1182.203610263915
 10
2256.161473467491
 20
1177.592503121832
 10
2252.367535355355
 20
1173.553959416772
 10
2251.036093733493
 20
1168.176450443274
 10
2254.823640229211
 20
1155.098802685733
 10
2265.649819333392
 20
1141.748144086277
 10
2281.640354840632
 20
1131.51304146613
 10
2301.313210286634
 20
1123.243299939318
 10
2285.283698110332
 20
1108.970959802751
 10
2269.26033372857
 20
1094.692471871645
 10
2285.971815702503
 20
1084.530411320328
 10
2294.473571163734
 20
1078.500731066074
 10
2299.183565493901
 20
1072.25791565723
 10
2300.828126656893
 20
1064.162715764614
 10
2300.133565200758
 20
1052.575847227344
 10
2296.186263126267
 20
1036.427088736
 10
2289.06499231642
 20
1023.7653314419
 10
2279.609388245798
 20
1014.810520096414
 10
2268.658999309739
 20
1009.782616866766
 10
2257.053408735274
 20
1008.901566504328
 10
2245.632234581134
 20
1012.387348592172
 10
2235.235007826809
 20
1020.459907881669
 10
2226.701346531029
 20
1033.339206540043
 10
2212.425923789268
 20
1051.889262229847
 10
2187.699685727183
 20
1066.301381966898
 10
2166.247679440572
 20
1073.763376437831
 10
2151.073424755002
 20
1074.936664738985
 10
2142.033502157639
 20
1069.797091088417
 10
2138.984474719802
 20
1058.320412624939
 10
2137.521369282883
 20
1045.948751120183
 10
2132.887395131649
 20
1037.023250647811
 10
2124.397743685161
 20
1030.753092356741
 10
2111.367519283229
 20
1026.347422564187
 10
2077.137400418335
 20
1013.74698647284
 10
2051.335193816812
 20
996.4694894209419
 10
2040.313765634505
 20
990.6903535639685
 10
2024.891735671574
 20
992.0950114131464
 10
2013.804249175706
 20
996.7544127032661
 10
2012.855485994095
 20
999.0959212936445
 10
2015.006151716032
 20
1001.409216209367
 10
2018.931544653046
 20
1006.026471145989
 10
2018.978201711318
 20
1011.326270603244
 10
2015.688696236665
 20
1015.69183169658
 10
2009.605636406596
 20
1017.506301878054
 10
2006.391593803723
 20
1012.203315320514
 10
2006.914591735763
 20
999.449288860781
 10
2007.409288913906
 20
986.9605231903546
 10
2004.688201904319
 20
978.7312038480335
 10
1999.894681164494
 20
976.3712692898858
 10
1994.172094567771
 20
981.4905883085881
 10
1992.854219891932
 20
985.6454176344358
 10
1997.858454983398
 20
983.6532535501778
 10
2003.252822498294
 20
982.1587473383164
 10
2001.882717692645
 20
989.3548192176972
 10
1997.766290312856
 20
1011.208783288906
 10
1994.591311458286
 20
1019.837726692121
 10
1987.346962846716
 20
1026.092437125525
 10
1979.454030619193
 20
1028.103236167735
 10
1974.333353164305
 20
1024.000427981514
 10
1970.222481440204
 20
1019.564715850207
 10
1963.610659032223
 20
1017.641466278673
 10
1957.466539237129
 20
1018.483000080744
 10
1954.758792767534
 20
1022.34156840686
 10
1950.724533361217
 20
1026.061715568678
 10
1941.02711023344
 20
1028.215167826383
 10
1930.721438594956
 20
1030.760285102193
 10
1925.231074922837
 20
1035.4342808734
 10
1917.607234971302
 20
1035.812901420937
 10
1902.172909419292
 20
1028.030855901149
 10
1882.384081837777
 20
1011.516747738866
 10
1881.728322892219
 20
1006.86741280921
 10
1887.611797097872
 20
1005.218445436534
 10
1889.428095943443
 20
1002.383023381198
 10
1884.539832987491
 20
995.5663383466909
 10
1879.151317197709
 20
991.9849954978381
 10
1875.254050856108
 20
992.2501517920546
 10
1873.970642144556
 20
995.5818906994487
 10
1876.423699244915
 20
1001.200313105977
 10
1869.41348930129
 20
1013.629481742654
 10
1864.065204121663
 20
1021.485265965215
 10
1870.77129851786
 20
1020.129755640654
 10
1875.74864353916
 20
1018.715223005347
 10
1877.325335140342
 20
1020.30562087934
 10
1870.101606893459
 20
1036.816663852278
 10
1863.129015182709
 20
1048.306578360655
 10
1861.391732042021
 20
1049.48190431609
 10
1861.21133868271
 20
1047.156905950139
 10
1859.650791573136
 20
1039.984624119882
 10
1849.759059823056
 20
1040.447728948749
 10
1839.878091067382
 20
1040.963812788914
 10
1840.309690626216
 20
1032.227152362402
 10
1841.370681535902
 20
1026.256703409075
 10
1839.41575253585
 20
1022.48826209922
 10
1823.278732326432
 20
1019.103718339014
 10
1806.975234020697
 20
1020.223748975294
 10
1796.114885021655
 20
1026.441886126737
 10
1790.514505434228
 20
1037.953396287319
 10
1789.990932779184
 20
1054.953545951015
 10
1794.242524559592
 20
1070.480785055053
 10
1798.221297072419
 20
1074.552296961425
 10
1803.618155053659
 20
1076.451146929137
 10
1812.468767377253
 20
1079.577152417576
 10
1819.307448628482
 20
1085.257697155892
 10
1822.90328146333
 20
1092.024572863538
 10
1822.025365953632
 20
1098.409553844117
 10
1823.399302245962
 20
1108.551638417144
 10
1830.768174174685
 20
1126.352133401084
 10
1837.413887823948
 20
1146.614323746264
 10
1839.720651796464
 20
1168.873484949903
 10
1837.660217585879
 20
1188.076443386103
 10
1831.204388933387
 20
1199.169973181418
 10
1827.341396981738
 20
1205.962084453616
 10
1825.736300131566
 20
1217.546462524544
 10
1828.759883014666
 20
1229.42267796967
 10
1840.26669089614
 20
1232.543789604667
 10
1855.118107997087
 20
1236.153346128175
 10
1870.421083219312
 20
1244.831646046187
 10
1886.170287313157
 20
1253.5099459642
 10
1902.09918813237
 20
1257.119502487708
 10
1916.155728489518
 20
1260.966367363596
 10
1925.415386848072
 20
1274.015313802723
 10
1935.502193517791
 20
1293.54838964824
 10
1940.998321835783
 20
1296.121354865886
 10
1950.150837894039
 20
1297.018166571264
 10
1963.958261953489
 20
1303.487353179597
 10
1977.399935777481
 20
1318.285373288881
 10
1987.584933001343
 20
1337.276642085921
 10
1991.622362092095
 20
1356.325505094124
 10
1990.198982205724
 20
1365.604181559298
 10
1985.838628451105
 20
1375.554465392213
 10
1967.765488358071
 20
1398.423703770657
 10
1951.580069505525
 20
1413.219912631692
 10
1938.339148167801
 20
1421.243028327148
 10
1928.111813016107
 20
1422.465951796677
 10
1920.967187553351
 20
1416.861636227477
 10
1909.87566058062
 20
1412.075029579528
 10
1889.456518608283
 20
1410.948868564558
 10
1866.606664069276
 20
1413.289036134598
 10
1848.223069059942
 20
1418.901415241678
 10
1833.632018894858
 20
1428.943672170801
 10
1820.704426088448
 20
1441.584809100215
 10
1805.51508927803
 20
1453.762074903426
 10
1785.468994781693
 20
1462.676916876483
 10
1772.722735790414
 20
1467.134816798846
 10
1764.184128393643
 20
1473.272875878644
 10
1757.80317047408
 20
1483.315028312675
 10
1751.529929577815
 20
1499.485190881889
 10
1738.661864141757
 20
1529.902997914422
 10
1723.717916637449
 20
1550.376877898763
 10
1704.90557826844
 20
1562.646308372514
 10
1680.43239248583
 20
1568.450784289132
 10
1662.854524293941
 20
1569.809742951707
 10
1650.114413097201
 20
1568.50761220296
 10
1638.709453098065
 20
1563.650453952523
 10
1625.137038498986
 20
1554.344312694182
 10
1594.911223780898
 20
1527.994551814158
 10
1588.399333511915
 20
1517.769898703142
 10
1586.319707036225
 20
1507.957652885857
 10
1581.667986135317
 20
1495.331127853378
 10
1570.763278970011
 20
1479.419120407262
 10
1559.915399718534
 20
1463.719847551218
 10
1555.403458418111
 20
1451.605557456375
 10
1552.491232470656
 20
1443.226775301773
 10
1545.487152905722
 20
1436.497622322093
 10
1538.951559666857
 20
1429.554219573516
 10
1542.212450902339
 20
1418.551217358978
 10
1545.659952955063
 20
1405.314127507936
 10
1541.370725525933
 20
1390.049536815922
 10
1536.554755757324
 20
1381.751773188788
 10
1530.472166155167
 20
1376.852381505611
 10
1507.46852967344
 20
1373.90328620677
 10
1481.920542213243
 20
1377.512842730279
 10
1457.837872002731
 20
1387.204901776702
 10
1440.702070294658
 20
1394.902184361583
 10
1426.872475860001
 20
1396.51985545441
 10
1416.687774705565
 20
1392.097675437429
 10
1410.48661800646
 20
1381.675352445339
 10
1392.38815526963
 20
1341.878066016208
 10
1372.621585142566
 20
1311.222933215446
 10
1364.638334324446
 20
1308.039612169419
 10
1355.977694076866
 20
1312.205970787009
 10
1344.498525147046
 20
1316.500562297493
 10
1328.913691831843
 20
1315.671132510165
 10
1314.613695327775
 20
1314.672751576027
 10
1306.562069888238
 20
1318.577210663081
 10
1299.220088029681
 20
1325.085948663476
 10
1287.546627893406
 20
1331.073970207992
 10
1277.710957759817
 20
1337.543226479718
 10
1273.400221757725
 20
1346.890747794221
 10
1274.725010525439
 20
1358.347537358651
 10
1281.795897285422
 20
1371.144668043552
 10
1287.364405869998
 20
1385.207164620907
 10
1286.899977436641
 20
1404.254303460103
 10
1280.484361978456
 20
1427.775747951001
 10
1268.199396567795
 20
1455.261196315154
 10
1254.472033164143
 20
1475.903156653877
 10
1241.212947096379
 20
1484.660646435258
 10
1234.944234320737
 20
1484.542950130739
 10
1229.014851938299
 20
1481.406390638076
 10
1218.470426432006
 20
1466.01306199356
 10
1213.41263760624
 20
1456.463952232059
 10
1207.609502709961
 20
1450.869041221077
 10
1199.371074878847
 20
1448.238203138691
 10
1187.007372416877
 20
1447.581277331279
 10
1169.891355112761
 20
1445.703535372013
 10
1158.577880566072
 20
1440.144048196988
 10
1153.192534460727
 20
1431.013406444512
 10
1153.860885064788
 20
1418.4222007529
 10
1152.688937783973
 20
1404.685903018939
 10
1141.757340548502
 20
1389.72391269553
 10
1132.990724862479
 20
1381.780579002294
 10
1125.744739161145
 20
1377.961353078059
 10
1118.049459398847
 20
1377.73172511489
 10
1107.935013777474
 20
1380.557167889005
 10
1091.865584476289
 20
1388.549649106857
 10
1078.892675631944
 20
1398.823066593821
 10
1069.198039039935
 20
1407.175829470685
 10
1059.331177121587
 20
1410.096397609596
 10
1048.050827518847
 20
1407.610703209048
 10
1034.115727873657
 20
1399.744643635842
 10
1004.038418096178
 20
1381.455721179239
 10
993.2348621792684
 20
1377.185877589548
 10
984.6025749331325
 20
1376.225689611287
 10
977.6524844987111
 20
1378.620107549569
 10
971.8954841852477
 20
1384.414012046115
 10
962.0044316532617
 20
1406.380099350308
 10
952.9459785930381
 20
1422.436484180926
 10
946.2305667178657
 20
1426.131761511011
 10
936.9064871355162
 20
1427.926847853045
 10
921.3523753771593
 20
1426.653522917805
 10
910.5490458662803
 20
1420.246946285019
 10
897.4378900161232
 20
1412.585366189671
 10
878.7511373310277
 20
1411.130115300447
 10
858.4193532550312
 20
1415.578802238926
 10
840.3730858163148
 20
1425.629018210838
 10
830.9076069595635
 20
1434.217173696741
 10
826.1099586636314
 20
1442.08476586462
 10
825.0355401347119
 20
1452.107726033546
 10
826.7397157473009
 20
1467.16196810674
 10
829.438719460923
 20
1482.594761064077
 10
833.0564440174025
 20
1490.364528410635
 10
839.8732335469999
 20
1492.673869928737
 10
852.1694321799781
 20
1491.725402816551
 10
868.2511744860899
 20
1488.364666521317
 10
876.9048832259464
 20
1483.787450620519
 10
880.2259636340254
 20
1481.756292451351
 10
885.5566936383096
 20
1482.173036291371
 10
899.6113182521181
 20
1488.686459155027
 10
913.7972583640143
 20
1500.000212355292
 10
922.8430326864913
 20
1512.786789035972
 10
926.994796822994
 20
1532.299140021711
 10
928.7227799005536
 20
1557.502293680564
 10
925.5724793033827
 20
1583.896604301187
 10
920.7187693909604
 20
1593.003647578872
 10
912.8653014762562
 20
1601.646419165837
 10
897.9578227588186
 20
1612.981977008491
 10
893.5508119459258
 20
1611.129575108869
 10
888.2895885932162
 20
1604.613940432446
 10
882.1333647833766
 20
1593.616302299262
 10
879.5713541344708
 20
1583.927325858034
 10
878.628460093822
 20
1580.116651115438
 10
875.6638124422247
 20
1577.965410670498
 10
862.8537243659998
 20
1578.367072385672
 10
844.226098486742
 20
1577.892455680911
 10
822.9120431365176
 20
1572.266161310837
 10
799.7317751187706
 20
1566.404857480392
 10
776.648269555581
 20
1566.939367288325
 10
720.5480595437188
 20
1572.505768555227
 10
691.3060312786824
 20
1576.895607341445
 10
682.3614256204487
 20
1582.075324522929
 10
674.4685978880165
 20
1590.298583149954
 10
659.9904372532523
 20
1602.479697855694
 10
643.2267251495099
 20
1608.43546524869
 10
633.5130704508824
 20
1608.865253559276
 10
627.5358989800147
 20
1606.924831961068
 10
624.0159121656128
 20
1601.640184292055
 10
621.6738288522333
 20
1592.037311806071
 10
616.0774723258205
 20
1577.799524713033
 10
606.1174007860195
 20
1571.43673152351
 10
594.5353216071007
 20
1567.249630630294
 10
583.8702391020324
 20
1560.334650546555
 10
571.7490349153145
 20
1553.708425231822
 10
556.6464812782355
 20
1550.215589725315
 10
546.7462157623636
 20
1550.8385372122
 10
538.4673657467583
 20
1556.203628685679
 10
516.3484543715148
 20
1591.963590519148
 10
499.9426379555325
 20
1627.888672012745
 10
492.8909434606548
 20
1653.869809042299
 10
489.0916935147092
 20
1670.216986296205
 10
479.2375974133515
 20
1684.369035166818
 10
464.5935508211218
 20
1695.043243576527
 10
446.4244145708658
 20
1700.956882031874
 10
418.7767375774442
 20
1707.039367138939
 10
404.5627579493775
 20
1708.017023213299
 10
383.3262727886076
 20
1705.939608550376
  0
ENDBLK
  5
FDB
330
FD9
100
AcDbEntity
  8
0
100
AcDbBlockEnd
  0
ENDSEC
  0
SECTION
  2
ENTITIES
  0
INSERT
  5
FF7
330
6F
100
AcDbEntity
  8
0
  6
Continuous
100
AcDbBlockReference
  2
Vue de dessus Cerisier
 10
2731.184086507608
 20
441.5889761779981
 30
0.0
  0
ENDSEC
  0
SECTION
  2
OBJECTS
  0
DICTIONARY
  5
C
330
0
100
AcDbDictionary
281
     1
  3
ACAD_CIP_PREVIOUS_PRODUCT_INFO
350
FA5
  3
ACAD_COLOR
350
62
  3
ACAD_DETAILVIEWSTYLE
350
69
  3
ACAD_GROUP
350
D
  3
ACAD_LAYOUT
350
61
  3
ACAD_MATERIAL
350
10
  3
ACAD_MLEADERSTYLE
350
65
  3
ACAD_MLINESTYLE
350
5E
  3
ACAD_PLOTSETTINGS
350
60
  3
ACAD_PLOTSTYLENAME
350
E
  3
ACAD_RENDER_ACTIVE_RAPIDRT_SETTINGS
350
FB0
  3
ACAD_RENDER_ACTIVE_SETTINGS
350
1070
  3
ACAD_RENDER_RAPIDRT_SETTINGS
350
FA9
  3
ACAD_SCALELIST
350
42
  3
ACAD_SECTIONVIEWSTYLE
350
67
  3
ACAD_TABLESTYLE
350
63
  3
ACAD_VISUALSTYLE
350
29
  3
ACDB_RECOMPOSE_DATA
350
1063
  3
AcDbVariableDictionary
350
1022
  3
AcDsDecomposeData
350
1069
  0
DICTIONARY
  5
105B
330
2
100
AcDbDictionary
280
     1
281
     1
  3
ACAD_LAYERSTATES
360
105C
  0
DICTIONARY
  5
1020
330
54
100
AcDbDictionary
280
     1
281
     1
  3
ADSK_XREC_LAYER_RECONCILED
360
1021
  0
DICTIONARY
  5
1054
330
FD9
100
AcDbDictionary
280
     1
281
     1
  0
XRECORD
  5
FA5
102
{ACAD_REACTORS
330
C
102
}
330
C
100
AcDbXrecord
280
     1
300
AOEM
300
2019
300

  0
DICTIONARY
  5
62
102
{ACAD_REACTORS
330
C
102
}
330
C
100
AcDbDictionary
281
     1
  0
DICTIONARY
  5
69
102
{ACAD_REACTORS
330
C
102
}
330
C
100
AcDbDictionary
281
     1
  3
Imperial24
350
6A
  0
DICTIONARY
  5
D
102
{ACAD_REACTORS
330
C
102
}
330
C
100
AcDbDictionary
281
     1
  0
DICTIONARY
  5
61
102
{ACAD_REACTORS
330
C
102
}
330
C
100
AcDbDictionary
281
     1
  3
Model
350
72
  3
Présentation1
350
6E
  0
DICTIONARY
  5
10
102
{ACAD_REACTORS
330
C
102
}
330
C
100
AcDbDictionary
281
     1
  3
ByBlock
350
19
  3
ByLayer
350
11
  3
Global
350
21
  0
DICTIONARY
  5
65
102
{ACAD_REACTORS
330
C
102
}
330
C
100
AcDbDictionary
281
     1
  3
Standard
350
66
  0
DICTIONARY
  5
5E
102
{ACAD_REACTORS
330
C
102
}
330
C
100
AcDbDictionary
281
     1
  3
Standard
350
5F
  0
DICTIONARY
  5
60
102
{ACAD_REACTORS
330
C
102
}
330
C
100
AcDbDictionary
281
     1
  0
ACDBDICTIONARYWDFLT
  5
E
102
{ACAD_REACTORS
330
C
102
}
330
C
100
AcDbDictionary
281
     1
  3
Normal
350
F
100
AcDbDictionaryWithDefault
340
F
  0
RAPIDRTRENDERSETTINGS
  5
FB0
102
{ACAD_REACTORS
330
C
102
}
330
C
100
AcDbRenderSettings
 90
        2
  1
Moyenne
290
     1
290
     0
290
     1
290
     1
  1

  1
Applique 5 niveaux de rendu
 90
        0
100
AcDbRapidRTRenderSettings
 90
        3
 70
     0
 90
        5
 90
        1
 70
     1
 70
     2
 40
3.0
 40
3.0
290
     1
  0
MENTALRAYRENDERSETTINGS
  5
1070
102
{ACAD_XDICTIONARY
360
1071
102
}
102
{ACAD_REACTORS
330
C
102
}
330
C
100
AcDbRenderSettings
 90
        2
  1
Moyen
290
     1
290
     1
290
     1
290
     1
  1

  1

 90
        0
100
AcDbMentalRayRenderSettings
 90
        2
 90
        0
 90
        1
 70
     2
 40
3.0
 40
3.0
 40
0.0500000007450581
 40
0.0500000007450581
 40
0.0500000007450581
 40
0.0500000007450581
 70
     0
290
     0
290
     1
 90
        5
 90
        5
 90
        5
290
     0
 90
      500
290
     0
 40
1.0
 90
    10000
 90
        5
 90
        5
 90
        5
290
     0
 90
      200
290
     0
290
     0
290
     0
 40
1.0
 40
1.0
 40
1500.0
 70
     0
 70
     0
 40
10.0
 70
     0
 70
     0
290
     0
  1

 90
       32
 70
     0
 90
     1048
290
     0
 40
1.0
  0
DICTIONARY
  5
FA9
102
{ACAD_REACTORS
330
C
102
}
330
C
100
AcDbDictionary
281
     1
  3
Bas
350
FAA
  3
Elevé
350
FAC
  3
Moyenne
350
FAB
  3
Temps d'un déjeuner
350
FAE
  3
Temps d'une nuit
350
FAF
  3
Temps d'une pause café
350
FAD
  0
DICTIONARY
  5
42
102
{ACAD_REACTORS
330
C
102
}
330
C
100
AcDbDictionary
281
     1
  3
A0
350
43
  3
A1
350
44
  3
A2
350
45
  3
A3
350
46
  3
A4
350
47
  3
A5
350
48
  3
A6
350
49
  3
A7
350
4A
  3
A8
350
4B
  3
A9
350
4C
  3
B0
350
4D
  3
B1
350
4E
  3
B2
350
4F
  3
B3
350
50
  3
B4
350
51
  3
B5
350
52
  3
B6
350
53
  0
DICTIONARY
  5
67
102
{ACAD_REACTORS
330
C
102
}
330
C
100
AcDbDictionary
281
     1
  3
Imperial24
350
68
  0
DICTIONARY
  5
63
102
{ACAD_REACTORS
330
C
102
}
330
C
100
AcDbDictionary
281
     1
  3
Standard
350
64
  0
DICTIONARY
  5
29
102
{ACAD_REACTORS
330
C
102
}
330
C
100
AcDbDictionary
281
     1
  3
2dWireframe
350
2F
  3
Basic
350
2E
  3
Brighten
350
35
  3
ColorChange
350
39
  3
Conceptual
350
32
  3
Dim
350
34
  3
EdgeColorOff
350
41
  3
Facepattern
350
38
  3
Flat
350
2A
  3
FlatWithEdges
350
2B
  3
Gouraud
350
2C
  3
GouraudWithEdges
350
2D
  3
Hidden
350
31
  3
JitterOff
350
3F
  3
Linepattern
350
37
  3
OverhangOff
350
40
  3
Realistic
350
33
  3
Shaded
350
3E
  3
Shaded with edges
350
3D
  3
Shades of Gray
350
3A
  3
Sketchy
350
3B
  3
Thicken
350
36
  3
Wireframe
350
30
  3
X-Ray
350
3C
  0
XRECORD
  5
1063
102
{ACAD_REACTORS
330
C
102
}
330
C
100
AcDbXrecord
280
     1
 90
        1
330
64
  0
DICTIONARY
  5
1022
102
{ACAD_REACTORS
330
C
102
}
330
C
100
AcDbDictionary
281
     1
  3
CANNOSCALE
350
1028
  3
CMLEADERSTYLE
350
1024
  3
CTABLESTYLE
350
1023
  3
CVIEWDETAILSTYLE
350
1025
  3
CVIEWSECTIONSTYLE
350
1026
  3
LAYEREVAL
350
102A
  3
LAYERNOTIFY
350
102B
  3
LIGHTINGUNITS
350
1029
  3
MSLTSCALE
350
1027
  0
DICTIONARY
  5
1069
102
{ACAD_REACTORS
330
C
102
}
330
C
100
AcDbDictionary
281
     1
  3
AcDsRecords
350
106B
  3
AcDsSchemas
350
106A
1001
ACAD
1070
     2
  0
DICTIONARY
  5
105C
102
{ACAD_REACTORS
330
105B
102
}
330
105B
100
AcDbDictionary
281
     1
  0
XRECORD
  5
1021
102
{ACAD_REACTORS
330
1020
102
}
330
1020
100
AcDbXrecord
280
     1
290
     1
  0
ACDBDETAILVIEWSTYLE
  5
6A
102
{ACAD_XDICTIONARY
360
106E
102
}
102
{ACAD_REACTORS
330
69
102
}
330
69
100
AcDbModelDocViewStyle
 70
     0
  3
Imperial24
290
     0
100
AcDbDetailViewStyle
 70
     0
 71
     0
 90
        3
 71
     1
340
55
 62
   256
 40
0.24
340
0
 62
   256
 40
0.24
300

 40
0.36
280
     3
 71
     2
340
5C
 90
       25
 62
   256
 71
     3
340
55
 62
   256
 40
0.24
 90
        1
 40
0.75
 90
        1
300
%<\AcVar ViewType \f "%tc1">% %<\AcVar ViewDetailId>%\PECHELLE %<\AcVar ViewScale \f "%sn">%
 71
     4
340
5C
 90
       25
 62
   256
340
5C
 90
       25
 62
   256
280
     0
  0
LAYOUT
  5
72
102
{ACAD_REACTORS
330
61
102
}
330
61
100
AcDbPlotSettings
  1

  2
AutoCAD PDF (General Documentation).pc3
  4

  6

 40
0.0
 41
0.0
 42
0.0
 43
0.0
 44
0.0
 45
0.0
 46
0.0
 47
0.0
 48
0.0
 49
0.0
140
0.0
141
0.0
142
1.0
143
1.0
 70
  1712
 72
     0
 73
     0
 74
     0
  7

 75
     0
147
1.0
 76
     0
 77
     2
 78
   300
148
0.0
149
0.0
100
AcDbLayout
  1
Model
 70
     1
 71
     0
 10
0.0
 20
0.0
 11
12.0
 21
9.0
 12
0.0
 22
0.0
 32
0.0
 14
0.0
 24
0.0
 34
0.0
 15
0.0
 25
0.0
 35
0.0
146
0.0
 13
0.0
 23
0.0
 33
0.0
 16
1.0
 26
0.0
 36
0.0
 17
0.0
 27
1.0
 37
0.0
 76
     0
330
6F
331
FA4
  0
LAYOUT
  5
6E
102
{ACAD_REACTORS
330
61
102
}
330
61
100
AcDbPlotSettings
  1

  2
AutoCAD PDF (General Documentation).pc3
  4

  6

 40
0.0
 41
0.0
 42
0.0
 43
0.0
 44
0.0
 45
0.0
 46
0.0
 47
0.0
 48
0.0
 49
0.0
140
0.0
141
0.0
142
1.0
143
1.0
 70
   688
 72
     0
 73
     0
 74
     5
  7

 75
    16
147
1.0
 76
     0
 77
     2
 78
   300
148
0.0
149
0.0
100
AcDbLayout
  1
Présentation1
 70
     1
 71
     1
 10
0.0
 20
0.0
 11
12.0
 21
9.0
 12
0.0
 22
0.0
 32
0.0
 14
1.000000000000000E+20
 24
1.000000000000000E+20
 34
1.000000000000000E+20
 15
-1.000000000000000E+20
 25
-1.000000000000000E+20
 35
-1.000000000000000E+20
146
0.0
 13
0.0
 23
0.0
 33
0.0
 16
1.0
 26
0.0
 36
0.0
 17
0.0
 27
1.0
 37
0.0
 76
     0
330
6B
  0
MATERIAL
  5
19
102
{ACAD_XDICTIONARY
360
1A
102
}
102
{ACAD_REACTORS
330
10
102
}
330
10
100
AcDbMaterial
  1
ByBlock
 72
     0
 43
0.0208333333333333
 43
0.0
 43
0.0
 43
0.0
 43
0.0
 43
0.0208333333333333
 43
0.0
 43
0.0
 43
0.0
 43
0.0
 43
1.0
 43
0.0
 43
0.0
 43
0.0
 43
0.0
 43
1.0
 77
     0
 47
0.0208333333333333
 47
0.0
 47
0.0
 47
0.0
 47
0.0
 47
0.0208333333333333
 47
0.0
 47
0.0
 47
0.0
 47
0.0
 47
1.0
 47
0.0
 47
0.0
 47
0.0
 47
0.0
 47
1.0
171
     0
 49
0.0208333333333333
 49
0.0
 49
0.0
 49
0.0
 49
0.0
 49
0.0208333333333333
 49
0.0
 49
0.0
 49
0.0
 49
0.0
 49
1.0
 49
0.0
 49
0.0
 49
0.0
 49
0.0
 49
1.0
175
     0
142
0.0208333333333333
142
0.0
142
0.0
142
0.0
142
0.0
142
0.0208333333333333
142
0.0
142
0.0
142
0.0
142
0.0
142
1.0
142
0.0
142
0.0
142
0.0
142
0.0
142
1.0
179
     0
144
0.0208333333333333
144
0.0
144
0.0
144
0.0
144
0.0
144
0.0208333333333333
144
0.0
144
0.0
144
0.0
144
0.0
144
1.0
144
0.0
144
0.0
144
0.0
144
0.0
144
1.0
147
0.0208333333333333
147
0.0
147
0.0
147
0.0
147
0.0
147
0.0208333333333333
147
0.0
147
0.0
147
0.0
147
0.0
147
1.0
147
0.0
147
0.0
147
0.0
147
0.0
147
1.0
  0
MATERIAL
  5
11
102
{ACAD_XDICTIONARY
360
12
102
}
102
{ACAD_REACTORS
330
10
102
}
330
10
100
AcDbMaterial
  1
ByLayer
 72
     0
 43
0.0208333333333333
 43
0.0
 43
0.0
 43
0.0
 43
0.0
 43
0.0208333333333333
 43
0.0
 43
0.0
 43
0.0
 43
0.0
 43
1.0
 43
0.0
 43
0.0
 43
0.0
 43
0.0
 43
1.0
 77
     0
 47
0.0208333333333333
 47
0.0
 47
0.0
 47
0.0
 47
0.0
 47
0.0208333333333333
 47
0.0
 47
0.0
 47
0.0
 47
0.0
 47
1.0
 47
0.0
 47
0.0
 47
0.0
 47
0.0
 47
1.0
171
     0
 49
0.0208333333333333
 49
0.0
 49
0.0
 49
0.0
 49
0.0
 49
0.0208333333333333
 49
0.0
 49
0.0
 49
0.0
 49
0.0
 49
1.0
 49
0.0
 49
0.0
 49
0.0
 49
0.0
 49
1.0
175
     0
142
0.0208333333333333
142
0.0
142
0.0
142
0.0
142
0.0
142
0.0208333333333333
142
0.0
142
0.0
142
0.0
142
0.0
142
1.0
142
0.0
142
0.0
142
0.0
142
0.0
142
1.0
179
     0
144
0.0208333333333333
144
0.0
144
0.0
144
0.0
144
0.0
144
0.0208333333333333
144
0.0
144
0.0
144
0.0
144
0.0
144
1.0
144
0.0
144
0.0
144
0.0
144
0.0
144
1.0
147
0.0208333333333333
147
0.0
147
0.0
147
0.0
147
0.0
147
0.0208333333333333
147
0.0
147
0.0
147
0.0
147
0.0
147
1.0
147
0.0
147
0.0
147
0.0
147
0.0
147
1.0
  0
MATERIAL
  5
21
102
{ACAD_XDICTIONARY
360
22
102
}
102
{ACAD_REACTORS
330
10
102
}
330
10
100
AcDbMaterial
  1
Global
 72
     0
 43
0.0208333333333333
 43
0.0
 43
0.0
 43
0.0
 43
0.0
 43
0.0208333333333333
 43
0.0
 43
0.0
 43
0.0
 43
0.0
 43
1.0
 43
0.0
 43
0.0
 43
0.0
 43
0.0
 43
1.0
 77
     0
 47
0.0208333333333333
 47
0.0
 47
0.0
 47
0.0
 47
0.0
 47
0.0208333333333333
 47
0.0
 47
0.0
 47
0.0
 47
0.0
 47
1.0
 47
0.0
 47
0.0
 47
0.0
 47
0.0
 47
1.0
171
     0
 49
0.0208333333333333
 49
0.0
 49
0.0
 49
0.0
 49
0.0
 49
0.0208333333333333
 49
0.0
 49
0.0
 49
0.0
 49
0.0
 49
1.0
 49
0.0
 49
0.0
 49
0.0
 49
0.0
 49
1.0
175
     0
142
0.0208333333333333
142
0.0
142
0.0
142
0.0
142
0.0
142
0.0208333333333333
142
0.0
142
0.0
142
0.0
142
0.0
142
1.0
142
0.0
142
0.0
142
0.0
142
0.0
142
1.0
179
     0
144
0.0208333333333333
144
0.0
144
0.0
144
0.0
144
0.0
144
0.0208333333333333
144
0.0
144
0.0
144
0.0
144
0.0
144
1.0
144
0.0
144
0.0
144
0.0
144
0.0
144
1.0
147
0.0208333333333333
147
0.0
147
0.0
147
0.0
147
0.0
147
0.0208333333333333
147
0.0
147
0.0
147
0.0
147
0.0
147
1.0
147
0.0
147
0.0
147
0.0
147
0.0
147
1.0
  0
MLEADERSTYLE
  5
66
102
{ACAD_REACTORS
330
65
102
}
330
65
100
AcDbMLeaderStyle
179
     2
170
     2
171
     1
172
     0
 90
        2
 40
0.0
 41
0.0
173
     1
 91
-1056964608
340
5A
 92
       -2
290
     1
 42
0.09
291
     1
 43
0.36
  3
Standard
 44
0.18
300

342
55
174
     1
178
     6
175
     1
176
     0
 93
-1056964608
 45
0.18
292
     0
297
     0
 46
0.18
 94
-1056964608
 47
1.0
 49
1.0
140
1.0
293
     1
141
0.0
294
     1
177
     0
142
1.0
295
     0
296
     0
143
0.125
271
     0
272
     9
273
     9
298
     0
  0
MLINESTYLE
  5
5F
102
{ACAD_REACTORS
330
5E
102
}
330
5E
100
AcDbMlineStyle
  2
STANDARD
 70
     0
  3

 62
   256
 51
90.0
 52
90.0
 71
     2
 49
0.5
 62
   256
  6
BYLAYER
 49
-0.5
 62
   256
  6
BYLAYER
  0
ACDBPLACEHOLDER
  5
F
102
{ACAD_REACTORS
330
E
102
}
330
E
  0
DICTIONARY
  5
1071
330
1070
100
AcDbDictionary
280
     1
281
     1
  3
ACAD_XREC_ROUNDTRIP
360
1073
  3
ADSK_XREC_MENTALRAYSETTINGSINFO
360
1072
  0
RAPIDRTRENDERSETTINGS
  5
FAA
102
{ACAD_REACTORS
330
FA9
102
}
330
FA9
100
AcDbRenderSettings
 90
        2
  1
Bas
290
     1
290
     0
290
     1
290
     1
  1

  1
Applique 1 niveau de rendu
 90
        0
100
AcDbRapidRTRenderSettings
 90
        3
 70
     0
 90
        1
 90
        1
 70
     0
 70
     2
 40
3.0
 40
3.0
290
     1
  0
RAPIDRTRENDERSETTINGS
  5
FAC
102
{ACAD_REACTORS
330
FA9
102
}
330
FA9
100
AcDbRenderSettings
 90
        2
  1
Elevé
290
     1
290
     0
290
     1
290
     1
  1

  1
Applique 10 niveaux de rendu
 90
        2
100
AcDbRapidRTRenderSettings
 90
        3
 70
     0
 90
       10
 90
        1
 70
     2
 70
     2
 40
3.0
 40
3.0
290
     1
  0
RAPIDRTRENDERSETTINGS
  5
FAB
102
{ACAD_REACTORS
330
FA9
102
}
330
FA9
100
AcDbRenderSettings
 90
        2
  1
Moyenne
290
     1
290
     0
290
     1
290
     1
  1

  1
Applique 5 niveaux de rendu
 90
        1
100
AcDbRapidRTRenderSettings
 90
        3
 70
     0
 90
        5
 90
        1
 70
     1
 70
     2
 40
3.0
 40
3.0
290
     1
  0
RAPIDRTRENDERSETTINGS
  5
FAE
102
{ACAD_REACTORS
330
FA9
102
}
330
FA9
100
AcDbRenderSettings
 90
        2
  1
Temps d'un déjeuner
290
     1
290
     0
290
     1
290
     1
  1

  1
Effectue un rendu pendant 60 minutes
 90
        4
100
AcDbRapidRTRenderSettings
 90
        3
 70
     1
 90
        1
 90
       60
 70
     2
 70
     2
 40
3.0
 40
3.0
290
     1
  0
RAPIDRTRENDERSETTINGS
  5
FAF
102
{ACAD_REACTORS
330
FA9
102
}
330
FA9
100
AcDbRenderSettings
 90
        2
  1
Temps d'une nuit
290
     1
290
     0
290
     1
290
     1
  1

  1
Effectue un rendu pendant 12 heures
 90
        5
100
AcDbRapidRTRenderSettings
 90
        3
 70
     1
 90
        1
 90
      720
 70
     2
 70
     2
 40
3.0
 40
3.0
290
     1
  0
RAPIDRTRENDERSETTINGS
  5
FAD
102
{ACAD_REACTORS
330
FA9
102
}
330
FA9
100
AcDbRenderSettings
 90
        2
  1
Temps d'une pause café
290
     1
290
     0
290
     1
290
     1
  1

  1
Effectue un rendu pendant 10 minutes
 90
        3
100
AcDbRapidRTRenderSettings
 90
        3
 70
     1
 90
        1
 90
       10
 70
     1
 70
     2
 40
3.0
 40
3.0
290
     1
  0
SCALE
  5
43
102
{ACAD_REACTORS
330
42
102
}
330
42
100
AcDbScale
 70
     0
300
1:1
140
1.0
141
1.0
290
     1
  0
SCALE
  5
44
102
{ACAD_REACTORS
330
42
102
}
330
42
100
AcDbScale
 70
     0
300
1/128" = 1'-0"
140
0.0078125
141
12.0
290
     0
  0
SCALE
  5
45
102
{ACAD_REACTORS
330
42
102
}
330
42
100
AcDbScale
 70
     0
300
1/64" = 1'-0"
140
0.015625
141
12.0
290
     0
  0
SCALE
  5
46
102
{ACAD_REACTORS
330
42
102
}
330
42
100
AcDbScale
 70
     0
300
1/32" = 1'-0"
140
0.03125
141
12.0
290
     0
  0
SCALE
  5
47
102
{ACAD_REACTORS
330
42
102
}
330
42
100
AcDbScale
 70
     0
300
1/16" = 1'-0"
140
0.0625
141
12.0
290
     0
  0
SCALE
  5
48
102
{ACAD_REACTORS
330
42
102
}
330
42
100
AcDbScale
 70
     0
300
3/32" = 1'-0"
140
0.09375
141
12.0
290
     0
  0
SCALE
  5
49
102
{ACAD_REACTORS
330
42
102
}
330
42
100
AcDbScale
 70
     0
300
1/8" = 1'-0"
140
0.125
141
12.0
290
     0
  0
SCALE
  5
4A
102
{ACAD_REACTORS
330
42
102
}
330
42
100
AcDbScale
 70
     0
300
3/16" = 1'-0"
140
0.1875
141
12.0
290
     0
  0
SCALE
  5
4B
102
{ACAD_REACTORS
330
42
102
}
330
42
100
AcDbScale
 70
     0
300
1/4" = 1'-0"
140
0.25
141
12.0
290
     0
  0
SCALE
  5
4C
102
{ACAD_REACTORS
330
42
102
}
330
42
100
AcDbScale
 70
     0
300
3/8" = 1'-0"
140
0.375
141
12.0
290
     0
  0
SCALE
  5
4D
102
{ACAD_REACTORS
330
42
102
}
330
42
100
AcDbScale
 70
     0
300
1/2" = 1'-0"
140
0.5
141
12.0
290
     0
  0
SCALE
  5
4E
102
{ACAD_REACTORS
330
42
102
}
330
42
100
AcDbScale
 70
     0
300
3/4" = 1'-0"
140
0.75
141
12.0
290
     0
  0
SCALE
  5
4F
102
{ACAD_REACTORS
330
42
102
}
330
42
100
AcDbScale
 70
     0
300
1" = 1'-0"
140
1.0
141
12.0
290
     0
  0
SCALE
  5
50
102
{ACAD_REACTORS
330
42
102
}
330
42
100
AcDbScale
 70
     0
300
1-1/2" = 1'-0"
140
1.5
141
12.0
290
     0
  0
SCALE
  5
51
102
{ACAD_REACTORS
330
42
102
}
330
42
100
AcDbScale
 70
     0
300
3" = 1'-0"
140
3.0
141
12.0
290
     0
  0
SCALE
  5
52
102
{ACAD_REACTORS
330
42
102
}
330
42
100
AcDbScale
 70
     0
300
6" = 1'-0"
140
6.0
141
12.0
290
     0
  0
SCALE
  5
53
102
{ACAD_REACTORS
330
42
102
}
330
42
100
AcDbScale
 70
     0
300
1'-0" = 1'-0"
140
12.0
141
12.0
290
     0
  0
ACDBSECTIONVIEWSTYLE
  5
68
102
{ACAD_XDICTIONARY
360
106C
102
}
102
{ACAD_REACTORS
330
67
102
}
330
67
100
AcDbModelDocViewStyle
 70
     0
  3
Imperial24
290
     0
100
AcDbSectionViewStyle
 70
     0
 71
     0
 90
       78
 71
     1
340
55
 62
   256
 40
0.24
340
0
340
0
 62
   256
 40
0.24
300
I, O, Q, S, X, Z
 40
0.48
 90
        3
 40
0.18
 90
        1
 71
     2
340
5C
 90
       25
 62
   256
340
5C
 90
       50
 62
   256
 40
0.24
 40
0.0
 40
0.24
 71
     3
340
55
 62
   256
 40
0.24
 90
        1
 40
0.75
 90
        1
300
%<\AcVar ViewType \f "%tc1">% %<\AcVar ViewSectionStartId>%-%<\AcVar ViewSectionEndId>%\PECHELLE %<\AcVar ViewScale \f "%sn">%
 71
     4
 62
   256
 62
   257
300
ANSI31
 40
1.0
 90
        0
290
     0
290
     0
 90
        6
 40
0.0
 40
1.570796326794896
 40
0.2617993877991494
 40
1.308996938995747
 40
-0.2617993877991494
 40
1.832595714594046
  0
TABLESTYLE
  5
64
102
{ACAD_XDICTIONARY
360
1061
102
}
102
{ACAD_REACTORS
330
63
102
}
330
63
100
AcDbTableStyle
280
     0
  3
Standard
 70
     0
 71
     0
 40
0.06
 41
0.06
280
     0
281
     0
  7
Standard
140
0.18
170
     2
 62
     0
 63
     7
283
     0
 90
      512
 91
        0
  1

274
    -2
284
     1
 64
     0
275
    -2
285
     1
 65
     0
276
    -2
286
     1
 66
     0
277
    -2
287
     1
 67
     0
278
    -2
288
     1
 68
     0
279
    -2
289
     1
 69
     0
  7
Standard
140
0.25
170
     5
 62
     0
 63
     7
283
     0
 90
      512
 91
        0
  1

274
    -2
284
     1
 64
     0
275
    -2
285
     1
 65
     0
276
    -2
286
     1
 66
     0
277
    -2
287
     1
 67
     0
278
    -2
288
     1
 68
     0
279
    -2
289
     1
 69
     0
  7
Standard
140
0.18
170
     5
 62
     0
 63
     7
283
     0
 90
      512
 91
        0
  1

274
    -2
284
     1
 64
     0
275
    -2
285
     1
 65
     0
276
    -2
286
     1
 66
     0
277
    -2
287
     1
 67
     0
278
    -2
288
     1
 68
     0
279
    -2
289
     1
 69
     0
  0
VISUALSTYLE
  5
2F
102
{ACAD_REACTORS
330
29
102
}
330
29
100
AcDbVisualStyle
  2
2dWireframe
 70
     4
177
     3
291
     0
 70
    58
 90
        0
176
     1
 90
        2
176
     1
 90
        0
176
     1
 90
        0
176
     1
 40
0.6
176
     1
 40
30.0
176
     1
 62
     7
420
 16777215
176
     1
 90
        1
176
     1
 90
        4
176
     1
 62
     7
176
     1
 62
   257
176
     1
 90
        1
176
     1
 90
        1
176
     1
 40
1.0
176
     1
 90
        0
176
     1
 62
   257
176
     1
 40
1.0
176
     1
 90
        1
176
     1
 90
        6
176
     1
 90
        2
176
     1
 62
     7
176
     1
 90
        5
176
     1
 90
        0
176
     1
 90
        0
176
     1
290
     0
176
     1
 90
        1
176
     1
 40
0.0
176
     1
 90
        0
176
     1
290
     1
176
     1
290
     1
176
     1
290
     0
176
     1
290
     0
176
     1
290
     0
176
     1
290
     0
176
     1
290
     0
176
     1
290
     0
176
     1
290
     0
176
     1
 90
       50
176
     1
 40
0.0
176
     1
 40
1.0
176
     1
 90
        0
176
     1
 62
    18
420
        0
176
     1
 90
       50
176
     1
 90
        3
176
     1
 62
     5
420
      255
176
     1
290
     0
176
     1
 90
       50
176
     1
 90
       50
176
     1
 90
       50
176
     1
290
     0
176
     1
 90
       50
176
     1
 62
   256
176
     0
 40
1.0
176
     0
 90
        2
176
     1
  1
strokes_ogs.tif
176
     1
290
     0
176
     1
 40
1.0
176
     1
 40
1.0
176
     1
1001
ACAD
1000
AcDbSavedByObjectVersion
1070
     0
  0
VISUALSTYLE
  5
2E
102
{ACAD_REACTORS
330
29
102
}
330
29
100
AcDbVisualStyle
  2
Basic
 70
     7
177
     3
291
     1
 70
    58
 90
        1
176
     1
 90
        0
176
     1
 90
        1
176
     1
 90
        0
176
     1
 40
0.6
176
     1
 40
30.0
176
     1
 62
     7
420
 16777215
176
     1
 90
        0
176
     1
 90
        4
176
     1
 62
     7
176
     1
 62
   257
176
     1
 90
        1
176
     1
 90
        1
176
     1
 40
1.0
176
     1
 90
        8
176
     1
 62
     7
176
     1
 40
1.0
176
     1
 90
        1
176
     1
 90
        6
176
     1
 90
        2
176
     1
 62
     7
176
     1
 90
        5
176
     1
 90
        0
176
     1
 90
        0
176
     1
290
     0
176
     1
 90
        1
176
     1
 40
0.0
176
     1
 90
        0
176
     1
290
     0
176
     1
290
     1
176
     1
290
     1
176
     1
290
     0
176
     1
290
     0
176
     1
290
     0
176
     1
290
     0
176
     1
290
     0
176
     1
290
     0
176
     1
 90
       50
176
     1
 40
0.0
176
     1
 40
1.0
176
     1
 90
        0
176
     1
 62
    18
420
        0
176
     1
 90
       50
176
     1
 90
        3
176
     1
 62
     5
420
      255
176
     1
290
     0
176
     1
 90
       50
176
     1
 90
       50
176
     1
 90
       50
176
     1
290
     0
176
     1
 90
       50
176
     1
 62
   256
176
     0
 40
1.0
176
     0
 90
        2
176
     1
  1
strokes_ogs.tif
176
     1
290
     0
176
     1
 40
1.0
176
     1
 40
1.0
176
     1
1001
ACAD
1000
AcDbSavedByObjectVersion
1070
     0
  0
VISUALSTYLE
  5
35
102
{ACAD_REACTORS
330
29
102
}
330
29
100
AcDbVisualStyle
  2
Brighten
 70
    12
177
     3
291
     1
 70
    58
 90
        2
176
     1
 90
        2
176
     1
 90
        0
176
     1
 90
        0
176
     1
 40
0.6
176
     1
 40
30.0
176
     1
 62
     7
420
 16777215
176
     1
 90
        1
176
     1
 90
        4
176
     1
 62
     7
176
     1
 62
   257
176
     1
 90
        1
176
     1
 90
        1
176
     1
 40
1.0
176
     1
 90
        8
176
     1
 62
     7
176
     1
 40
1.0
176
     1
 90
        1
176
     1
 90
        6
176
     1
 90
        2
176
     1
 62
     7
176
     1
 90
        5
176
     1
 90
        0
176
     1
 90
        0
176
     1
290
     0
176
     1
 90
        1
176
     1
 40
50.0
176
     1
 90
        0
176
     1
290
     0
176
     1
290
     1
176
     1
290
     1
176
     1
290
     0
176
     1
290
     0
176
     1
290
     0
176
     1
290
     0
176
     1
290
     0
176
     1
290
     0
176
     1
 90
       50
176
     1
 40
0.0
176
     1
 40
1.0
176
     1
 90
        0
176
     1
 62
    18
420
        0
176
     1
 90
       50
176
     1
 90
        3
176
     1
 62
     5
420
      255
176
     1
290
     0
176
     1
 90
       50
176
     1
 90
       50
176
     1
 90
       50
176
     1
290
     0
176
     1
 90
       50
176
     1
 62
   256
176
     0
 40
1.0
176
     0
 90
        2
176
     1
  1
strokes_ogs.tif
176
     1
290
     0
176
     1
 40
1.0
176
     1
 40
1.0
176
     1
1001
ACAD
1000
AcDbSavedByObjectVersion
1070
     0
  0
VISUALSTYLE
  5
39
102
{ACAD_REACTORS
330
29
102
}
330
29
100
AcDbVisualStyle
  2
ColorChange
 70
    16
177
     3
291
     1
 70
    58
 90
        2
176
     1
 90
        2
176
     1
 90
        3
176
     1
 90
        0
176
     1
 40
0.6
176
     1
 40
30.0
176
     1
 62
     8
420
  8421504
176
     1
 90
        1
176
     1
 90
        4
176
     1
 62
     7
176
     1
 62
   257
176
     1
 90
        1
176
     1
 90
        1
176
     1
 40
1.0
176
     1
 90
        8
176
     1
 62
     8
420
  8421504
176
     1
 40
1.0
176
     1
 90
        1
176
     1
 90
        6
176
     1
 90
        2
176
     1
 62
     7
176
     1
 90
        5
176
     1
 90
        0
176
     1
 90
        0
176
     1
290
     0
176
     1
 90
        1
176
     1
 40
0.0
176
     1
 90
        0
176
     1
290
     0
176
     1
290
     1
176
     1
290
     1
176
     1
290
     0
176
     1
290
     0
176
     1
290
     0
176
     1
290
     0
176
     1
290
     0
176
     1
290
     0
176
     1
 90
       50
176
     1
 40
0.0
176
     1
 40
1.0
176
     1
 90
        0
176
     1
 62
    18
420
        0
176
     1
 90
       50
176
     1
 90
        3
176
     1
 62
     5
420
      255
176
     1
290
     0
176
     1
 90
       50
176
     1
 90
       50
176
     1
 90
       50
176
     1
290
     0
176
     1
 90
       50
176
     1
 62
   256
176
     0
 40
1.0
176
     0
 90
        2
176
     1
  1
strokes_ogs.tif
176
     1
290
     0
176
     1
 40
1.0
176
     1
 40
1.0
176
     1
1001
ACAD
1000
AcDbSavedByObjectVersion
1070
     0
  0
VISUALSTYLE
  5
32
102
{ACAD_REACTORS
330
29
102
}
330
29
100
AcDbVisualStyle
  2
Conceptual
 70
     9
177
     3
291
     0
 70
    58
 90
        3
176
     1
 90
        2
176
     1
 90
        0
176
     1
 90
        0
176
     1
 40
0.6
176
     1
 40
30.0
176
     1
 62
     7
420
 16777215
176
     1
 90
        2
176
     1
 90
        2
176
     1
 62
     7
176
     1
 62
   257
176
     1
 90
        1
176
     1
 90
        1
176
     1
 40
179.0
176
     1
 90
        8
176
     1
 62
     7
176
     1
 40
1.0
176
     1
 90
        1
176
     1
 90
        6
176
     1
 90
        2
176
     1
 62
     7
176
     1
 90
        3
176
     1
 90
        0
176
     1
 90
        0
176
     1
290
     0
176
     1
 90
        1
176
     1
 40
0.0
176
     1
 90
        0
176
     1
290
     0
176
     1
290
     1
176
     1
290
     1
176
     1
290
     0
176
     1
290
     0
176
     1
290
     0
176
     1
290
     0
176
     1
290
     0
176
     1
290
     0
176
     1
 90
       50
176
     1
 40
0.0
176
     1
 40
1.0
176
     1
 90
        0
176
     1
 62
    18
420
        0
176
     1
 90
       50
176
     1
 90
        3
176
     1
 62
     5
420
      255
176
     1
290
     0
176
     1
 90
       50
176
     1
 90
       50
176
     1
 90
       50
176
     1
290
     0
176
     1
 90
       50
176
     1
 62
   256
176
     0
 40
1.0
176
     0
 90
        2
176
     1
  1
strokes_ogs.tif
176
     1
290
     0
176
     1
 40
1.0
176
     1
 40
1.0
176
     1
1001
ACAD
1000
AcDbSavedByObjectVersion
1070
     0
  0
VISUALSTYLE
  5
34
102
{ACAD_REACTORS
330
29
102
}
330
29
100
AcDbVisualStyle
  2
Dim
 70
    11
177
     3
291
     1
 70
    58
 90
        2
176
     1
 90
        2
176
     1
 90
        0
176
     1
 90
        0
176
     1
 40
0.6
176
     1
 40
30.0
176
     1
 62
     7
420
 16777215
176
     1
 90
        1
176
     1
 90
        4
176
     1
 62
     7
176
     1
 62
   257
176
     1
 90
        1
176
     1
 90
        1
176
     1
 40
1.0
176
     1
 90
        8
176
     1
 62
     7
176
     1
 40
1.0
176
     1
 90
        1
176
     1
 90
        6
176
     1
 90
        2
176
     1
 62
     7
176
     1
 90
        5
176
     1
 90
        0
176
     1
 90
        0
176
     1
290
     0
176
     1
 90
        1
176
     1
 40
-50.0
176
     1
 90
        0
176
     1
290
     0
176
     1
290
     1
176
     1
290
     1
176
     1
290
     0
176
     1
290
     0
176
     1
290
     0
176
     1
290
     0
176
     1
290
     0
176
     1
290
     0
176
     1
 90
       50
176
     1
 40
0.0
176
     1
 40
1.0
176
     1
 90
        0
176
     1
 62
    18
420
        0
176
     1
 90
       50
176
     1
 90
        3
176
     1
 62
     5
420
      255
176
     1
290
     0
176
     1
 90
       50
176
     1
 90
       50
176
     1
 90
       50
176
     1
290
     0
176
     1
 90
       50
176
     1
 62
   256
176
     0
 40
1.0
176
     0
 90
        2
176
     1
  1
strokes_ogs.tif
176
     1
290
     0
176
     1
 40
1.0
176
     1
 40
1.0
176
     1
1001
ACAD
1000
AcDbSavedByObjectVersion
1070
     0
  0
VISUALSTYLE
  5
41
102
{ACAD_REACTORS
330
29
102
}
330
29
100
AcDbVisualStyle
  2
EdgeColorOff
 70
    22
177
     3
291
     1
 70
    58
 90
        2
176
     0
 90
        2
176
     0
 90
        0
176
     0
 90
        0
176
     0
 40
0.6
176
     0
 40
30.0
176
     0
 62
     7
420
 16777215
176
     0
 90
        1
176
     0
 90
        4
176
     0
 62
     7
176
     0
 62
   257
176
     0
 90
        1
176
     0
 90
        1
176
     0
 40
1.0
176
     0
 90
        8
176
     2
 62
     7
176
     0
 40
1.0
176
     0
 90
        1
176
     0
 90
        6
176
     0
 90
        2
176
     0
 62
     7
176
     0
 90
        5
176
     0
 90
        0
176
     0
 90
        0
176
     0
290
     0
176
     0
 90
        1
176
     0
 40
0.0
176
     0
 90
        0
176
     0
290
     0
176
     1
290
     1
176
     1
290
     1
176
     1
290
     0
176
     1
290
     0
176
     1
290
     0
176
     1
290
     0
176
     1
290
     0
176
     1
290
     0
176
     1
 90
       50
176
     0
 40
0.0
176
     0
 40
1.0
176
     0
 90
        0
176
     0
 62
    18
420
        0
176
     0
 90
       50
176
     0
 90
        3
176
     0
 62
     5
420
      255
176
     0
290
     0
176
     1
 90
       50
176
     0
 90
       50
176
     0
 90
       50
176
     0
290
     0
176
     1
 90
       50
176
     0
 62
   256
176
     0
 40
1.0
176
     0
 90
        2
176
     0
  1
strokes_ogs.tif
176
     0
290
     0
176
     1
 40
1.0
176
     0
 40
1.0
176
     0
1001
ACAD
1000
AcDbSavedByObjectVersion
1070
     0
  0
VISUALSTYLE
  5
38
102
{ACAD_REACTORS
330
29
102
}
330
29
100
AcDbVisualStyle
  2
Facepattern
 70
    15
177
     3
291
     1
 70
    58
 90
        2
176
     1
 90
        2
176
     1
 90
        0
176
     1
 90
        0
176
     1
 40
0.6
176
     1
 40
30.0
176
     1
 62
     7
420
 16777215
176
     1
 90
        1
176
     1
 90
        4
176
     1
 62
     7
176
     1
 62
   257
176
     1
 90
        1
176
     1
 90
        1
176
     1
 40
1.0
176
     1
 90
        8
176
     1
 62
     7
176
     1
 40
1.0
176
     1
 90
        1
176
     1
 90
        6
176
     1
 90
        2
176
     1
 62
     7
176
     1
 90
        5
176
     1
 90
        0
176
     1
 90
        0
176
     1
290
     0
176
     1
 90
        1
176
     1
 40
0.0
176
     1
 90
        0
176
     1
290
     0
176
     1
290
     1
176
     1
290
     1
176
     1
290
     0
176
     1
290
     0
176
     1
290
     0
176
     1
290
     0
176
     1
290
     0
176
     1
290
     0
176
     1
 90
       50
176
     1
 40
0.0
176
     1
 40
1.0
176
     1
 90
        0
176
     1
 62
    18
420
        0
176
     1
 90
       50
176
     1
 90
        3
176
     1
 62
     5
420
      255
176
     1
290
     0
176
     1
 90
       50
176
     1
 90
       50
176
     1
 90
       50
176
     1
290
     0
176
     1
 90
       50
176
     1
 62
   256
176
     0
 40
1.0
176
     0
 90
        2
176
     1
  1
strokes_ogs.tif
176
     1
290
     0
176
     1
 40
1.0
176
     1
 40
1.0
176
     1
1001
ACAD
1000
AcDbSavedByObjectVersion
1070
     0
  0
VISUALSTYLE
  5
2A
102
{ACAD_REACTORS
330
29
102
}
330
29
100
AcDbVisualStyle
  2
Flat
 70
     0
177
     3
291
     1
 70
    58
 90
        2
176
     1
 90
        1
176
     1
 90
        1
176
     1
 90
        2
176
     1
 40
0.6
176
     1
 40
30.0
176
     1
 62
     7
420
 16777215
176
     1
 90
        0
176
     1
 90
        0
176
     1
 62
     7
176
     1
 62
   257
176
     1
 90
        1
176
     1
 90
        1
176
     1
 40
1.0
176
     1
 90
        8
176
     1
 62
     7
176
     1
 40
1.0
176
     1
 90
        1
176
     1
 90
        6
176
     1
 90
        2
176
     1
 62
     7
176
     1
 90
        5
176
     1
 90
        0
176
     1
 90
        0
176
     1
290
     0
176
     1
 90
       13
176
     1
 40
0.0
176
     1
 90
        0
176
     1
290
     0
176
     1
290
     1
176
     1
290
     1
176
     1
290
     0
176
     1
290
     0
176
     1
290
     0
176
     1
290
     0
176
     1
290
     0
176
     1
290
     0
176
     1
 90
       50
176
     1
 40
0.0
176
     1
 40
1.0
176
     1
 90
        0
176
     1
 62
    18
420
        0
176
     1
 90
       50
176
     1
 90
        3
176
     1
 62
     5
420
      255
176
     1
290
     0
176
     1
 90
       50
176
     1
 90
       50
176
     1
 90
       50
176
     1
290
     0
176
     1
 90
       50
176
     1
 62
   256
176
     0
 40
1.0
176
     0
 90
        2
176
     1
  1
strokes_ogs.tif
176
     1
290
     0
176
     1
 40
1.0
176
     1
 40
1.0
176
     1
1001
ACAD
1000
AcDbSavedByObjectVersion
1070
     0
  0
VISUALSTYLE
  5
2B
102
{ACAD_REACTORS
330
29
102
}
330
29
100
AcDbVisualStyle
  2
FlatWithEdges
 70
     1
177
     3
291
     1
 70
    58
 90
        2
176
     1
 90
        1
176
     1
 90
        1
176
     1
 90
        2
176
     1
 40
0.6
176
     1
 40
30.0
176
     1
 62
     7
420
 16777215
176
     1
 90
        1
176
     1
 90
        0
176
     1
 62
     7
176
     1
 62
   257
176
     1
 90
        1
176
     1
 90
        1
176
     1
 40
1.0
176
     1
 90
        0
176
     1
 62
   257
176
     1
 40
1.0
176
     1
 90
        1
176
     1
 90
        6
176
     1
 90
        2
176
     1
 62
     7
176
     1
 90
        5
176
     1
 90
        0
176
     1
 90
        0
176
     1
290
     0
176
     1
 90
       13
176
     1
 40
0.0
176
     1
 90
        0
176
     1
290
     0
176
     1
290
     1
176
     1
290
     1
176
     1
290
     0
176
     1
290
     0
176
     1
290
     0
176
     1
290
     0
176
     1
290
     0
176
     1
290
     0
176
     1
 90
       50
176
     1
 40
0.0
176
     1
 40
1.0
176
     1
 90
        0
176
     1
 62
    18
420
        0
176
     1
 90
       50
176
     1
 90
        3
176
     1
 62
     5
420
      255
176
     1
290
     0
176
     1
 90
       50
176
     1
 90
       50
176
     1
 90
       50
176
     1
290
     0
176
     1
 90
       50
176
     1
 62
   256
176
     0
 40
1.0
176
     0
 90
        2
176
     1
  1
strokes_ogs.tif
176
     1
290
     0
176
     1
 40
1.0
176
     1
 40
1.0
176
     1
1001
ACAD
1000
AcDbSavedByObjectVersion
1070
     0
  0
VISUALSTYLE
  5
2C
102
{ACAD_REACTORS
330
29
102
}
330
29
100
AcDbVisualStyle
  2
Gouraud
 70
     2
177
     3
291
     1
 70
    58
 90
        2
176
     1
 90
        2
176
     1
 90
        1
176
     1
 90
        2
176
     1
 40
0.6
176
     1
 40
30.0
176
     1
 62
     7
420
 16777215
176
     1
 90
        0
176
     1
 90
        0
176
     1
 62
     7
176
     1
 62
   257
176
     1
 90
        1
176
     1
 90
        1
176
     1
 40
1.0
176
     1
 90
        0
176
     1
 62
     7
176
     1
 40
1.0
176
     1
 90
        1
176
     1
 90
        6
176
     1
 90
        2
176
     1
 62
     7
176
     1
 90
        5
176
     1
 90
        0
176
     1
 90
        0
176
     1
290
     0
176
     1
 90
       13
176
     1
 40
0.0
176
     1
 90
        0
176
     1
290
     0
176
     1
290
     1
176
     1
290
     1
176
     1
290
     0
176
     1
290
     0
176
     1
290
     0
176
     1
290
     0
176
     1
290
     0
176
     1
290
     0
176
     1
 90
       50
176
     1
 40
0.0
176
     1
 40
1.0
176
     1
 90
        0
176
     1
 62
    18
420
        0
176
     1
 90
       50
176
     1
 90
        3
176
     1
 62
     5
420
      255
176
     1
290
     0
176
     1
 90
       50
176
     1
 90
       50
176
     1
 90
       50
176
     1
290
     0
176
     1
 90
       50
176
     1
 62
   256
176
     0
 40
1.0
176
     0
 90
        2
176
     1
  1
strokes_ogs.tif
176
     1
290
     0
176
     1
 40
1.0
176
     1
 40
1.0
176
     1
1001
ACAD
1000
AcDbSavedByObjectVersion
1070
     0
  0
VISUALSTYLE
  5
2D
102
{ACAD_REACTORS
330
29
102
}
330
29
100
AcDbVisualStyle
  2
GouraudWithEdges
 70
     3
177
     3
291
     1
 70
    58
 90
        2
176
     1
 90
        2
176
     1
 90
        1
176
     1
 90
        2
176
     1
 40
0.6
176
     1
 40
30.0
176
     1
 62
     7
420
 16777215
176
     1
 90
        1
176
     1
 90
        0
176
     1
 62
     7
176
     1
 62
   257
176
     1
 90
        1
176
     1
 90
        1
176
     1
 40
1.0
176
     1
 90
        0
176
     1
 62
   257
176
     1
 40
1.0
176
     1
 90
        1
176
     1
 90
        6
176
     1
 90
        2
176
     1
 62
     7
176
     1
 90
        5
176
     1
 90
        0
176
     1
 90
        0
176
     1
290
     0
176
     1
 90
       13
176
     1
 40
0.0
176
     1
 90
        0
176
     1
290
     0
176
     1
290
     1
176
     1
290
     1
176
     1
290
     0
176
     1
290
     0
176
     1
290
     0
176
     1
290
     0
176
     1
290
     0
176
     1
290
     0
176
     1
 90
       50
176
     1
 40
0.0
176
     1
 40
1.0
176
     1
 90
        0
176
     1
 62
    18
420
        0
176
     1
 90
       50
176
     1
 90
        3
176
     1
 62
     5
420
      255
176
     1
290
     0
176
     1
 90
       50
176
     1
 90
       50
176
     1
 90
       50
176
     1
290
     0
176
     1
 90
       50
176
     1
 62
   256
176
     0
 40
1.0
176
     0
 90
        2
176
     1
  1
strokes_ogs.tif
176
     1
290
     0
176
     1
 40
1.0
176
     1
 40
1.0
176
     1
1001
ACAD
1000
AcDbSavedByObjectVersion
1070
     0
  0
VISUALSTYLE
  5
31
102
{ACAD_REACTORS
330
29
102
}
330
29
100
AcDbVisualStyle
  2
Hidden
 70
     6
177
     3
291
     0
 70
    58
 90
        1
176
     1
 90
        2
176
     1
 90
        2
176
     1
 90
        0
176
     1
 40
0.6
176
     1
 40
30.0
176
     1
 62
     7
420
 16777215
176
     1
 90
        2
176
     1
 90
        2
176
     1
 62
     7
176
     1
 62
   257
176
     1
 90
        2
176
     1
 90
        1
176
     1
 40
40.0
176
     1
 90
        0
176
     1
 62
   257
176
     1
 40
1.0
176
     1
 90
        1
176
     1
 90
        6
176
     1
 90
        2
176
     1
 62
     7
176
     1
 90
        3
176
     1
 90
        0
176
     1
 90
        0
176
     1
290
     0
176
     1
 90
        1
176
     1
 40
0.0
176
     1
 90
        0
176
     1
290
     0
176
     1
290
     1
176
     1
290
     1
176
     1
290
     0
176
     1
290
     0
176
     1
290
     0
176
     1
290
     0
176
     1
290
     0
176
     1
290
     0
176
     1
 90
       50
176
     1
 40
0.0
176
     1
 40
1.0
176
     1
 90
        0
176
     1
 62
    18
420
        0
176
     1
 90
       50
176
     1
 90
        3
176
     1
 62
     5
420
      255
176
     1
290
     0
176
     1
 90
       50
176
     1
 90
       50
176
     1
 90
       50
176
     1
290
     0
176
     1
 90
       50
176
     1
 62
   256
176
     0
 40
1.0
176
     0
 90
        2
176
     1
  1
strokes_ogs.tif
176
     1
290
     0
176
     1
 40
1.0
176
     1
 40
1.0
176
     1
1001
ACAD
1000
AcDbSavedByObjectVersion
1070
     0
  0
VISUALSTYLE
  5
3F
102
{ACAD_REACTORS
330
29
102
}
330
29
100
AcDbVisualStyle
  2
JitterOff
 70
    20
177
     3
291
     1
 70
    58
 90
        2
176
     0
 90
        2
176
     0
 90
        0
176
     0
 90
        0
176
     0
 40
0.6
176
     0
 40
30.0
176
     0
 62
     7
420
 16777215
176
     0
 90
        1
176
     0
 90
        4
176
     0
 62
     7
176
     0
 62
   257
176
     0
 90
        1
176
     0
 90
        1
176
     0
 40
1.0
176
     0
 90
       10
176
     2
 62
     7
176
     0
 40
1.0
176
     0
 90
        1
176
     0
 90
        6
176
     0
 90
        2
176
     0
 62
     7
176
     0
 90
        5
176
     0
 90
        0
176
     0
 90
        0
176
     0
290
     0
176
     0
 90
        1
176
     0
 40
0.0
176
     0
 90
        0
176
     0
290
     0
176
     1
290
     1
176
     1
290
     1
176
     1
290
     0
176
     1
290
     0
176
     1
290
     0
176
     1
290
     0
176
     1
290
     0
176
     1
290
     0
176
     1
 90
       50
176
     0
 40
0.0
176
     0
 40
1.0
176
     0
 90
        0
176
     0
 62
    18
420
        0
176
     0
 90
       50
176
     0
 90
        3
176
     0
 62
     5
420
      255
176
     0
290
     0
176
     1
 90
       50
176
     0
 90
       50
176
     0
 90
       50
176
     0
290
     0
176
     1
 90
       50
176
     0
 62
   256
176
     0
 40
1.0
176
     0
 90
        2
176
     0
  1
strokes_ogs.tif
176
     0
290
     0
176
     1
 40
1.0
176
     0
 40
1.0
176
     0
1001
ACAD
1000
AcDbSavedByObjectVersion
1070
     0
  0
VISUALSTYLE
  5
37
102
{ACAD_REACTORS
330
29
102
}
330
29
100
AcDbVisualStyle
  2
Linepattern
 70
    14
177
     3
291
     1
 70
    58
 90
        2
176
     1
 90
        2
176
     1
 90
        0
176
     1
 90
        0
176
     1
 40
0.6
176
     1
 40
30.0
176
     1
 62
     7
420
 16777215
176
     1
 90
        1
176
     1
 90
        4
176
     1
 62
     7
176
     1
 62
   257
176
     1
 90
        7
176
     1
 90
        7
176
     1
 40
1.0
176
     1
 90
        8
176
     1
 62
     7
176
     1
 40
1.0
176
     1
 90
        1
176
     1
 90
        6
176
     1
 90
        2
176
     1
 62
     7
176
     1
 90
        5
176
     1
 90
        0
176
     1
 90
        0
176
     1
290
     0
176
     1
 90
        1
176
     1
 40
0.0
176
     1
 90
        0
176
     1
290
     0
176
     1
290
     1
176
     1
290
     1
176
     1
290
     0
176
     1
290
     0
176
     1
290
     0
176
     1
290
     0
176
     1
290
     0
176
     1
290
     0
176
     1
 90
       50
176
     1
 40
0.0
176
     1
 40
1.0
176
     1
 90
        0
176
     1
 62
    18
420
        0
176
     1
 90
       50
176
     1
 90
        3
176
     1
 62
     5
420
      255
176
     1
290
     0
176
     1
 90
       50
176
     1
 90
       50
176
     1
 90
       50
176
     1
290
     0
176
     1
 90
       50
176
     1
 62
   256
176
     0
 40
1.0
176
     0
 90
        2
176
     1
  1
strokes_ogs.tif
176
     1
290
     0
176
     1
 40
1.0
176
     1
 40
1.0
176
     1
1001
ACAD
1000
AcDbSavedByObjectVersion
1070
     0
  0
VISUALSTYLE
  5
40
102
{ACAD_REACTORS
330
29
102
}
330
29
100
AcDbVisualStyle
  2
OverhangOff
 70
    21
177
     3
291
     1
 70
    58
 90
        2
176
     0
 90
        2
176
     0
 90
        0
176
     0
 90
        0
176
     0
 40
0.6
176
     0
 40
30.0
176
     0
 62
     7
420
 16777215
176
     0
 90
        1
176
     0
 90
        4
176
     0
 62
     7
176
     0
 62
   257
176
     0
 90
        1
176
     0
 90
        1
176
     0
 40
1.0
176
     0
 90
        9
176
     2
 62
     7
176
     0
 40
1.0
176
     0
 90
        1
176
     0
 90
        6
176
     0
 90
        2
176
     0
 62
     7
176
     0
 90
        5
176
     0
 90
        0
176
     0
 90
        0
176
     0
290
     0
176
     0
 90
        1
176
     0
 40
0.0
176
     0
 90
        0
176
     0
290
     0
176
     1
290
     1
176
     1
290
     1
176
     1
290
     0
176
     1
290
     0
176
     1
290
     0
176
     1
290
     0
176
     1
290
     0
176
     1
290
     0
176
     1
 90
       50
176
     0
 40
0.0
176
     0
 40
1.0
176
     0
 90
        0
176
     0
 62
    18
420
        0
176
     0
 90
       50
176
     0
 90
        3
176
     0
 62
     5
420
      255
176
     0
290
     0
176
     1
 90
       50
176
     0
 90
       50
176
     0
 90
       50
176
     0
290
     0
176
     1
 90
       50
176
     0
 62
   256
176
     0
 40
1.0
176
     0
 90
        2
176
     0
  1
strokes_ogs.tif
176
     0
290
     0
176
     1
 40
1.0
176
     0
 40
1.0
176
     0
1001
ACAD
1000
AcDbSavedByObjectVersion
1070
     0
  0
VISUALSTYLE
  5
33
102
{ACAD_REACTORS
330
29
102
}
330
29
100
AcDbVisualStyle
  2
Realistic
 70
     8
177
     3
291
     0
 70
    58
 90
        2
176
     1
 90
        3
176
     1
 90
        0
176
     1
 90
        2
176
     1
 40
0.6
176
     1
 40
30.0
176
     1
 62
     7
420
 16777215
176
     1
 90
        0
176
     1
 90
        0
176
     1
 62
     7
176
     1
 62
   257
176
     1
 90
        1
176
     1
 90
        1
176
     1
 40
1.0
176
     1
 90
        8
176
     1
 62
   257
176
     1
 40
1.0
176
     1
 90
        1
176
     1
 90
        6
176
     1
 90
        2
176
     1
 62
     7
176
     1
 90
        3
176
     1
 90
        0
176
     1
 90
        0
176
     1
290
     0
176
     1
 90
       13
176
     1
 40
0.0
176
     1
 90
        0
176
     1
290
     0
176
     1
290
     1
176
     1
290
     1
176
     1
290
     0
176
     1
290
     0
176
     1
290
     0
176
     1
290
     0
176
     1
290
     0
176
     1
290
     0
176
     1
 90
       50
176
     1
 40
0.0
176
     1
 40
1.0
176
     1
 90
        0
176
     1
 62
    18
420
        0
176
     1
 90
       50
176
     1
 90
        3
176
     1
 62
     5
420
      255
176
     1
290
     0
176
     1
 90
       50
176
     1
 90
       50
176
     1
 90
       50
176
     1
290
     0
176
     1
 90
       50
176
     1
 62
   256
176
     0
 40
1.0
176
     0
 90
        2
176
     1
  1
strokes_ogs.tif
176
     1
290
     0
176
     1
 40
1.0
176
     1
 40
1.0
176
     1
1001
ACAD
1000
AcDbSavedByObjectVersion
1070
     0
  0
VISUALSTYLE
  5
3E
102
{ACAD_REACTORS
330
29
102
}
330
29
100
AcDbVisualStyle
  2
Shaded
 70
    27
177
     3
291
     0
 70
    58
 90
        2
176
     1
 90
        2
176
     1
 90
        1
176
     1
 90
        2
176
     1
 40
0.6
176
     1
 40
30.0
176
     1
 62
     7
420
 16777215
176
     1
 90
        0
176
     1
 90
        4
176
     1
 62
     7
176
     1
 62
   257
176
     1
 90
        1
176
     1
 90
        1
176
     1
 40
1.0
176
     1
 90
        8
176
     1
 62
   257
176
     1
 40
1.0
176
     1
 90
        1
176
     1
 90
        6
176
     1
 90
        2
176
     1
 62
     8
420
  7895160
176
     1
 90
        3
176
     1
 90
        0
176
     1
 90
        0
176
     1
290
     0
176
     1
 90
        5
176
     1
 40
0.0
176
     1
 90
        0
176
     1
290
     0
176
     1
290
     1
176
     1
290
     1
176
     1
290
     0
176
     1
290
     0
176
     1
290
     0
176
     1
290
     0
176
     1
290
     0
176
     1
290
     0
176
     1
 90
       50
176
     1
 40
0.0
176
     1
 40
1.0
176
     1
 90
        0
176
     1
 62
    18
420
        0
176
     1
 90
       50
176
     1
 90
        3
176
     1
 62
     5
420
      255
176
     1
290
     0
176
     1
 90
       50
176
     1
 90
       50
176
     1
 90
       50
176
     1
290
     0
176
     1
 90
       50
176
     1
 62
   256
176
     0
 40
1.0
176
     0
 90
        2
176
     1
  1
strokes_ogs.tif
176
     1
290
     0
176
     1
 40
1.0
176
     1
 40
1.0
176
     1
1001
ACAD
1000
AcDbSavedByObjectVersion
1070
     0
  0
VISUALSTYLE
  5
3D
102
{ACAD_REACTORS
330
29
102
}
330
29
100
AcDbVisualStyle
  2
Shaded with edges
 70
    26
177
     3
291
     0
 70
    58
 90
        2
176
     1
 90
        2
176
     1
 90
        1
176
     1
 90
        2
176
     1
 40
0.6
176
     1
 40
30.0
176
     1
 62
     7
420
 16777215
176
     1
 90
        1
176
     1
 90
        2
176
     1
 62
     7
176
     1
 62
   257
176
     1
 90
        2
176
     1
 90
        1
176
     1
 40
1.0
176
     1
 90
        8
176
     1
 62
   257
176
     1
 40
1.0
176
     1
 90
        1
176
     1
 90
        6
176
     1
 90
        2
176
     1
 62
     7
176
     1
 90
        3
176
     1
 90
        0
176
     1
 90
        0
176
     1
290
     0
176
     1
 90
        5
176
     1
 40
0.0
176
     1
 90
        0
176
     1
290
     0
176
     1
290
     1
176
     1
290
     1
176
     1
290
     0
176
     1
290
     0
176
     1
290
     0
176
     1
290
     0
176
     1
290
     0
176
     1
290
     0
176
     1
 90
       50
176
     1
 40
0.0
176
     1
 40
1.0
176
     1
 90
        0
176
     1
 62
    18
420
        0
176
     1
 90
       50
176
     1
 90
        3
176
     1
 62
     5
420
      255
176
     1
290
     0
176
     1
 90
       50
176
     1
 90
       50
176
     1
 90
       50
176
     1
290
     0
176
     1
 90
       50
176
     1
 62
   256
176
     0
 40
1.0
176
     0
 90
        2
176
     1
  1
strokes_ogs.tif
176
     1
290
     0
176
     1
 40
1.0
176
     1
 40
1.0
176
     1
1001
ACAD
1000
AcDbSavedByObjectVersion
1070
     0
  0
VISUALSTYLE
  5
3A
102
{ACAD_REACTORS
330
29
102
}
330
29
100
AcDbVisualStyle
  2
Shades of Gray
 70
    23
177
     3
291
     0
 70
    58
 90
        2
176
     1
 90
        2
176
     1
 90
        3
176
     1
 90
        0
176
     1
 40
0.6
176
     1
 40
30.0
176
     1
 62
     7
420
 16777215
176
     1
 90
        2
176
     1
 90
        2
176
     1
 62
     7
176
     1
 62
     7
176
     1
 90
        1
176
     1
 90
        1
176
     1
 40
40.0
176
     1
 90
        8
176
     1
 62
     7
176
     1
 40
1.0
176
     1
 90
        1
176
     1
 90
        6
176
     1
 90
        2
176
     1
 62
     7
176
     1
 90
        3
176
     1
 90
        0
176
     1
 90
        0
176
     1
290
     0
176
     1
 90
        1
176
     1
 40
0.0
176
     1
 90
        0
176
     1
290
     0
176
     1
290
     1
176
     1
290
     1
176
     1
290
     0
176
     1
290
     0
176
     1
290
     0
176
     1
290
     0
176
     1
290
     0
176
     1
290
     0
176
     1
 90
       50
176
     1
 40
0.0
176
     1
 40
1.0
176
     1
 90
        0
176
     1
 62
    18
420
        0
176
     1
 90
       50
176
     1
 90
        3
176
     1
 62
     5
420
      255
176
     1
290
     0
176
     1
 90
       50
176
     1
 90
       50
176
     1
 90
       50
176
     1
290
     0
176
     1
 90
       50
176
     1
 62
   256
176
     0
 40
1.0
176
     0
 90
        2
176
     1
  1
strokes_ogs.tif
176
     1
290
     0
176
     1
 40
1.0
176
     1
 40
1.0
176
     1
1001
ACAD
1000
AcDbSavedByObjectVersion
1070
     0
  0
VISUALSTYLE
  5
3B
102
{ACAD_REACTORS
330
29
102
}
330
29
100
AcDbVisualStyle
  2
Sketchy
 70
    24
177
     3
291
     0
 70
    58
 90
        1
176
     1
 90
        2
176
     1
 90
        2
176
     1
 90
        0
176
     1
 40
0.6
176
     1
 40
30.0
176
     1
 62
     7
420
 16777215
176
     1
 90
        2
176
     1
 90
        2
176
     1
 62
     7
176
     1
 62
     7
176
     1
 90
        1
176
     1
 90
        1
176
     1
 40
40.0
176
     1
 90
       11
176
     1
 62
     7
176
     1
 40
1.0
176
     1
 90
        1
176
     1
 90
        6
176
     1
 90
        2
176
     1
 62
     7
176
     1
 90
        6
176
     1
 90
        0
176
     1
 90
        0
176
     1
290
     0
176
     1
 90
        1
176
     1
 40
0.0
176
     1
 90
        0
176
     1
290
     0
176
     1
290
     1
176
     1
290
     1
176
     1
290
     0
176
     1
290
     0
176
     1
290
     0
176
     1
290
     0
176
     1
290
     0
176
     1
290
     0
176
     1
 90
       50
176
     1
 40
0.0
176
     1
 40
1.0
176
     1
 90
        0
176
     1
 62
    18
420
        0
176
     1
 90
       50
176
     1
 90
        3
176
     1
 62
     5
420
      255
176
     1
290
     0
176
     1
 90
       50
176
     1
 90
       50
176
     1
 90
       50
176
     1
290
     0
176
     1
 90
       50
176
     1
 62
   256
176
     0
 40
1.0
176
     0
 90
        2
176
     1
  1
strokes_ogs.tif
176
     1
290
     0
176
     1
 40
1.0
176
     1
 40
1.0
176
     1
1001
ACAD
1000
AcDbSavedByObjectVersion
1070
     0
  0
VISUALSTYLE
  5
36
102
{ACAD_REACTORS
330
29
102
}
330
29
100
AcDbVisualStyle
  2
Thicken
 70
    13
177
     3
291
     1
 70
    58
 90
        2
176
     1
 90
        2
176
     1
 90
        0
176
     1
 90
        0
176
     1
 40
0.6
176
     1
 40
30.0
176
     1
 62
     7
420
 16777215
176
     1
 90
        1
176
     1
 90
        4
176
     1
 62
     7
176
     1
 62
   257
176
     1
 90
        1
176
     1
 90
        1
176
     1
 40
1.0
176
     1
 90
       12
176
     1
 62
     7
176
     1
 40
1.0
176
     1
 90
        1
176
     1
 90
        6
176
     1
 90
        2
176
     1
 62
     7
176
     1
 90
        5
176
     1
 90
        0
176
     1
 90
        0
176
     1
290
     0
176
     1
 90
        1
176
     1
 40
0.0
176
     1
 90
        0
176
     1
290
     0
176
     1
290
     1
176
     1
290
     1
176
     1
290
     0
176
     1
290
     0
176
     1
290
     0
176
     1
290
     0
176
     1
290
     0
176
     1
290
     0
176
     1
 90
       50
176
     1
 40
0.0
176
     1
 40
1.0
176
     1
 90
        0
176
     1
 62
    18
420
        0
176
     1
 90
       50
176
     1
 90
        3
176
     1
 62
     5
420
      255
176
     1
290
     0
176
     1
 90
       50
176
     1
 90
       50
176
     1
 90
       50
176
     1
290
     0
176
     1
 90
       50
176
     1
 62
   256
176
     0
 40
1.0
176
     0
 90
        2
176
     1
  1
strokes_ogs.tif
176
     1
290
     0
176
     1
 40
1.0
176
     1
 40
1.0
176
     1
1001
ACAD
1000
AcDbSavedByObjectVersion
1070
     0
  0
VISUALSTYLE
  5
30
102
{ACAD_REACTORS
330
29
102
}
330
29
100
AcDbVisualStyle
  2
Wireframe
 70
     5
177
     3
291
     0
 70
    58
 90
        0
176
     1
 90
        2
176
     1
 90
        0
176
     1
 90
        0
176
     1
 40
0.6
176
     1
 40
30.0
176
     1
 62
     7
420
 16777215
176
     1
 90
        1
176
     1
 90
        4
176
     1
 62
     7
176
     1
 62
   257
176
     1
 90
        1
176
     1
 90
        1
176
     1
 40
1.0
176
     1
 90
        0
176
     1
 62
   257
176
     1
 40
1.0
176
     1
 90
        1
176
     1
 90
        6
176
     1
 90
        2
176
     1
 62
     7
176
     1
 90
        3
176
     1
 90
        0
176
     1
 90
        0
176
     1
290
     0
176
     1
 90
        1
176
     1
 40
0.0
176
     1
 90
        0
176
     1
290
     0
176
     1
290
     1
176
     1
290
     1
176
     1
290
     0
176
     1
290
     0
176
     1
290
     0
176
     1
290
     0
176
     1
290
     0
176
     1
290
     0
176
     1
 90
       50
176
     1
 40
0.0
176
     1
 40
1.0
176
     1
 90
        0
176
     1
 62
    18
420
        0
176
     1
 90
       50
176
     1
 90
        3
176
     1
 62
     5
420
      255
176
     1
290
     0
176
     1
 90
       50
176
     1
 90
       50
176
     1
 90
       50
176
     1
290
     0
176
     1
 90
       50
176
     1
 62
   256
176
     0
 40
1.0
176
     0
 90
        2
176
     1
  1
strokes_ogs.tif
176
     1
290
     0
176
     1
 40
1.0
176
     1
 40
1.0
176
     1
1001
ACAD
1000
AcDbSavedByObjectVersion
1070
     0
  0
VISUALSTYLE
  5
3C
102
{ACAD_REACTORS
330
29
102
}
330
29
100
AcDbVisualStyle
  2
X-Ray
 70
    25
177
     3
291
     0
 70
    58
 90
        2
176
     1
 90
        2
176
     1
 90
        1
176
     1
 90
        1
176
     1
 40
0.5
176
     1
 40
30.0
176
     1
 62
     7
420
 16777215
176
     1
 90
        1
176
     1
 90
        0
176
     1
 62
     7
176
     1
 62
   257
176
     1
 90
        1
176
     1
 90
        1
176
     1
 40
1.0
176
     1
 90
        8
176
     1
 62
     7
176
     1
 40
1.0
176
     1
 90
        1
176
     1
 90
        6
176
     1
 90
        2
176
     1
 62
     7
176
     1
 90
        3
176
     1
 90
        0
176
     1
 90
        0
176
     1
290
     0
176
     1
 90
       13
176
     1
 40
0.0
176
     1
 90
        0
176
     1
290
     0
176
     1
290
     1
176
     1
290
     1
176
     1
290
     0
176
     1
290
     0
176
     1
290
     0
176
     1
290
     0
176
     1
290
     0
176
     1
290
     0
176
     1
 90
       50
176
     1
 40
0.0
176
     1
 40
1.0
176
     1
 90
        0
176
     1
 62
    18
420
        0
176
     1
 90
       50
176
     1
 90
        3
176
     1
 62
     5
420
      255
176
     1
290
     0
176
     1
 90
       50
176
     1
 90
       50
176
     1
 90
       50
176
     1
290
     0
176
     1
 90
       50
176
     1
 62
   256
176
     0
 40
1.0
176
     0
 90
        2
176
     1
  1
strokes_ogs.tif
176
     1
290
     0
176
     1
 40
1.0
176
     1
 40
1.0
176
     1
1001
ACAD
1000
AcDbSavedByObjectVersion
1070
     0
  0
DICTIONARYVAR
  5
1028
102
{ACAD_REACTORS
330
1022
102
}
330
1022
100
DictionaryVariables
280
     0
  1
1:1
  0
DICTIONARYVAR
  5
1024
102
{ACAD_REACTORS
330
1022
102
}
330
1022
100
DictionaryVariables
280
     0
  1
STANDARD
  0
DICTIONARYVAR
  5
1023
102
{ACAD_REACTORS
330
1022
102
}
330
1022
100
DictionaryVariables
280
     0
  1
STANDARD
  0
DICTIONARYVAR
  5
1025
102
{ACAD_REACTORS
330
1022
102
}
330
1022
100
DictionaryVariables
280
     0
  1
Imperial24
  0
DICTIONARYVAR
  5
1026
102
{ACAD_REACTORS
330
1022
102
}
330
1022
100
DictionaryVariables
280
     0
  1
Imperial24
  0
DICTIONARYVAR
  5
102A
102
{ACAD_REACTORS
330
1022
102
}
330
1022
100
DictionaryVariables
280
     0
  1
1
  0
DICTIONARYVAR
  5
102B
102
{ACAD_REACTORS
330
1022
102
}
330
1022
100
DictionaryVariables
280
     0
  1
15
  0
DICTIONARYVAR
  5
1029
102
{ACAD_REACTORS
330
1022
102
}
330
1022
100
DictionaryVariables
280
     0
  1
0
  0
DICTIONARYVAR
  5
1027
102
{ACAD_REACTORS
330
1022
102
}
330
1022
100
DictionaryVariables
280
     0
  1
0
  0
DICTIONARY
  5
106B
102
{ACAD_REACTORS
330
1069
102
}
330
1069
100
AcDbDictionary
281
     1
  0
DICTIONARY
  5
106A
102
{ACAD_REACTORS
330
1069
102
}
330
1069
100
AcDbDictionary
281
     1
  3
2294488883776
350
1064
  3
2294488883792
350
1065
  3
2294488883808
350
1066
  3
2294488883824
350
1067
  3
2294488883840
350
1068
  0
DICTIONARY
  5
106E
330
6A
100
AcDbDictionary
280
     1
281
     1
  3
ACAD_XREC_ROUNDTRIP
360
106F
  0
DICTIONARY
  5
1A
330
19
100
AcDbDictionary
280
     1
281
     1
  3
BUMPTILE
360
1C
  3
DIFFUSETILE
360
1B
  3
OPACITYTILE
360
1F
  3
REFLECTIONTILE
360
1E
  3
REFRACTIONTILE
360
20
  3
SPECULARTILE
360
1D
  0
DICTIONARY
  5
12
330
11
100
AcDbDictionary
280
     1
281
     1
  3
BUMPTILE
360
14
  3
DIFFUSETILE
360
13
  3
OPACITYTILE
360
17
  3
REFLECTIONTILE
360
16
  3
REFRACTIONTILE
360
18
  3
SPECULARTILE
360
15
  0
DICTIONARY
  5
22
330
21
100
AcDbDictionary
280
     1
281
     1
  3
BUMPTILE
360
24
  3
DIFFUSETILE
360
23
  3
OPACITYTILE
360
27
  3
REFLECTIONTILE
360
26
  3
REFRACTIONTILE
360
28
  3
SPECULARTILE
360
25
  0
XRECORD
  5
1073
102
{ACAD_REACTORS
330
1071
102
}
330
1071
100
AcDbXrecord
280
     1
102
ACAD_MENTALRAY_SETTING_RT
330
FB0
 70
     1
  0
XRECORD
  5
1072
102
{ACAD_REACTORS
330
1071
102
}
330
1071
100
AcDbXrecord
280
     1
 70
     2
 71
     3
 72
     0
  0
DICTIONARY
  5
106C
330
68
100
AcDbDictionary
280
     1
281
     1
  3
ACAD_XREC_ROUNDTRIP
360
106D
  0
DICTIONARY
  5
1061
330
64
100
AcDbDictionary
280
     1
281
     1
  3
ACAD_ROUNDTRIP_2008_TABLESTYLE_CELLSTYLEMAP
360
1062
  0
XRECORD
  5
1064
102
{ACAD_REACTORS
330
106A
102
}
330
106A
100
AcDbXrecord
280
     1
  1
AcDb_Thumbnail_Schema
102
{ATTRRECORD
341
1065
  2
AcDbDs::TreatedAsObjectData
280
     1
291
     1
102
ATTRRECORD}
102
{ATTRRECORD
341
1066
  2
AcDbDs::Legacy
280
     1
291
     1
102
ATTRRECORD}
  2
AcDbDs::ID
280
    10
 91
        8
102
{ATTRRECORD
341
1067
  2
AcDs:Indexable
280
     1
291
     1
102
ATTRRECORD}
102
{ATTRRECORD
341
1068
  2
AcDbDs::HandleAttribute
280
     7
282
     1
102
ATTRRECORD}
  2
Thumbnail_Data
280
    15
 91
        0
  0
XRECORD
  5
1065
102
{ACAD_REACTORS
330
106A
102
}
330
106A
100
AcDbXrecord
280
     1
  1
AcDbDs::TreatedAsObjectDataSchema
  2
AcDbDs::TreatedAsObjectData
280
     1
 91
        0
  0
XRECORD
  5
1066
102
{ACAD_REACTORS
330
106A
102
}
330
106A
100
AcDbXrecord
280
     1
  1
AcDbDs::LegacySchema
  2
AcDbDs::Legacy
280
     1
 91
        0
  0
XRECORD
  5
1067
102
{ACAD_REACTORS
330
106A
102
}
330
106A
100
AcDbXrecord
280
     1
  1
AcDbDs::IndexedPropertySchema
  2
AcDs:Indexable
280
     1
 91
        0
  0
XRECORD
  5
1068
102
{ACAD_REACTORS
330
106A
102
}
330
106A
100
AcDbXrecord
280
     1
  1
AcDbDs::HandleAttributeSchema
  2
AcDbDs::HandleAttribute
280
     7
 91
        1
284
     1
  0
XRECORD
  5
106F
102
{ACAD_REACTORS
330
106E
102
}
330
106E
100
AcDbXrecord
280
     1
102
DISPLAYNAME
  1
Imperial24
102
FLAGS
 90
        0
  0
XRECORD
  5
1C
102
{ACAD_REACTORS
330
1A
102
}
330
1A
100
AcDbXrecord
280
     1
270
     1
271
     1
  0
XRECORD
  5
1B
102
{ACAD_REACTORS
330
1A
102
}
330
1A
100
AcDbXrecord
280
     1
270
     1
271
     1
  0
XRECORD
  5
1F
102
{ACAD_REACTORS
330
1A
102
}
330
1A
100
AcDbXrecord
280
     1
270
     1
271
     1
  0
XRECORD
  5
1E
102
{ACAD_REACTORS
330
1A
102
}
330
1A
100
AcDbXrecord
280
     1
270
     1
271
     1
  0
XRECORD
  5
20
102
{ACAD_REACTORS
330
1A
102
}
330
1A
100
AcDbXrecord
280
     1
270
     1
271
     1
  0
XRECORD
  5
1D
102
{ACAD_REACTORS
330
1A
102
}
330
1A
100
AcDbXrecord
280
     1
270
     1
271
     1
  0
XRECORD
  5
14
102
{ACAD_REACTORS
330
12
102
}
330
12
100
AcDbXrecord
280
     1
270
     1
271
     1
  0
XRECORD
  5
13
102
{ACAD_REACTORS
330
12
102
}
330
12
100
AcDbXrecord
280
     1
270
     1
271
     1
  0
XRECORD
  5
17
102
{ACAD_REACTORS
330
12
102
}
330
12
100
AcDbXrecord
280
     1
270
     1
271
     1
  0
XRECORD
  5
16
102
{ACAD_REACTORS
330
12
102
}
330
12
100
AcDbXrecord
280
     1
270
     1
271
     1
  0
XRECORD
  5
18
102
{ACAD_REACTORS
330
12
102
}
330
12
100
AcDbXrecord
280
     1
270
     1
271
     1
  0
XRECORD
  5
15
102
{ACAD_REACTORS
330
12
102
}
330
12
100
AcDbXrecord
280
     1
270
     1
271
     1
  0
XRECORD
  5
24
102
{ACAD_REACTORS
330
22
102
}
330
22
100
AcDbXrecord
280
     1
270
     1
271
     1
  0
XRECORD
  5
23
102
{ACAD_REACTORS
330
22
102
}
330
22
100
AcDbXrecord
280
     1
270
     1
271
     1
  0
XRECORD
  5
27
102
{ACAD_REACTORS
330
22
102
}
330
22
100
AcDbXrecord
280
     1
270
     1
271
     1
  0
XRECORD
  5
26
102
{ACAD_REACTORS
330
22
102
}
330
22
100
AcDbXrecord
280
     1
270
     1
271
     1
  0
XRECORD
  5
28
102
{ACAD_REACTORS
330
22
102
}
330
22
100
AcDbXrecord
280
     1
270
     1
271
     1
  0
XRECORD
  5
25
102
{ACAD_REACTORS
330
22
102
}
330
22
100
AcDbXrecord
280
     1
270
     1
271
     1
  0
XRECORD
  5
106D
102
{ACAD_REACTORS
330
106C
102
}
330
106C
100
AcDbXrecord
280
     1
102
DISPLAYNAME
  1
Imperial24
102
FLAGS
 90
        0
  0
CELLSTYLEMAP
  5
1062
102
{ACAD_REACTORS
330
1061
102
}
330
1061
100
AcDbCellStyleMap
 90
        3
300
CELLSTYLE
  1
TABLEFORMAT_BEGIN
 90
        5
170
     1
 91
        0
 92
    32768
 62
   257
 93
        1
300
CONTENTFORMAT
  1
CONTENTFORMAT_BEGIN
 90
        0
 91
        0
 92
      512
 93
        0
300

 40
0.0
140
1.0
 94
        5
 62
     0
340
55
144
0.25
309
CONTENTFORMAT_END
171
     0
 94
        0
309
TABLEFORMAT_END
  1
CELLSTYLE_BEGIN
 90
        1
 91
        1
300
_TITLE
309
CELLSTYLE_END
300
CELLSTYLE
  1
TABLEFORMAT_BEGIN
 90
        5
170
     1
 91
        0
 92
        0
 62
   257
 93
        1
300
CONTENTFORMAT
  1
CONTENTFORMAT_BEGIN
 90
        0
 91
        0
 92
      512
 93
        0
300

 40
0.0
140
1.0
 94
        5
 62
     0
340
55
144
0.18
309
CONTENTFORMAT_END
171
     0
 94
        0
309
TABLEFORMAT_END
  1
CELLSTYLE_BEGIN
 90
        2
 91
        1
300
_HEADER
309
CELLSTYLE_END
300
CELLSTYLE
  1
TABLEFORMAT_BEGIN
 90
        5
170
     1
 91
        0
 92
        0
 62
   257
 93
        1
300
CONTENTFORMAT
  1
CONTENTFORMAT_BEGIN
 90
        0
 91
        0
 92
      512
 93
        0
300

 40
0.0
140
1.0
 94
        2
 62
     0
340
55
144
0.18
309
CONTENTFORMAT_END
171
     0
 94
        0
309
TABLEFORMAT_END
  1
CELLSTYLE_BEGIN
 90
        3
 91
        2
300
_DATA
309
CELLSTYLE_END
  0
ENDSEC
  0
SECTION
  2
ACDSDATA
 70
     2
 71
     8
  0
ACDSSCHEMA
 90
        0
  1
AcDb_Thumbnail_Schema
  2
AcDbDs::ID
280
    10
 91
        8
  2
Thumbnail_Data
280
    15
 91
        0
101
ACDSRECORD
 95
        0
 90
        1
  2
AcDbDs::TreatedAsObjectData
280
     1
291
     1
101
ACDSRECORD
 95
        0
 90
        2
  2
AcDbDs::Legacy
280
     1
291
     1
101
ACDSRECORD
  1
AcDbDs::ID
 90
        3
  2
AcDs:Indexable
280
     1
291
     1
101
ACDSRECORD
  1
AcDbDs::ID
 90
        4
  2
AcDbDs::HandleAttribute
280
     7
282
     1
  0
ACDSSCHEMA
 90
        1
  1
AcDbDs::TreatedAsObjectDataSchema
  2
AcDbDs::TreatedAsObjectData
280
     1
 91
        0
  0
ACDSSCHEMA
 90
        2
  1
AcDbDs::LegacySchema
  2
AcDbDs::Legacy
280
     1
 91
        0
  0
ACDSSCHEMA
 90
        3
  1
AcDbDs::IndexedPropertySchema
  2
AcDs:Indexable
280
     1
 91
        0
  0
ACDSSCHEMA
 90
        4
  1
AcDbDs::HandleAttributeSchema
  2
AcDbDs::HandleAttribute
280
     7
 91
        1
284
     1
  0
ACDSRECORD
 90
        0
  2
AcDbDs::ID
280
    10
320
72
  2
Thumbnail_Data
280
    15
 94
     1394
310
89504E470D0A1A0A0000000D49484452000001000000005F08030000003003E9C200000300504C5445D6D6D6FFFFFFD6D6D60000000000000000000000000000000000000000000000000000330000660000990000CC0000FF0033000033330033660033990033CC0033FF0066000066330066660066990066CC0066FF0099
310
000099330099660099990099CC0099FF00CC0000CC3300CC6600CC9900CCCC00CCFF00FF0000FF3300FF6600FF9900FFCC00FFFF3300003300333300663300993300CC3300FF3333003333333333663333993333CC3333FF3366003366333366663366993366CC3366FF3399003399333399663399993399CC3399FF33CC00
310
33CC3333CC6633CC9933CCCC33CCFF33FF0033FF3333FF6633FF9933FFCC33FFFF6600006600336600666600996600CC6600FF6633006633336633666633996633CC6633FF6666006666336666666666996666CC6666FF6699006699336699666699996699CC6699FF66CC0066CC3366CC6666CC9966CCCC66CCFF66FF0066
310
FF3366FF6666FF9966FFCC66FFFF9900009900339900669900999900CC9900FF9933009933339933669933999933CC9933FF9966009966339966669966999966CC9966FF9999009999339999669999999999CC9999FF99CC0099CC3399CC6699CC9999CCCC99CCFF99FF0099FF3399FF6699FF9999FFCC99FFFFCC0000CC00
310
33CC0066CC0099CC00CCCC00FFCC3300CC3333CC3366CC3399CC33CCCC33FFCC6600CC6633CC6666CC6699CC66CCCC66FFCC9900CC9933CC9966CC9999CC99CCCC99FFCCCC00CCCC33CCCC66CCCC99CCCCCCCCCCFFCCFF00CCFF33CCFF66CCFF99CCFFCCCCFFFFFF0000FF0033FF0066FF0099FF00CCFF00FFFF3300FF3333
310
FF3366FF3399FF33CCFF33FFFF6600FF6633FF6666FF6699FF66CCFF66FFFF9900FF9933FF9966FF9999FF99CCFF99FFFFCC00FFCC33FFCC66FFCC99FFCCCCFFCCFFFFFF00FFFF33FFFF66FFFF99FFFFCCFFFFFF0000000D0D0D1A1A1A2828283535354343435050505D5D5D6B6B6B787878868686939393A1A1A1AEAEAEBB
310
BBBBC9C9C9D6D6D6E4E4E4F1F1F1FFFFFF0000000000000000000000000000000000000000000000000000000000008A60A2FA0000022D4944415478DAED9B8D4EC5200C8579FFC73C4F62E2061456184C8DB767E74BD4A82C597F69A13725218410DB0078B3F0DF5F8706F04AE3E3F80E348E40EB15C5DAF5D722EBF1333B
310
0348EDDD1A3A21CB9DAD7EFC1B2981CF094ED9ACC0AD328E3F202F61D54042897E5742AB21CAA4DF45FE70199B03D400BF37ED990DCC464192FD574581D92D40A181ECD3D8D25609150217D82AF54C79743C038E0CF07831683CE047BA8B9D0A462F8F35D58DAB86E00A58B06ADD3D832B006B1E708D7F8ECA104F5DA5353E
310
D852C0BA02421F99ECE46F7FE95912058D81D97B636DCF0F2CFD8DF7DF8B651BA388B9AF3FF3F0FBE3A606F68C8F887EEFBC3986213E6E7D435A1F7D0B538EC33C71E6068EAB80AB8C480305CCA32868E6B7B2CEA218776992A101987532A6D4FDED46F2933430DEEEEDA2E238F6C1B8D5CFC4F161456C76C1EEF620A6FC48
310
E64CEBE2C8BD88AD96CA7158E00C006BBF4B3D90AD3C0B7DA380A0BB20E63B02B0DE2185D740C96BD5A85B82456D013D6F5E697FAA7A80D04DA097E467E9A25B7F5E14072E0152E7E9C33660DE2046AE81705FD3FBDD1F28EE03173BE141F0C457009E1E03816262EC79874F3215817F78F213BBC0BD5CC691FB5AF9B7AE74
310
884682CEBBDC3AE932D9D9DC8691220BD81301C01BF4E81A5FD2A94013DA8E02F2B03412F3C8F8E87EBF5A3F817A56DCF437A52FEE2EBCF08E0F0D98E3A14B527CD187054030F2F3B7A5F23BBC4008218410420821841042082184104208218410420821442CBE00014290EF2F488C810000000049454E44AE426082
  0
ENDSEC
  0
EOF
