  0
SECTION
  2
HEADER
  9
$ACADVER
  1
AC1027
  9
$ACADMAINTVER
 70
   125
  9
$DWGCODEPAGE
  3
ANSI_1252
  9
$LASTSAVEDBY
  1
Lebatard
  9
$REQUIREDVERSIONS
160
                 0
  9
$INSBASE
 10
0.0
 20
0.0
 30
0.0
  9
$EXTMIN
 10
-1673.649981355407
 20
-1831.98059040484
 30
0.0
  9
$EXTMAX
 10
1913.055609866405
 20
1712.927699325202
 30
0.0
  9
$LIMMIN
 10
0.0
 20
0.0
  9
$LIMMAX
 10
12.0
 20
9.0
  9
$ORTHOMODE
 70
     0
  9
$REGENMODE
 70
     1
  9
$FILLMODE
 70
     1
  9
$QTEXTMODE
 70
     0
  9
$MIRRTEXT
 70
     0
  9
$LTSCALE
 40
1.0
  9
$ATTMODE
 70
     1
  9
$TEXTSIZE
 40
0.2
  9
$TRACEWID
 40
0.05
  9
$TEXTSTYLE
  7
Standard
  9
$CLAYER
  8
0
  9
$CELTYPE
  6
Continuous
  9
$CECOLOR
 62
   256
  9
$CELTSCALE
 40
1.0
  9
$DISPSILH
 70
     0
  9
$DIMSCALE
 40
1.0
  9
$DIMASZ
 40
0.18
  9
$DIMEXO
 40
0.0625
  9
$DIMDLI
 40
0.38
  9
$DIMRND
 40
0.0
  9
$DIMDLE
 40
0.0
  9
$DIMEXE
 40
0.18
  9
$DIMTP
 40
0.0
  9
$DIMTM
 40
0.0
  9
$DIMTXT
 40
0.18
  9
$DIMCEN
 40
0.09
  9
$DIMTSZ
 40
0.0
  9
$DIMTOL
 70
     0
  9
$DIMLIM
 70
     0
  9
$DIMTIH
 70
     1
  9
$DIMTOH
 70
     1
  9
$DIMSE1
 70
     0
  9
$DIMSE2
 70
     0
  9
$DIMTAD
 70
     0
  9
$DIMZIN
 70
     0
  9
$DIMBLK
  1

  9
$DIMASO
 70
     1
  9
$DIMSHO
 70
     1
  9
$DIMPOST
  1

  9
$DIMAPOST
  1

  9
$DIMALT
 70
     0
  9
$DIMALTD
 70
     2
  9
$DIMALTF
 40
25.4
  9
$DIMLFAC
 40
1.0
  9
$DIMTOFL
 70
     0
  9
$DIMTVP
 40
0.0
  9
$DIMTIX
 70
     0
  9
$DIMSOXD
 70
     0
  9
$DIMSAH
 70
     0
  9
$DIMBLK1
  1

  9
$DIMBLK2
  1

  9
$DIMSTYLE
  2
Standard
  9
$DIMCLRD
 70
     0
  9
$DIMCLRE
 70
     0
  9
$DIMCLRT
 70
     0
  9
$DIMTFAC
 40
1.0
  9
$DIMGAP
 40
0.09
  9
$DIMJUST
 70
     0
  9
$DIMSD1
 70
     0
  9
$DIMSD2
 70
     0
  9
$DIMTOLJ
 70
     1
  9
$DIMTZIN
 70
     0
  9
$DIMALTZ
 70
     0
  9
$DIMALTTZ
 70
     0
  9
$DIMUPT
 70
     0
  9
$DIMDEC
 70
     4
  9
$DIMTDEC
 70
     4
  9
$DIMALTU
 70
     2
  9
$DIMALTTD
 70
     2
  9
$DIMTXSTY
  7
Standard
  9
$DIMAUNIT
 70
     0
  9
$DIMADEC
 70
     0
  9
$DIMALTRND
 40
0.0
  9
$DIMAZIN
 70
     0
  9
$DIMDSEP
 70
    46
  9
$DIMATFIT
 70
     3
  9
$DIMFRAC
 70
     0
  9
$DIMLDRBLK
  1

  9
$DIMLUNIT
 70
     2
  9
$DIMLWD
 70
    -2
  9
$DIMLWE
 70
    -2
  9
$DIMTMOVE
 70
     0
  9
$DIMFXL
 40
1.0
  9
$DIMFXLON
 70
     0
  9
$DIMJOGANG
 40
0.7853981633974483
  9
$DIMTFILL
 70
     0
  9
$DIMTFILLCLR
 70
     0
  9
$DIMARCSYM
 70
     0
  9
$DIMLTYPE
  6

  9
$DIMLTEX1
  6

  9
$DIMLTEX2
  6

  9
$DIMTXTDIRECTION
 70
     0
  9
$LUNITS
 70
     2
  9
$LUPREC
 70
     4
  9
$SKETCHINC
 40
0.1
  9
$FILLETRAD
 40
0.0
  9
$AUNITS
 70
     0
  9
$AUPREC
 70
     0
  9
$MENU
  1
.
  9
$ELEVATION
 40
0.0
  9
$PELEVATION
 40
0.0
  9
$THICKNESS
 40
0.0
  9
$LIMCHECK
 70
     0
  9
$CHAMFERA
 40
0.0
  9
$CHAMFERB
 40
0.0
  9
$CHAMFERC
 40
0.0
  9
$CHAMFERD
 40
0.0
  9
$SKPOLY
 70
     0
  9
$TDCREATE
 40
2460993.460312500
  9
$TDUCREATE
 40
2460993.418645833
  9
$TDUPDATE
 40
2460993.462395833
  9
$TDUUPDATE
 40
2460993.420729167
  9
$TDINDWG
 40
0.0020833333
  9
$TDUSRTIMER
 40
0.0020833333
  9
$USRTIMER
 70
     1
  9
$ANGBASE
 50
0.0
  9
$ANGDIR
 70
     0
  9
$PDMODE
 70
     0
  9
$PDSIZE
 40
0.0
  9
$PLINEWID
 40
0.0
  9
$SPLFRAME
 70
     0
  9
$SPLINETYPE
 70
     6
  9
$SPLINESEGS
 70
     8
  9
$HANDSEED
  5
F6F
  9
$SURFTAB1
 70
     6
  9
$SURFTAB2
 70
     6
  9
$SURFTYPE
 70
     6
  9
$SURFU
 70
     6
  9
$SURFV
 70
     6
  9
$UCSBASE
  2

  9
$UCSNAME
  2

  9
$UCSORG
 10
0.0
 20
0.0
 30
0.0
  9
$UCSXDIR
 10
1.0
 20
0.0
 30
0.0
  9
$UCSYDIR
 10
0.0
 20
1.0
 30
0.0
  9
$UCSORTHOREF
  2

  9
$UCSORTHOVIEW
 70
     0
  9
$UCSORGTOP
 10
0.0
 20
0.0
 30
0.0
  9
$UCSORGBOTTOM
 10
0.0
 20
0.0
 30
0.0
  9
$UCSORGLEFT
 10
0.0
 20
0.0
 30
0.0
  9
$UCSORGRIGHT
 10
0.0
 20
0.0
 30
0.0
  9
$UCSORGFRONT
 10
0.0
 20
0.0
 30
0.0
  9
$UCSORGBACK
 10
0.0
 20
0.0
 30
0.0
  9
$PUCSBASE
  2

  9
$PUCSNAME
  2

  9
$PUCSORG
 10
0.0
 20
0.0
 30
0.0
  9
$PUCSXDIR
 10
1.0
 20
0.0
 30
0.0
  9
$PUCSYDIR
 10
0.0
 20
1.0
 30
0.0
  9
$PUCSORTHOREF
  2

  9
$PUCSORTHOVIEW
 70
     0
  9
$PUCSORGTOP
 10
0.0
 20
0.0
 30
0.0
  9
$PUCSORGBOTTOM
 10
0.0
 20
0.0
 30
0.0
  9
$PUCSORGLEFT
 10
0.0
 20
0.0
 30
0.0
  9
$PUCSORGRIGHT
 10
0.0
 20
0.0
 30
0.0
  9
$PUCSORGFRONT
 10
0.0
 20
0.0
 30
0.0
  9
$PUCSORGBACK
 10
0.0
 20
0.0
 30
0.0
  9
$USERI1
 70
     0
  9
$USERI2
 70
     0
  9
$USERI3
 70
     0
  9
$USERI4
 70
     0
  9
$USERI5
 70
     0
  9
$USERR1
 40
0.0
  9
$USERR2
 40
0.0
  9
$USERR3
 40
0.0
  9
$USERR4
 40
0.0
  9
$USERR5
 40
0.0
  9
$WORLDVIEW
 70
     1
  9
$SHADEDGE
 70
     3
  9
$SHADEDIF
 70
    70
  9
$TILEMODE
 70
     1
  9
$MAXACTVP
 70
    64
  9
$PINSBASE
 10
0.0
 20
0.0
 30
0.0
  9
$PLIMCHECK
 70
     0
  9
$PEXTMIN
 10
1.000000000000000E+20
 20
1.000000000000000E+20
 30
1.000000000000000E+20
  9
$PEXTMAX
 10
-1.000000000000000E+20
 20
-1.000000000000000E+20
 30
-1.000000000000000E+20
  9
$PLIMMIN
 10
0.0
 20
0.0
  9
$PLIMMAX
 10
12.0
 20
9.0
  9
$UNITMODE
 70
     0
  9
$VISRETAIN
 70
     1
  9
$PLINEGEN
 70
     0
  9
$PSLTSCALE
 70
     1
  9
$TREEDEPTH
 70
  3020
  9
$CMLSTYLE
  2
Standard
  9
$CMLJUST
 70
     0
  9
$CMLSCALE
 40
1.0
  9
$PROXYGRAPHICS
 70
     1
  9
$MEASUREMENT
 70
     0
  9
$CELWEIGHT
370
    -1
  9
$ENDCAPS
280
     0
  9
$JOINSTYLE
280
     0
  9
$LWDISPLAY
290
     0
  9
$INSUNITS
 70
     0
  9
$HYPERLINKBASE
  1

  9
$STYLESHEET
  1

  9
$XEDIT
290
     1
  9
$CEPSNTYPE
380
     0
  9
$PSTYLEMODE
290
     1
  9
$FINGERPRINTGUID
  2
{BB023030-090E-2948-A1C5-009995B0820A}
  9
$VERSIONGUID
  2
{0FE5C270-1326-8C47-BE47-75A2EE20AE83}
  9
$EXTNAMES
290
     1
  9
$PSVPSCALE
 40
0.0
  9
$OLESTARTUP
290
     0
  9
$SORTENTS
280
   127
  9
$INDEXCTL
280
     0
  9
$HIDETEXT
280
     0
  9
$XCLIPFRAME
280
     2
  9
$HALOGAP
280
     0
  9
$OBSCOLOR
 70
   257
  9
$OBSLTYPE
280
     0
  9
$INTERSECTIONDISPLAY
280
     0
  9
$INTERSECTIONCOLOR
 70
   257
  9
$DIMASSOC
280
     1
  9
$PROJECTNAME
  1

  9
$CAMERADISPLAY
290
     0
  9
$LENSLENGTH
 40
50.0
  9
$CAMERAHEIGHT
 40
0.0
  9
$STEPSPERSEC
 40
2.0
  9
$STEPSIZE
 40
6.0
  9
$3DDWFPREC
 40
2.0
  9
$PSOLWIDTH
 40
0.25
  9
$PSOLHEIGHT
 40
4.0
  9
$LOFTANG1
 40
1.570796326794896
  9
$LOFTANG2
 40
1.570796326794896
  9
$LOFTMAG1
 40
0.0
  9
$LOFTMAG2
 40
0.0
  9
$LOFTPARAM
 70
     7
  9
$LOFTNORMALS
280
     1
  9
$LATITUDE
 40
37.795
  9
$LONGITUDE
 40
-122.394
  9
$NORTHDIRECTION
 40
0.0
  9
$TIMEZONE
 70
 -8000
  9
$LIGHTGLYPHDISPLAY
280
     1
  9
$TILEMODELIGHTSYNCH
280
     1
  9
$CMATERIAL
347
11
  9
$SOLIDHIST
280
     0
  9
$SHOWHIST
280
     1
  9
$DWFFRAME
280
     2
  9
$DGNFRAME
280
     0
  9
$REALWORLDSCALE
290
     1
  9
$INTERFERECOLOR
 62
     1
  9
$INTERFEREOBJVS
345
33
  9
$INTERFEREVPVS
346
30
  9
$CSHADOW
280
     0
  9
$SHADOWPLANELOCATION
 40
0.0
  0
ENDSEC
  0
SECTION
  2
CLASSES
  0
CLASS
  1
ACDBDICTIONARYWDFLT
  2
AcDbDictionaryWithDefault
  3
ObjectDBX Classes
 90
        0
 91
        1
280
     0
281
     0
  0
CLASS
  1
MATERIAL
  2
AcDbMaterial
  3
ObjectDBX Classes
 90
     1153
 91
        3
280
     0
281
     0
  0
CLASS
  1
VISUALSTYLE
  2
AcDbVisualStyle
  3
ObjectDBX Classes
 90
     4095
 91
       24
280
     0
281
     0
  0
CLASS
  1
SCALE
  2
AcDbScale
  3
ObjectDBX Classes
 90
     1153
 91
       17
280
     0
281
     0
  0
CLASS
  1
TABLESTYLE
  2
AcDbTableStyle
  3
ObjectDBX Classes
 90
     4095
 91
        1
280
     0
281
     0
  0
CLASS
  1
MLEADERSTYLE
  2
AcDbMLeaderStyle
  3
ACDB_MLEADERSTYLE_CLASS
 90
     4095
 91
        1
280
     0
281
     0
  0
CLASS
  1
ACDBSECTIONVIEWSTYLE
  2
AcDbSectionViewStyle
  3
ObjectDBX Classes
 90
     1025
 91
        1
280
     0
281
     0
  0
CLASS
  1
ACDBDETAILVIEWSTYLE
  2
AcDbDetailViewStyle
  3
ObjectDBX Classes
 90
     1025
 91
        1
280
     0
281
     0
  0
CLASS
  1
VARDICTIONARY
  2
CVarDictionary
  3
SPIKERNELAPP|Product Desc: CVarDictionary|Company: 2020 Technologies|WEB Address: www.2020spaces.com
 90
     3071
 91
        1
280
     0
281
     0
  0
CLASS
  1
RAPIDRTRENDERSETTINGS
  2
AcDbRapidRTRenderSettings
  3
ObjectDBX Classes
 90
     1024
 91
        7
280
     0
281
     0
  0
CLASS
  1
NPOCOLLECTION
  2
AcDbImpNonPersistentObjectsCollection
  3
ObjectDBX Classes
 90
     1153
 91
        1
280
     0
281
     0
  0
CLASS
  1
ACAD_EVALUATION_GRAPH
  2
AcDbEvalGraph
  3
ObjectDBX Classes
 90
     1153
 91
        1
280
     0
281
     0
  0
CLASS
  1
ACAECUSTOBJ
  2
AcAeEditorObj
  3
AcAeEditorObj
 90
     1024
 91
        1
280
     0
281
     0
  0
CLASS
  1
ACDB_DYNAMICBLOCKPURGEPREVENTER_VERSION
  2
AcDbDynamicBlockPurgePreventer
  3
ObjectDBX Classes
 90
     1153
 91
        1
280
     0
281
     0
  0
CLASS
  1
SPIFILEHEADER
  2
CSPIFileHeader
  3
SPIKERNELAPP|Product Desc: CSPIFileHeader|Company: 2020 Technologies|WEB Address: www.2020spaces.com
 90
     3071
 91
        1
280
     0
281
     0
  0
CLASS
  1
SPIFILEHEADER
  2
CSPIFHVersion
  3
SPIKERNELAPP|Product Desc: CSPIFHVersion|Company: 2020 Technologies|WEB Address: www.2020spaces.com
 90
     3071
 91
        1
280
     0
281
     0
  0
CLASS
  1
DICTIONARYVAR
  2
AcDbDictionaryVar
  3
ObjectDBX Classes
 90
        0
 91
       27
280
     0
281
     0
  0
CLASS
  1
CELLSTYLEMAP
  2
AcDbCellStyleMap
  3
ObjectDBX Classes
 90
     1152
 91
        1
280
     0
281
     0
  0
CLASS
  1
MENTALRAYRENDERSETTINGS
  2
AcDbMentalRayRenderSettings
  3
SCENEOE
 90
     1024
 91
        1
280
     0
281
     0
  0
ENDSEC
  0
SECTION
  2
TABLES
  0
TABLE
  2
VPORT
  5
8
330
0
100
AcDbSymbolTable
 70
     1
1001
ACAD
1000
DbSaveVer
1071
      123
  0
VPORT
  5
DDE
330
8
100
AcDbSymbolTableRecord
100
AcDbViewportTableRecord
  2
*Active
 70
     0
 10
0.0
 20
0.0
 11
1.0
 21
1.0
 12
849.8386171580163
 22
-56.85705562106386
 13
0.0
 23
0.0
 14
1.0
 24
1.0
 15
0.0
 25
0.0
 16
0.0
 26
0.0
 36
1.0
 17
0.0
 27
0.0
 37
0.0
 40
1721.646534446886
 41
2.686882933709449
 42
50.0
 43
0.0
 44
0.0
 50
0.0
 51
0.0
 71
     0
 72
  1000
 73
     1
 74
     3
 75
     0
 76
     0
 77
     0
 78
     0
281
     0
 65
     1
110
0.0
120
0.0
130
0.0
111
1.0
121
0.0
131
0.0
112
0.0
122
1.0
132
0.0
 79
     0
146
0.0
348
2F
 60
     3
 61
     5
292
     1
282
     1
141
0.0
142
0.0
 63
   250
421
  3355443
1001
ACAD_NAV_VCDISPLAY
1070
     0
  0
ENDTAB
  0
TABLE
  2
LTYPE
  5
5
330
0
100
AcDbSymbolTable
 70
     1
  0
LTYPE
  5
5A
330
5
100
AcDbSymbolTableRecord
100
AcDbLinetypeTableRecord
  2
ByBlock
 70
     0
  3

 72
    65
 73
     0
 40
0.0
  0
LTYPE
  5
5B
330
5
100
AcDbSymbolTableRecord
100
AcDbLinetypeTableRecord
  2
ByLayer
 70
     0
  3

 72
    65
 73
     0
 40
0.0
  0
LTYPE
  5
5C
330
5
100
AcDbSymbolTableRecord
100
AcDbLinetypeTableRecord
  2
Continuous
 70
     0
  3
Solid line
 72
    65
 73
     0
 40
0.0
  0
ENDTAB
  0
TABLE
  2
LAYER
  5
2
102
{ACAD_XDICTIONARY
360
F42
102
}
330
0
100
AcDbSymbolTable
 70
     2
  0
LAYER
  5
54
102
{ACAD_XDICTIONARY
360
F33
102
}
330
2
100
AcDbSymbolTableRecord
100
AcDbLayerTableRecord
  2
0
 70
     0
 62
     7
  6
Continuous
370
    -3
390
F
347
21
348
0
  0
ENDTAB
  0
TABLE
  2
STYLE
  5
3
330
0
100
AcDbSymbolTable
 70
     2
  0
STYLE
  5
55
330
3
100
AcDbSymbolTableRecord
100
AcDbTextStyleTableRecord
  2
Standard
 70
     0
 40
0.0
 41
1.0
 50
0.0
 71
     0
 42
0.2
  3
txt
  4

  0
ENDTAB
  0
TABLE
  2
VIEW
  5
6
330
0
100
AcDbSymbolTable
 70
     1
  0
ENDTAB
  0
TABLE
  2
UCS
  5
7
330
0
100
AcDbSymbolTable
 70
     0
  0
ENDTAB
  0
TABLE
  2
APPID
  5
9
330
0
100
AcDbSymbolTable
 70
     6
  0
APPID
  5
56
330
9
100
AcDbSymbolTableRecord
100
AcDbRegAppTableRecord
  2
ACAD
 70
     0
  0
APPID
  5
5D
330
9
100
AcDbSymbolTableRecord
100
AcDbRegAppTableRecord
  2
AcadAnnotative
 70
     0
  0
APPID
  5
DDD
330
9
100
AcDbSymbolTableRecord
100
AcDbRegAppTableRecord
  2
ACAD_NAV_VCDISPLAY
 70
     0
  0
APPID
  5
F29
330
9
100
AcDbSymbolTableRecord
100
AcDbRegAppTableRecord
  2
ACAUTHENVIRON
 70
     0
  0
APPID
  5
F2D
330
9
100
AcDbSymbolTableRecord
100
AcDbRegAppTableRecord
  2
AcDbDynamicBlockTrueName
 70
     0
  0
APPID
  5
F2E
330
9
100
AcDbSymbolTableRecord
100
AcDbRegAppTableRecord
  2
AcDbDynamicBlockGUID
 70
     0
  0
ENDTAB
  0
TABLE
  2
DIMSTYLE
  5
A
330
0
100
AcDbSymbolTable
 70
     2
100
AcDbDimStyleTable
 71
     0
  0
DIMSTYLE
105
57
330
A
100
AcDbSymbolTableRecord
100
AcDbDimStyleTableRecord
  2
Standard
 70
     0
340
55
  0
ENDTAB
  0
TABLE
  2
BLOCK_RECORD
  5
1
330
0
100
AcDbSymbolTable
 70
     2
  0
BLOCK_RECORD
  5
6F
330
1
100
AcDbSymbolTableRecord
100
AcDbBlockTableRecord
  2
*Model_Space
340
72
 70
     0
280
     1
281
     0
  0
BLOCK_RECORD
  5
6B
330
1
100
AcDbSymbolTableRecord
100
AcDbBlockTableRecord
  2
*Paper_Space
340
6E
 70
     0
280
     1
281
     0
  0
BLOCK_RECORD
  5
E58
102
{ACAD_XDICTIONARY
360
F2A
102
}
330
1
100
AcDbSymbolTableRecord
100
AcDbBlockTableRecord
  2
Vue de dessus Palmier
340
0
310
2800000020000000200000000100200000000000001000000100000001000000000000000000000000000000D6D6D6FFD6D6D6FFD6D6D6FFD6D6D6FFD6D6D6FFD6D6D6FFD6D6D6FFD6D6D6FFD6D6D6FFD6D6D6FFD6D6D6FFD6D6D6FFD6D6D6FFD6D6D6FFD6D6D6FFD6D6D6FFD6D6D6FFD6D6D6FFD6D6D6FFD6D6D6FFD6D6D6
310
FFD6D6D6FFD6D6D6FFD6D6D6FFD6D6D6FFD6D6D6FFD6D6D6FFD6D6D6FFD6D6D6FFD6D6D6FFD6D6D6FFD6D6D6FFD6D6D6FFD6D6D6FFD6D6D6FFD6D6D6FFD6D6D6FFD6D6D6FFD6D6D6FFD6D6D6FFD6D6D6FFD6D6D6FFD6D6D6FFD6D6D6FFD6D6D6FFD6D6D6FFD6D6D6FFD6D6D6FFD6D6D6FFD6D6D6FFD6D6D6FFD6D6D6FFD6D6
310
D6FFD6D6D6FFD6D6D6FFD6D6D6FFD6D6D6FFD6D6D6FFD6D6D6FFD6D6D6FFD6D6D6FFD6D6D6FFD6D6D6FFD6D6D6FFD6D6D6FFD6D6D6FFD6D6D6FFD6D6D6FFD6D6D6FFD6D6D6FFD6D6D6FFD6D6D6FFD6D6D6FFD6D6D6FFD6D6D6FFD6D6D6FFD6D6D6FF000000FF000000FFD6D6D6FFD6D6D6FFD6D6D6FFD6D6D6FFD6D6D6FFD6
310
D6D6FFD6D6D6FFD6D6D6FFD6D6D6FFD6D6D6FFD6D6D6FFD6D6D6FFD6D6D6FFD6D6D6FFD6D6D6FFD6D6D6FFD6D6D6FFD6D6D6FFD6D6D6FFD6D6D6FFD6D6D6FFD6D6D6FFD6D6D6FFD6D6D6FFD6D6D6FFD6D6D6FFD6D6D6FFD6D6D6FFD6D6D6FFD6D6D6FF000000FF000000FFD6D6D6FFD6D6D6FFD6D6D6FFD6D6D6FFD6D6D6FF
310
D6D6D6FFD6D6D6FFD6D6D6FFD6D6D6FFD6D6D6FFD6D6D6FFD6D6D6FFD6D6D6FFD6D6D6FFD6D6D6FFD6D6D6FFD6D6D6FFD6D6D6FFD6D6D6FFD6D6D6FFD6D6D6FFD6D6D6FFD6D6D6FFD6D6D6FFD6D6D6FFD6D6D6FFD6D6D6FFD6D6D6FFD6D6D6FFD6D6D6FF000000FF000000FFD6D6D6FFD6D6D6FFD6D6D6FFD6D6D6FFD6D6D6
310
FFD6D6D6FFD6D6D6FFD6D6D6FFD6D6D6FFD6D6D6FFD6D6D6FFD6D6D6FFD6D6D6FFD6D6D6FFD6D6D6FFD6D6D6FFD6D6D6FFD6D6D6FFD6D6D6FFD6D6D6FFD6D6D6FFD6D6D6FFD6D6D6FFD6D6D6FFD6D6D6FFD6D6D6FFD6D6D6FFD6D6D6FFD6D6D6FF000000FF000000FF000000FF000000FFD6D6D6FFD6D6D6FFD6D6D6FFD6D6
310
D6FF000000FF000000FFD6D6D6FFD6D6D6FFD6D6D6FFD6D6D6FFD6D6D6FFD6D6D6FFD6D6D6FFD6D6D6FFD6D6D6FFD6D6D6FFD6D6D6FFD6D6D6FFD6D6D6FFD6D6D6FFD6D6D6FFD6D6D6FFD6D6D6FFD6D6D6FFD6D6D6FFD6D6D6FFD6D6D6FFD6D6D6FF000000FF000000FF000000FF000000FFD6D6D6FFD6D6D6FFD6D6D6FF00
310
0000FF000000FF000000FFD6D6D6FFD6D6D6FFD6D6D6FFD6D6D6FFD6D6D6FFD6D6D6FFD6D6D6FFD6D6D6FFD6D6D6FFD6D6D6FFD6D6D6FFD6D6D6FFD6D6D6FFD6D6D6FFD6D6D6FFD6D6D6FFD6D6D6FFD6D6D6FFD6D6D6FFD6D6D6FFD6D6D6FFD6D6D6FF000000FF000000FF000000FF000000FFD6D6D6FFD6D6D6FF000000FF
310
000000FF000000FF000000FFD6D6D6FFD6D6D6FFD6D6D6FFD6D6D6FFD6D6D6FFD6D6D6FFD6D6D6FFD6D6D6FFD6D6D6FFD6D6D6FFD6D6D6FFD6D6D6FFD6D6D6FFD6D6D6FFD6D6D6FFD6D6D6FFD6D6D6FFD6D6D6FFD6D6D6FFD6D6D6FFD6D6D6FFD6D6D6FF000000FFD6D6D6FF000000FF000000FF000000FFD6D6D6FF000000
310
FF000000FF000000FF000000FF000000FF000000FF000000FFD6D6D6FFD6D6D6FFD6D6D6FFD6D6D6FFD6D6D6FFD6D6D6FFD6D6D6FFD6D6D6FFD6D6D6FFD6D6D6FFD6D6D6FFD6D6D6FFD6D6D6FFD6D6D6FFD6D6D6FFD6D6D6FFD6D6D6FFD6D6D6FFD6D6D6FF000000FF000000FF000000FF000000FF000000FF000000FF0000
310
00FF000000FF000000FF000000FF000000FF000000FF000000FFD6D6D6FFD6D6D6FFD6D6D6FFD6D6D6FFD6D6D6FFD6D6D6FFD6D6D6FFD6D6D6FFD6D6D6FFD6D6D6FFD6D6D6FFD6D6D6FF000000FF000000FF000000FF000000FFD6D6D6FFD6D6D6FFD6D6D6FF000000FF000000FFD6D6D6FF000000FF000000FF000000FF00
310
0000FF000000FF000000FF000000FF000000FF000000FFD6D6D6FFD6D6D6FFD6D6D6FFD6D6D6FFD6D6D6FFD6D6D6FFD6D6D6FFD6D6D6FFD6D6D6FFD6D6D6FFD6D6D6FFD6D6D6FFD6D6D6FF000000FF000000FF000000FF000000FF000000FF000000FFD6D6D6FF000000FF000000FFD6D6D6FF000000FF000000FF000000FF
310
000000FF000000FF000000FF000000FF000000FF000000FFD6D6D6FFD6D6D6FFD6D6D6FFD6D6D6FFD6D6D6FFD6D6D6FFD6D6D6FFD6D6D6FFD6D6D6FFD6D6D6FF000000FFD6D6D6FFD6D6D6FF000000FF000000FF000000FF000000FF000000FF000000FF000000FF000000FF000000FFD6D6D6FF000000FF000000FF000000
310
FF000000FF000000FF000000FF000000FF000000FF000000FF000000FF000000FF000000FFD6D6D6FFD6D6D6FFD6D6D6FFD6D6D6FFD6D6D6FFD6D6D6FF000000FF000000FF000000FF000000FF000000FF000000FF000000FF000000FF000000FF000000FF000000FF000000FF000000FFD6D6D6FFD6D6D6FF000000FF0000
310
00FF000000FF000000FF000000FF000000FF000000FF000000FF000000FF000000FF000000FF000000FFD6D6D6FFD6D6D6FFD6D6D6FFD6D6D6FFD6D6D6FFD6D6D6FF000000FF000000FF000000FF000000FF000000FF000000FFD6D6D6FF000000FF000000FF000000FF000000FF000000FFD6D6D6FFD6D6D6FFD6D6D6FF00
310
0000FF000000FF000000FFD6D6D6FF000000FF000000FF000000FF000000FF000000FF000000FFD6D6D6FFD6D6D6FFD6D6D6FFD6D6D6FFD6D6D6FFD6D6D6FFD6D6D6FFD6D6D6FFD6D6D6FF000000FF000000FF000000FF000000FFD6D6D6FFD6D6D6FF000000FFD6D6D6FF000000FF000000FFD6D6D6FFD6D6D6FFD6D6D6FF
310
D6D6D6FFD6D6D6FF000000FF000000FF000000FF000000FF000000FFD6D6D6FFD6D6D6FFD6D6D6FFD6D6D6FFD6D6D6FFD6D6D6FFD6D6D6FFD6D6D6FFD6D6D6FFD6D6D6FFD6D6D6FFD6D6D6FFD6D6D6FFD6D6D6FFD6D6D6FF000000FF000000FF000000FFD6D6D6FF000000FFD6D6D6FFD6D6D6FFD6D6D6FFD6D6D6FFD6D6D6
310
FFD6D6D6FFD6D6D6FFD6D6D6FF000000FF000000FF000000FFD6D6D6FFD6D6D6FFD6D6D6FFD6D6D6FFD6D6D6FFD6D6D6FFD6D6D6FFD6D6D6FFD6D6D6FFD6D6D6FFD6D6D6FFD6D6D6FFD6D6D6FFD6D6D6FFD6D6D6FFD6D6D6FFD6D6D6FFD6D6D6FF000000FF000000FF000000FF000000FFD6D6D6FFD6D6D6FFD6D6D6FF0000
310
00FF000000FFD6D6D6FF000000FF000000FF000000FFD6D6D6FFD6D6D6FFD6D6D6FFD6D6D6FFD6D6D6FFD6D6D6FFD6D6D6FFD6D6D6FFD6D6D6FFD6D6D6FFD6D6D6FFD6D6D6FFD6D6D6FFD6D6D6FFD6D6D6FFD6D6D6FFD6D6D6FF000000FF000000FF000000FF000000FF000000FFD6D6D6FFD6D6D6FFD6D6D6FFD6D6D6FF00
310
0000FF000000FFD6D6D6FF000000FF000000FF000000FF000000FF000000FFD6D6D6FFD6D6D6FFD6D6D6FFD6D6D6FFD6D6D6FFD6D6D6FFD6D6D6FFD6D6D6FFD6D6D6FFD6D6D6FFD6D6D6FFD6D6D6FFD6D6D6FF000000FF000000FF000000FF000000FF000000FF000000FF000000FFD6D6D6FFD6D6D6FFD6D6D6FFD6D6D6FF
310
D6D6D6FFD6D6D6FF000000FF000000FF000000FF000000FF000000FF000000FF000000FF000000FFD6D6D6FFD6D6D6FFD6D6D6FFD6D6D6FFD6D6D6FFD6D6D6FFD6D6D6FFD6D6D6FFD6D6D6FFD6D6D6FF000000FF000000FF000000FF000000FF000000FF000000FF000000FF000000FFD6D6D6FFD6D6D6FFD6D6D6FFD6D6D6
310
FF000000FFD6D6D6FF000000FF000000FF000000FF000000FFD6D6D6FFD6D6D6FF000000FF000000FF000000FFD6D6D6FFD6D6D6FFD6D6D6FFD6D6D6FFD6D6D6FFD6D6D6FFD6D6D6FFD6D6D6FF000000FF000000FF000000FF000000FF000000FF000000FF000000FF000000FF000000FFD6D6D6FFD6D6D6FFD6D6D6FF0000
310
00FF000000FF000000FFD6D6D6FF000000FF000000FF000000FF000000FF000000FF000000FF000000FF000000FF000000FF000000FFD6D6D6FFD6D6D6FFD6D6D6FFD6D6D6FFD6D6D6FFD6D6D6FF000000FF000000FF000000FFD6D6D6FFD6D6D6FF000000FF000000FFD6D6D6FFD6D6D6FF000000FF000000FF000000FF00
310
0000FF000000FF000000FFD6D6D6FF000000FF000000FFD6D6D6FF000000FF000000FF000000FF000000FFD6D6D6FFD6D6D6FF000000FF000000FFD6D6D6FFD6D6D6FFD6D6D6FFD6D6D6FFD6D6D6FFD6D6D6FFD6D6D6FFD6D6D6FFD6D6D6FF000000FF000000FFD6D6D6FF000000FF000000FF000000FF000000FF000000FF
310
000000FF000000FF000000FF000000FFD6D6D6FF000000FF000000FFD6D6D6FFD6D6D6FF000000FF000000FF000000FF000000FF000000FF000000FF000000FFD6D6D6FFD6D6D6FFD6D6D6FFD6D6D6FFD6D6D6FFD6D6D6FFD6D6D6FF000000FF000000FF000000FF000000FF000000FF000000FF000000FF000000FF000000
310
FF000000FF000000FF000000FF000000FF000000FF000000FF000000FFD6D6D6FFD6D6D6FFD6D6D6FFD6D6D6FFD6D6D6FFD6D6D6FFD6D6D6FFD6D6D6FFD6D6D6FFD6D6D6FFD6D6D6FFD6D6D6FFD6D6D6FFD6D6D6FFD6D6D6FFD6D6D6FF000000FF000000FF000000FF000000FFD6D6D6FFD6D6D6FFD6D6D6FFD6D6D6FFD6D6
310
D6FF000000FF000000FF000000FF000000FF000000FFD6D6D6FF000000FF000000FFD6D6D6FFD6D6D6FFD6D6D6FFD6D6D6FFD6D6D6FFD6D6D6FFD6D6D6FFD6D6D6FFD6D6D6FFD6D6D6FFD6D6D6FFD6D6D6FFD6D6D6FFD6D6D6FFD6D6D6FF000000FF000000FF000000FFD6D6D6FFD6D6D6FFD6D6D6FFD6D6D6FFD6D6D6FFD6
310
D6D6FF000000FF000000FF000000FFD6D6D6FF000000FFD6D6D6FF000000FF000000FFD6D6D6FFD6D6D6FFD6D6D6FFD6D6D6FFD6D6D6FFD6D6D6FFD6D6D6FFD6D6D6FFD6D6D6FFD6D6D6FFD6D6D6FFD6D6D6FFD6D6D6FFD6D6D6FFD6D6D6FFD6D6D6FF000000FFD6D6D6FFD6D6D6FFD6D6D6FFD6D6D6FFD6D6D6FFD6D6D6FF
310
D6D6D6FF000000FF000000FFD6D6D6FFD6D6D6FF000000FF000000FF000000FF000000FFD6D6D6FFD6D6D6FFD6D6D6FFD6D6D6FFD6D6D6FFD6D6D6FFD6D6D6FFD6D6D6FFD6D6D6FFD6D6D6FFD6D6D6FFD6D6D6FFD6D6D6FFD6D6D6FFD6D6D6FFD6D6D6FF000000FFD6D6D6FFD6D6D6FFD6D6D6FFD6D6D6FFD6D6D6FFD6D6D6
310
FFD6D6D6FFD6D6D6FFD6D6D6FFD6D6D6FFD6D6D6FFD6D6D6FF000000FF000000FF000000FF000000FFD6D6D6FFD6D6D6FFD6D6D6FFD6D6D6FFD6D6D6FFD6D6D6FFD6D6D6FFD6D6D6FFD6D6D6FFD6D6D6FFD6D6D6FFD6D6D6FFD6D6D6FFD6D6D6FFD6D6D6FFD6D6D6FFD6D6D6FFD6D6D6FFD6D6D6FFD6D6D6FFD6D6D6FFD6D6
310
D6FFD6D6D6FFD6D6D6FFD6D6D6FFD6D6D6FFD6D6D6FFD6D6D6FFD6D6D6FF000000FF000000FF000000FFD6D6D6FFD6D6D6FFD6D6D6FFD6D6D6FFD6D6D6FFD6D6D6FFD6D6D6FFD6D6D6FFD6D6D6FFD6D6D6FFD6D6D6FFD6D6D6FFD6D6D6FFD6D6D6FFD6D6D6FFD6D6D6FFD6D6D6FFD6D6D6FFD6D6D6FFD6D6D6FFD6D6D6FFD6
310
D6D6FFD6D6D6FFD6D6D6FFD6D6D6FFD6D6D6FFD6D6D6FFD6D6D6FFD6D6D6FFD6D6D6FFD6D6D6FFD6D6D6FFD6D6D6FFD6D6D6FFD6D6D6FFD6D6D6FFD6D6D6FFD6D6D6FFD6D6D6FFD6D6D6FFD6D6D6FFD6D6D6FFD6D6D6FFD6D6D6FFD6D6D6FFD6D6D6FFD6D6D6FFD6D6D6FFD6D6D6FFD6D6D6FFD6D6D6FFD6D6D6FFD6D6D6FF
310
D6D6D6FFD6D6D6FFD6D6D6FFD6D6D6FFD6D6D6FFD6D6D6FFD6D6D6FFD6D6D6FFD6D6D6FFD6D6D6FFD6D6D6FFD6D6D6FFD6D6D6FFD6D6D6FFD6D6D6FFD6D6D6FFD6D6D6FFD6D6D6FF
102
{BLKREFS
331
EC0
102
}
 70
     0
280
     1
281
     0
1001
AcDbDynamicBlockGUID
1000
{CB93F2A5-4937-C241-AE52-064FF0819296}
  0
ENDTAB
  0
ENDSEC
  0
SECTION
  2
BLOCKS
  0
BLOCK
  5
70
330
6F
100
AcDbEntity
  8
0
100
AcDbBlockBegin
  2
*Model_Space
 70
     0
 10
0.0
 20
0.0
 30
0.0
  3
*Model_Space
  1

  0
ENDBLK
  5
71
330
6F
100
AcDbEntity
  8
0
100
AcDbBlockEnd
  0
BLOCK
  5
6C
330
6B
100
AcDbEntity
 67
     1
  8
0
100
AcDbBlockBegin
  2
*Paper_Space
 70
     0
 10
0.0
 20
0.0
 30
0.0
  3
*Paper_Space
  1

  0
ENDBLK
  5
6D
330
6B
100
AcDbEntity
 67
     1
  8
0
100
AcDbBlockEnd
  0
BLOCK
  5
E59
330
E58
100
AcDbEntity
  8
0
100
AcDbBlockBegin
  2
Vue de dessus Palmier
 70
     0
 10
0.0
 20
0.0
 30
0.0
  3
Vue de dessus Palmier
  1

  0
LWPOLYLINE
  5
EC4
330
E58
100
AcDbEntity
  8
0
  6
ByBlock
 62
     0
370
    -2
100
AcDbPolyline
 90
        8
 70
     1
 43
0.0
 10
-1181.023474452395
 20
599.5224682486257
 10
-1174.62043907601
 20
592.9018341641119
 10
-1168.217403699626
 20
591.6076268483314
 10
-1165.554177465448
 20
596.3651410622207
 10
-1168.217403699626
 20
604.4137233007234
 10
-1174.62043907601
 20
611.0343573852372
 10
-1181.023474452395
 20
612.3285647010177
 10
-1183.686700686573
 20
607.5710504871283
  0
LWPOLYLINE
  5
EC5
330
E58
100
AcDbEntity
  8
0
  6
ByBlock
 62
     0
370
    -2
100
AcDbPolyline
 90
        6
 70
     1
 43
0.0
 10
167.3993291621339
 20
146.744299674074
 10
163.0067238955382
 20
138.0112336759955
 10
177.1478386650701
 20
143.5518411029968
 10
198.9181949242486
 20
160.8763424766782
 10
226.1169797559371
 20
186.5973218857154
 10
190.2055087272269
 20
163.7322130850323
  0
LWPOLYLINE
  5
EC6
330
E58
100
AcDbEntity
  8
0
  6
ByBlock
 62
     0
370
    -2
100
AcDbPolyline
 90
        8
 70
     1
 43
0.0
 10
1196.442689028514
 20
-431.5857278294808
 10
1212.18782006936
 20
-453.8030262326405
 10
1218.375107110471
 20
-456.3445647518083
 10
1214.446174442444
 20
-442.1027331596528
 10
1199.84254355738
 20
-413.9699726280878
 10
1179.668981975446
 20
-384.2768337851008
 10
1175.041070960459
 20
-382.2404727556823
 10
1173.822369137118
 20
-388.5209980291195
  0
LWPOLYLINE
  5
EC7
330
E58
100
AcDbEntity
  8
0
  6
ByBlock
 62
     0
370
    -2
100
AcDbPolyline
 90
        8
 70
     1
 43
0.0
 10
129.0535898407513
 20
1004.69822738426
 10
116.0162995796506
 20
990.1038226638613
 10
137.5044739780446
 20
997.9212110936552
 10
181.7376371391153
 20
1024.165768922525
 10
221.8853055287072
 20
1052.808358575606
 10
233.5694592384373
 20
1066.396417457698
 10
210.7213378885717
 20
1057.572683189597
 10
167.8481216789726
 20
1032.334471199034
  0
LWPOLYLINE
  5
EC8
330
E58
100
AcDbEntity
  8
0
  6
ByBlock
 62
     0
370
    -2
100
AcDbPolyline
 90
        6
 70
     1
 43
0.0
 10
-372.2562865412058
 20
751.8424634263322
 10
-374.6645211157568
 20
754.4229625740015
 10
-367.7231557359244
 20
760.6276739595235
 10
-345.0575017095175
 20
769.4128844927138
 10
-342.6492671349661
 20
766.832385345044
 10
-349.5906325147985
 20
760.6276739595235
  0
LWPOLYLINE
  5
EC9
330
E58
100
AcDbEntity
  8
0
  6
ByBlock
 62
     0
370
    -2
100
AcDbPolyline
 90
        8
 70
     1
 43
0.0
 10
251.8973252941553
 20
691.328563381008
 10
249.0104352408136
 20
695.065005872598
 10
250.0486486116686
 20
701.9564882841438
 10
255.3919343331056
 20
709.8203416323624
 10
260.9234954928031
 20
711.9021909945302
 10
264.9387017953166
 20
707.6263134157023
 10
264.2077531173157
 20
699.6763406307366
 10
258.3294012445551
 20
692.9299068915281
  0
LWPOLYLINE
  5
ECA
330
E58
100
AcDbEntity
  8
0
  6
ByBlock
 62
     0
370
    -2
100
AcDbPolyline
 90
        6
 70
     1
 43
0.0
 10
115.0609417934197
 20
500.9155332750972
 10
122.5077416592316
 20
512.0942524988479
 10
132.0590579547174
 20
519.9184256291194
 10
137.775322305077
 20
517.9510423878926
 10
135.3965651981323
 20
509.9126628997303
 10
125.4905427056926
 20
503.1458493594648
  0
LWPOLYLINE
  5
ECB
330
E58
100
AcDbEntity
  8
0
  6
ByBlock
 62
     0
370
    -2
100
AcDbPolyline
 90
        6
 70
     1
 43
0.0
 10
334.9121190826902
 20
298.5293828981942
 10
332.5038845081392
 20
301.1098820458635
 10
339.4452498879716
 20
307.314593431385
 10
362.1109039143787
 20
316.0998039645753
 10
364.5191384889297
 20
313.5193048169055
 10
357.5777731090973
 20
307.314593431385
  0
LWPOLYLINE
  5
ECC
330
E58
100
AcDbEntity
  8
0
  6
ByBlock
 62
     0
370
    -2
100
AcDbPolyline
 90
        8
 70
     1
 43
0.0
 10
-437.1385571086152
 20
-179.0325512330173
 10
-440.0254471619566
 20
-175.2961087414275
 10
-438.9872337911017
 20
-168.4046263298814
 10
-433.6439480696649
 20
-160.5407729816631
 10
-428.1123869099672
 20
-158.4589236194956
 10
-424.0971806074542
 20
-162.7348011983236
 10
-424.8281292854549
 20
-170.6847739832894
 10
-430.7064811582153
 20
-177.4312077224976
  0
LWPOLYLINE
  5
ECD
330
E58
100
AcDbEntity
  8
0
  6
ByBlock
 62
     0
370
    -2
100
AcDbPolyline
 90
        8
 70
     1
 43
0.0
 10
-334.6970327831741
 20
-206.7990921365145
 10
-339.4545469970635
 20
-209.4623183706933
 10
-347.5031292355659
 20
-206.7990921365145
 10
-354.1237633200799
 20
-200.3960567601305
 10
-355.4179706358604
 20
-193.993021383746
 10
-350.660456421971
 20
-191.3297951495674
 10
-342.6118741834685
 20
-193.993021383746
 10
-335.9912400989547
 20
-200.3960567601305
  0
LWPOLYLINE
  5
ECE
330
E58
100
AcDbEntity
  8
0
  6
ByBlock
 62
     0
370
    -2
100
AcDbPolyline
 90
        8
 70
     1
 43
0.0
 10
481.8422094227978
 20
-270.2629234104538
 10
475.4391740464131
 20
-272.9261496446325
 10
469.0361386700289
 20
-270.2629234104538
 10
466.3729124358503
 20
-263.8598880340696
 10
469.0361386700289
 20
-257.4568526576852
 10
475.4391740464131
 20
-254.7936264235072
 10
481.8422094227978
 20
-257.4568526576852
 10
484.505435656976
 20
-263.8598880340696
  0
LWPOLYLINE
  5
ECF
330
E58
100
AcDbEntity
  8
0
  6
ByBlock
 62
     0
370
    -2
100
AcDbPolyline
 90
        7
 70
     1
 43
0.0
 10
-672.4934688796827
 20
-388.0722055122808
 10
-681.2616919620556
 20
-380.4973444249483
 10
-681.8835714399497
 20
-377.7137154569102
 10
-679.1651167158961
 20
-377.274277602852
 10
-665.7402504399965
 20
-383.0812359228569
 10
-653.9926443610245
 20
-391.4176539392095
 10
-659.7746483470748
 20
-392.736789889321
  0
LWPOLYLINE
  5
ED0
330
E58
100
AcDbEntity
  8
0
  6
ByBlock
 62
     0
370
    -2
100
AcDbPolyline
 90
        8
 70
     1
 43
0.0
 10
753.8300577396805
 20
-460.654417232272
 10
747.4270223632959
 20
-463.3176434664505
 10
741.0239869869116
 20
-460.654417232272
 10
738.3607607527335
 20
-454.2513818558878
 10
741.0239869869116
 20
-447.8483464795033
 10
747.4270223632959
 20
-445.1851202453251
 10
753.8300577396805
 20
-447.8483464795033
 10
756.4932839738587
 20
-454.2513818558878
  0
LWPOLYLINE
  5
ED1
330
E58
100
AcDbEntity
  8
0
  6
ByBlock
 62
     0
370
    -2
100
AcDbPolyline
 90
        6
 70
     1
 43
0.0
 10
-1058.883934369425
 20
-523.9199245153484
 10
-1061.292168943976
 20
-526.5004236630179
 10
-1083.957822970383
 20
-517.7152131298271
 10
-1090.899188350215
 20
-511.5105017443059
 10
-1088.490953775664
 20
-508.9300025966362
 10
-1065.825299749257
 20
-517.7152131298271
  0
LWPOLYLINE
  5
ED2
330
E58
100
AcDbEntity
  8
0
  6
ByBlock
 62
     0
370
    -2
100
AcDbPolyline
 90
        7
 70
     1
 43
0.0
 10
356.9918731034347
 20
-816.0337644119511
 10
339.6900387972589
 20
-805.1338346987467
 10
326.7932740748449
 20
-794.2361922519917
 10
325.1480356082027
 20
-790.9207609847531
 10
327.2511385586101
 20
-789.7030614467102
 10
337.9515877979154
 20
-794.2361922519917
 10
349.6720036757295
 20
-805.1338346987467
  0
LWPOLYLINE
  5
ED3
330
E58
100
AcDbEntity
  8
0
  6
ByBlock
 62
     0
370
    -2
100
AcDbPolyline
 90
        7
 70
     1
 43
0.0
 10
449.7340513047813
 20
-1147.820395063939
 10
438.0136354269668
 20
-1136.922752617184
 10
430.6937659992615
 20
-1126.02282290398
 10
447.9956003054374
 20
-1136.922752617184
 10
460.8923650278518
 20
-1147.820395063939
 10
462.5376034944935
 20
-1151.135826331178
 10
460.4345005440861
 20
-1152.353525869221
  0
LWPOLYLINE
  5
ED4
330
E58
100
AcDbEntity
  8
0
  6
ByBlock
 62
     0
370
    -2
100
AcDbPolyline
 90
        7
 70
     1
 43
0.0
 10
279.1156418393405
 20
798.9201636620038
 10
276.3134577434805
 20
804.1298627429704
 10
282.7811019721428
 20
818.8602698684032
 10
288.4441167035996
 20
819.4699677249843
 10
292.509205974399
 20
811.3080758485764
 10
291.7238511944604
 20
801.1255254124163
 10
285.7095226162885
 20
796.8927204017739
  0
LWPOLYLINE
  5
ED5
330
E58
100
AcDbEntity
  8
0
  6
ByBlock
 62
     0
370
    -2
100
AcDbPolyline
 90
        6
 70
     1
 43
0.0
 10
-49.73082344078125
 20
582.7147605943003
 10
-36.91339345463666
 20
593.6633910931316
 10
-23.3729302743825
 20
600.757746328816
 10
-16.14259833328719
 20
598.9036984251181
 10
-20.30287900776125
 20
591.5566387962551
 10
-34.16633505015943
 20
585.4403084143079
  0
LWPOLYLINE
  5
ED6
330
E58
100
AcDbEntity
  8
0
  6
ByBlock
 62
     0
370
    -2
100
AcDbPolyline
 90
        6
 70
     1
 43
0.0
 10
149.0560176329795
 20
525.4522483556431
 10
158.1200176767161
 20
538.4226681976395
 10
168.2923653625362
 20
547.725777533976
 10
171.7194100925603
 20
542.9195368348362
 10
167.7245835911039
 20
533.1438371307428
 10
158.1200176767161
 20
526.4552018437118
  0
LWPOLYLINE
  5
ED7
330
E58
100
AcDbEntity
  8
0
  6
ByBlock
 62
     0
370
    -2
100
AcDbPolyline
 90
        6
 70
     1
 43
0.0
 10
-623.0902868555918
 20
-170.4637829249207
 10
-618.4687493471137
 20
-155.0647487073165
 10
-610.7102901529099
 20
-138.7488804383917
 10
-611.34268077662
 20
-152.9976509287635
 10
-615.1142289532583
 20
-168.1552885873191
 10
-620.8441141038193
 20
-175.6633049551701
  0
LWPOLYLINE
  5
ED8
330
E58
100
AcDbEntity
  8
0
  6
ByBlock
 62
     0
370
    -2
100
AcDbPolyline
 90
        6
 70
     1
 43
0.0
 10
-467.3840322495975
 20
-285.5384452398127
 10
-481.0514258679588
 20
-277.2507537087108
 10
-490.7024567007713
 20
-268.1164908956311
 10
-488.4404272815938
 20
-264.1500110783686
 10
-478.6873946450062
 20
-267.7957852999355
 10
-470.3079040604684
 20
-276.9697026313388
  0
LWPOLYLINE
  5
ED9
330
E58
100
AcDbEntity
  8
0
  6
ByBlock
 62
     0
370
    -2
100
AcDbPolyline
 90
        7
 70
     1
 43
0.0
 10
-990.9493195756562
 20
-389.3879491121538
 10
-993.0232277543101
 20
-380.9687783096697
 10
-987.7058472528801
 20
-361.5363938556991
 10
-982.5533812323842
 20
-357.0470295084244
 10
-977.3567118602899
 20
-358.3756743190545
 10
-977.4587136640654
 20
-365.9573201068649
 10
-983.1228591789354
 20
-378.7747500930093
  0
LWPOLYLINE
  5
EDA
330
E58
100
AcDbEntity
  8
0
  6
ByBlock
 62
     0
370
    -2
100
AcDbPolyline
 90
        7
 70
     1
 43
0.0
 10
333.0467376452395
 20
-430.7221690966853
 10
331.1586891402824
 20
-415.1848709072212
 10
333.1510010158411
 20
-403.4066565772297
 10
339.4543218548986
 20
-420.3163660353309
 10
342.5901127572113
 20
-436.959750300052
 10
341.5056914641616
 20
-440.4502730989415
 10
338.674620992025
 20
-440.1805555553223
  0
LWPOLYLINE
  5
EDB
330
E58
100
AcDbEntity
  8
0
  6
ByBlock
 62
     0
370
    -2
100
AcDbPolyline
 90
        7
 70
     1
 43
0.0
 10
491.0671405059003
 20
-415.3231091794585
 10
485.0403476105618
 20
-417.9863354136366
 10
470.9060432411318
 20
-408.9200738030743
 10
471.1021056651691
 20
-402.5170384266896
 10
479.4373928981083
 20
-399.8538121925112
 10
489.4182269931659
 20
-402.5170384266896
 10
493.5716972675384
 20
-408.9200738030743
  0
LWPOLYLINE
  5
EDC
330
E58
100
AcDbEntity
  8
0
  6
ByBlock
 62
     0
370
    -2
100
AcDbPolyline
 90
        7
 70
     1
 43
0.0
 10
-896.0708859102034
 20
-424.3893707900211
 10
-902.0976788055412
 20
-427.0525970241995
 10
-916.2319831749718
 20
-417.9863354136366
 10
-916.0359207509342
 20
-411.5833000372524
 10
-907.7006335179952
 20
-408.9200738030743
 10
-897.7197994229374
 20
-411.5833000372524
 10
-893.5663291485647
 20
-417.9863354136366
  0
LWPOLYLINE
  5
EDD
330
E58
100
AcDbEntity
  8
0
  6
ByBlock
 62
     0
370
    -2
100
AcDbPolyline
 90
        7
 70
     1
 43
0.0
 10
84.85216571411298
 20
954.4564152617052
 10
69.57890545157988
 20
957.0935563785162
 10
53.62568456312283
 20
963.0931590726966
 10
44.11178691875739
 20
970.2487051107967
 10
42.57831611263941
 20
976.7197416896982
 10
48.13606518819733
 20
977.7714473626399
 10
72.52544432995591
 20
965.0718758476758
  0
LWPOLYLINE
  5
EDE
330
E58
100
AcDbEntity
  8
0
  6
ByBlock
 62
     0
370
    -2
100
AcDbPolyline
 90
        8
 70
     1
 43
0.0
 10
336.782023653793
 20
773.6887620715422
 10
330.3789882774093
 20
769.6939355700858
 10
323.9759529010246
 20
773.6887620715422
 10
321.3127266668464
 20
783.29332798593
 10
323.9759529010246
 20
792.8978939003179
 10
330.3789882774093
 20
796.8927204017739
 10
336.782023653793
 20
792.8978939003179
 10
339.4452498879716
 20
783.29332798593
  0
LWPOLYLINE
  5
EDF
330
E58
100
AcDbEntity
  8
0
  6
ByBlock
 62
     0
370
    -2
100
AcDbPolyline
 90
        8
 70
     1
 43
0.0
 10
-0.0012562043068556
 20
563.8331447613206
 10
-9.605822118694732
 20
561.169918527142
 10
-19.21038803308283
 20
563.8331447613206
 10
-23.20521453453921
 20
570.2361801377053
 10
-19.21038803308283
 20
576.639215514089
 10
-9.605822118694732
 20
579.3024417482676
 10
-0.0012562043068556
 20
576.639215514089
 10
3.993570297149062
 20
570.2361801377053
  0
LWPOLYLINE
  5
EE0
330
E58
100
AcDbEntity
  8
0
  6
ByBlock
 62
     0
370
    -2
100
AcDbPolyline
 90
        7
 70
     1
 43
0.0
 10
-729.6347302969206
 20
340.5039089903264
 10
-740.1561045630062
 20
354.9124540370274
 10
-750.5641948908098
 20
375.3115555106053
 10
-729.3853925543583
 20
354.9124540370274
 10
-717.5958703902369
 20
340.5039089903264
 10
-716.4689419207088
 20
336.1223545616301
 10
-718.9773279261778
 20
334.5133782630731
  0
LWPOLYLINE
  5
EE1
330
E58
100
AcDbEntity
  8
0
  6
ByBlock
 62
     0
370
    -2
100
AcDbPolyline
 90
        7
 70
     1
 43
0.0
 10
386.8142039513548
 20
314.7682036972976
 10
393.0359284873168
 20
323.03548972772
 10
404.9705250233989
 20
330.4142883910151
 10
415.7015825137238
 20
331.2857883073245
 10
417.7468613123307
 20
329.1702210397513
 10
416.0166341923538
 20
326.1996273142265
 10
402.9090811619109
 20
319.2639158514587
  0
LWPOLYLINE
  5
EE2
330
E58
100
AcDbEntity
  8
0
  6
ByBlock
 62
     0
370
    -2
100
AcDbPolyline
 90
        8
 70
     1
 43
0.0
 10
-605.88703630333
 20
72.21395373049972
 10
-611.2165984260723
 20
75.48361396913538
 10
-612.512219221119
 20
80.46767035996641
 10
-605.6864507456407
 20
83.75077150144262
 10
-588.0695904604577
 20
78.20109210751411
 10
-573.9907972767555
 20
70.59791003561099
 10
-572.1876089270185
 20
68.49241702026279
 10
-574.4701980446136
 20
67.96529205245224
  0
LWPOLYLINE
  5
EE3
330
E58
100
AcDbEntity
  8
0
  6
ByBlock
 62
     0
370
    -2
100
AcDbPolyline
 90
        7
 70
     1
 43
0.0
 10
-526.2013973807272
 20
-122.9701856898791
 10
-530.5532173455863
 20
-126.0255110725088
 10
-520.0431509136303
 20
-96.04679801849783
 10
-511.668748854451
 20
-81.58736771821237
 10
-506.0652544499137
 20
-77.15837178541733
 10
-507.5045104380319
 20
-87.38170752331347
 10
-516.2466484030374
 20
-106.6690433049461
  0
LWPOLYLINE
  5
EE4
330
E58
100
AcDbEntity
  8
0
  6
ByBlock
 62
     0
370
    -2
100
AcDbPolyline
 90
        7
 70
     1
 43
0.0
 10
624.2358023070071
 20
-142.8048977422643
 10
639.3571777974787
 20
-120.6492270351116
 10
654.1601349587033
 20
-103.2726068259412
 10
658.1243532091396
 20
-100.8888896917533
 10
658.9403162400978
 20
-103.4595972830514
 10
651.5161834417916
 20
-117.4794355315405
 10
636.9999569746267
 20
-133.3419881499751
  0
LWPOLYLINE
  5
EE5
330
E58
100
AcDbEntity
  8
0
  6
ByBlock
 62
     0
370
    -2
100
AcDbPolyline
 90
        7
 70
     1
 43
0.0
 10
-540.1657244434882
 20
-302.0639710333535
 10
-558.1146495577424
 20
-289.961658757428
 10
-571.0442840980022
 20
-278.1539926594528
 10
-572.5814299502124
 20
-274.515722727808
 10
-570.2997146197999
 20
-273.1256044189085
 10
-559.3170578200868
 20
-277.9318708176711
 10
-547.6340605933931
 20
-289.7622039831515
  0
LWPOLYLINE
  5
EE6
330
E58
100
AcDbEntity
  8
0
  6
ByBlock
 62
     0
370
    -2
100
AcDbPolyline
 90
        6
 70
     1
 43
0.0
 10
943.5551860361531
 20
-350.6897394610198
 10
937.818516185114
 20
-340.923111723853
 10
930.0306052229268
 20
-309.1911960868836
 10
932.0818463340758
 20
-303.9576991549982
 10
937.818516185114
 20
-313.724326892165
 10
945.6064271473012
 20
-345.4562425291344
  0
LWPOLYLINE
  5
EE7
330
E58
100
AcDbEntity
  8
0
  6
ByBlock
 62
     0
370
    -2
100
AcDbPolyline
 90
        8
 70
     1
 43
0.0
 10
-770.2368451204159
 20
-390.5733699236805
 10
-774.5751984828114
 20
-386.9750372062126
 10
-775.7049282112486
 20
-381.4039757259293
 10
-770.2481786541686
 20
-377.6267479326029
 10
-755.3058524372938
 20
-383.6070759095164
 10
-744.2246118836676
 20
-391.5389047606284
 10
-743.44632450006
 20
-393.7619992509271
 10
-746.2395908267312
 20
-394.3505977170071
  0
LWPOLYLINE
  5
EE8
330
E58
100
AcDbEntity
  8
0
  6
ByBlock
 62
     0
370
    -2
100
AcDbPolyline
 90
        8
 70
     1
 43
0.0
 10
525.8419172083338
 20
-415.3231091794585
 10
516.2373512939459
 20
-417.9863354136366
 10
506.6327853795576
 20
-415.3231091794585
 10
502.6379588781012
 20
-408.9200738030743
 10
506.6327853795576
 20
-402.5170384266896
 10
516.2373512939459
 20
-399.8538121925112
 10
525.8419172083338
 20
-402.5170384266896
 10
529.8367437097897
 20
-408.9200738030743
  0
LWPOLYLINE
  5
EE9
330
E58
100
AcDbEntity
  8
0
  6
ByBlock
 62
     0
370
    -2
100
AcDbPolyline
 90
        8
 70
     1
 43
0.0
 10
689.034626198463
 20
-415.3231091794585
 10
679.4300602840751
 20
-417.9863354136366
 10
669.8254943696873
 20
-415.3231091794585
 10
665.8306678682313
 20
-408.9200738030743
 10
669.8254943696873
 20
-402.5170384266896
 10
679.4300602840751
 20
-399.8538121925112
 10
689.034626198463
 20
-402.5170384266896
 10
693.0294526999193
 20
-408.9200738030743
  0
LWPOLYLINE
  5
EEA
330
E58
100
AcDbEntity
  8
0
  6
ByBlock
 62
     0
370
    -2
100
AcDbPolyline
 90
        6
 70
     1
 43
0.0
 10
216.7957264857469
 20
-467.9346321416537
 10
217.0507181453743
 20
-471.7402066191737
 10
185.3188025084046
 20
-458.7845126611691
 10
171.9744017521877
 20
-449.6343931806843
 10
171.7194100925603
 20
-445.8288187031648
 10
203.45132572953
 20
-458.7845126611691
  0
LWPOLYLINE
  5
EEB
330
E58
100
AcDbEntity
  8
0
  6
ByBlock
 62
     0
370
    -2
100
AcDbPolyline
 90
        6
 70
     1
 43
0.0
 10
1291.49904118415
 20
-507.5372115269426
 10
1279.199535700774
 20
-488.585307224997
 10
1262.689866574637
 20
-458.7845126611691
 10
1281.366373716277
 20
-481.4501666875762
 10
1293.918609292453
 20
-499.5532124410951
 10
1297.876017142789
 20
-511.2509612514038
  0
LWPOLYLINE
  5
EEC
330
E58
100
AcDbEntity
  8
0
  6
ByBlock
 62
     0
370
    -2
100
AcDbPolyline
 90
        8
 70
     1
 43
0.0
 10
744.7637961291177
 20
-495.5878634072455
 10
738.3607607527335
 20
-499.5826899087017
 10
731.9577253763493
 20
-495.5878634072455
 10
729.2944991421706
 20
-485.9832974928572
 10
731.9577253763493
 20
-476.3787315784693
 10
738.3607607527335
 20
-472.3839050770134
 10
744.7637961291177
 20
-476.3787315784693
 10
747.4270223632959
 20
-485.9832974928572
  0
LWPOLYLINE
  5
EED
330
E58
100
AcDbEntity
  8
0
  6
ByBlock
 62
     0
370
    -2
100
AcDbPolyline
 90
        8
 70
     1
 43
0.0
 10
879.4261200202811
 20
-533.1845101167742
 10
869.8215541058932
 20
-535.8477363509526
 10
860.2169881915054
 20
-533.1845101167742
 10
856.2221616900494
 20
-526.7814747403897
 10
860.2169881915054
 20
-520.3784393640055
 10
869.8215541058932
 20
-517.7152131298271
 10
879.4261200202811
 20
-520.3784393640055
 10
883.4209465217375
 20
-526.7814747403897
  0
LWPOLYLINE
  5
EEE
330
E58
100
AcDbEntity
  8
0
  6
ByBlock
 62
     0
370
    -2
100
AcDbPolyline
 90
        7
 70
     1
 43
0.0
 10
121.7019813786134
 20
879.1486557217069
 10
141.3746316082197
 20
892.4148525250668
 10
160.8228984292179
 20
902.3106722671661
 10
165.1944043053122
 20
902.8770405593316
 10
164.965035169838
 20
900.1846452530228
 10
153.2638940092906
 20
890.3500163133392
 10
134.6202566854974
 20
881.7257368195143
  0
LWPOLYLINE
  5
EEF
330
E58
100
AcDbEntity
  8
0
  6
ByBlock
 62
     0
370
    -2
100
AcDbPolyline
 90
        6
 70
     1
 43
0.0
 10
-113.7556260860515
 20
680.6519119926218
 10
-118.4812727673929
 20
682.5133356881272
 10
-109.3346998348852
 20
688.0975810750207
 10
-73.06965339263456
 20
695.6225848936899
 10
-63.03556967867462
 20
693.9679917642681
 10
-77.60278419791598
 20
688.0975810750207
  0
LWPOLYLINE
  5
EF0
330
E58
100
AcDbEntity
  8
0
  6
ByBlock
 62
     0
370
    -2
100
AcDbPolyline
 90
        7
 70
     1
 43
0.0
 10
-669.494811165817
 20
-299.3010302618488
 10
-688.8320042161133
 20
-294.6217200008164
 10
-698.9612793337478
 20
-288.355792113256
 10
-703.1748353267467
 20
-281.0223275849724
 10
-700.6844390573931
 20
-274.4734982471823
 10
-694.2672431887236
 20
-273.4213813802723
 10
-675.9760504950584
 20
-286.5255420604767
  0
LWPOLYLINE
  5
EF1
330
E58
100
AcDbEntity
  8
0
  6
ByBlock
 62
     0
370
    -2
100
AcDbPolyline
 90
        6
 70
     1
 43
0.0
 10
-589.8465651947119
 20
-355.6829963168925
 10
-625.9484190307714
 20
-332.4370962018879
 10
-648.8293844988593
 20
-316.0328212297666
 10
-653.1472038624597
 20
-309.236530221895
 10
-638.8701123875176
 20
-316.0860965482916
 10
-617.0453500264004
 20
-332.4824303368994
  0
LWPOLYLINE
  5
EF2
330
E58
100
AcDbEntity
  8
0
  6
ByBlock
 62
     0
370
    -2
100
AcDbPolyline
 90
        7
 70
     1
 43
0.0
 10
-723.6951876217435
 20
-352.8792445440281
 10
-734.8301146878639
 20
-343.615507030162
 10
-739.4398817689975
 20
-335.4108252814219
 10
-732.4214689193443
 20
-334.2922748889991
 10
-715.5502831961534
 20
-344.794400137441
 10
-700.5478969602757
 20
-358.067407340902
 10
-698.0161242978563
 20
-363.5887657502603
  0
LWPOLYLINE
  5
EF3
330
E58
100
AcDbEntity
  8
0
  6
ByBlock
 62
     0
370
    -2
100
AcDbPolyline
 90
        7
 70
     1
 43
0.0
 10
400.2050696259959
 20
-413.9246384930766
 10
393.8428195513481
 20
-413.4532046083552
 10
387.4805694767003
 20
-403.660517453444
 10
384.9125603458194
 20
-387.9860860755332
 10
386.7428103985992
 20
-374.6541496364819
 10
393.8428195513481
 20
-381.7212889713855
 10
402.7730787568769
 20
-407.188407504208
  0
LWPOLYLINE
  5
EF4
330
E58
100
AcDbEntity
  8
0
  6
ByBlock
 62
     0
370
    -2
100
AcDbPolyline
 90
        8
 70
     1
 43
0.0
 10
-1005.024694709496
 20
-459.4814864375344
 10
-1011.427730085881
 20
-463.3176434664505
 10
-1017.830765462265
 20
-457.8325472251769
 10
-1020.493991696443
 20
-444.6502082917389
 10
-1017.830765462265
 20
-433.1133905207957
 10
-1011.427730085881
 20
-431.5857278294808
 10
-1005.024694709496
 20
-439.3793184083561
 10
-1002.361468475318
 20
-450.2531630041926
  0
LWPOLYLINE
  5
EF5
330
E58
100
AcDbEntity
  8
0
  6
ByBlock
 62
     0
370
    -2
100
AcDbPolyline
 90
        8
 70
     1
 43
0.0
 10
832.6045422276504
 20
-533.1845101167742
 10
819.4222032942123
 20
-535.8477363509526
 10
807.885385523269
 20
-533.1845101167742
 10
806.3577228319543
 20
-526.7814747403897
 10
814.1513134108292
 20
-520.3784393640055
 10
825.0251580066658
 20
-517.7152131298271
 10
834.2534814400076
 20
-520.3784393640055
 10
838.0896384689238
 20
-526.7814747403897
  0
LWPOLYLINE
  5
EF6
330
E58
100
AcDbEntity
  8
0
  6
ByBlock
 62
     0
370
    -2
100
AcDbPolyline
 90
        6
 70
     1
 43
0.0
 10
-268.4883789719604
 20
-583.5872789783177
 10
-266.8247395752346
 20
-590.2453060143293
 10
-295.1930628514221
 20
-567.5796519879225
 10
-308.5589998917314
 20
-551.572024997527
 10
-310.7870287096505
 20
-544.9139979615156
 10
-282.4187054334632
 20
-567.5796519879225
  0
LWPOLYLINE
  5
EF7
330
E58
100
AcDbEntity
  8
0
  6
ByBlock
 62
     0
370
    -2
100
AcDbPolyline
 90
        8
 70
     1
 43
0.0
 10
-644.3499659056945
 20
107.6501616306584
 10
-662.2825974589525
 20
104.1249443406889
 10
-678.1838280100355
 20
103.8754781000111
 10
-685.042312105621
 20
107.6845734258852
 10
-676.6084154191453
 20
114.2077545398988
 10
-656.3294596831967
 20
116.9230996095666
 10
-637.165661989432
 20
115.9654802565096
 10
-631.3972531039605
 20
113.6683194526606
  0
LWPOLYLINE
  5
EF8
330
E58
100
AcDbEntity
  8
0
  6
ByBlock
 62
     0
370
    -2
100
AcDbPolyline
 90
       10
 70
     1
 43
0.0
 10
699.0199834271727
 20
-349.1960773709636
 10
691.9687007596738
 20
-354.5225041396975
 10
686.4749694450645
 20
-351.037660957496
 10
684.1796590140736
 20
-342.7114199918606
 10
685.2892659376846
 20
-332.7362655134907
 10
690.0103894853739
 20
-324.3046560934638
 10
697.9792000940153
 20
-318.6720954152881
 10
703.572388949721
 20
-319.2060050835764
 10
706.0631964130427
 20
-325.3105907378026
 10
704.7249399434019
 20
-336.3899809185716
  0
LWPOLYLINE
  5
EF9
330
E58
100
AcDbEntity
  8
0
  6
ByBlock
 62
     0
370
    -2
100
AcDbPolyline
 90
        6
 70
     1
 43
0.0
 10
-1278.882447597482
 20
390.8874031346029
 10
-1288.603741199638
 20
392.2495859532776
 10
-1274.349316792201
 20
397.9772095370124
 10
-1229.018008739387
 20
405.0670159394214
 10
-1214.485925604817
 20
403.7966064745599
 10
-1233.551139544668
 20
397.9772095370124
  0
LWPOLYLINE
  5
EFA
330
E58
100
AcDbEntity
  8
0
  6
ByBlock
 62
     0
370
    -2
100
AcDbPolyline
 90
        8
 70
     1
 43
0.0
 10
-354.961391133246
 20
92.27816341647349
 10
-365.1222767871977
 20
90.10736765902583
 10
-379.9834435945681
 20
92.27816341647349
 10
-394.9219405676124
 20
98.7905763884412
 10
-400.6676823855782
 20
105.7920017872766
 10
-384.1240126581838
 20
107.7208355939694
 10
-365.2480764418922
 20
105.152826463089
 10
-354.1237633200799
 20
98.7905763884412
  0
LWPOLYLINE
  5
EFB
330
E58
100
AcDbEntity
  8
0
  6
ByBlock
 62
     0
370
    -2
100
AcDbPolyline
 90
        8
 70
     1
 43
0.0
 10
237.4396168686119
 20
-350.8789914849562
 10
238.7190726007775
 20
-358.5388669252461
 10
228.463997828449
 20
-357.1222523050108
 10
211.5384317029429
 20
-345.982082515794
 10
199.7260882735779
 20
-333.6608865505873
 10
199.7715509067045
 20
-328.0229546512
 10
209.4742893810373
 20
-329.9139843124271
 10
226.6337477756697
 20
-340.1796730290641
  0
LWPOLYLINE
  5
EFC
330
E58
100
AcDbEntity
  8
0
  6
ByBlock
 62
     0
370
    -2
100
AcDbPolyline
 90
        7
 70
     1
 43
0.0
 10
317.2238395451279
 20
-423.6334934776889
 10
307.7133342510017
 20
-417.9863354136366
 10
298.2028289568755
 20
-404.3495500462952
 10
294.4312550806142
 20
-387.4149119538624
 10
296.6116881966952
 20
-374.2778814558126
 10
307.7133342510017
 20
-390.7875505819484
 10
320.9954134213897
 20
-421.358974041723
  0
LWPOLYLINE
  5
EFD
330
E58
100
AcDbEntity
  8
0
  6
ByBlock
 62
     0
370
    -2
100
AcDbPolyline
 90
        5
 70
     1
 43
0.0
 10
184.8654868579144
 20
-417.6554270676015
 10
149.0537560661534
 20
-394.9671059736891
 10
192.1184858665151
 20
-412.8548402855272
 10
220.4324287403872
 20
-428.8125843076358
 10
228.0208849282985
 20
-435.6927331854294
  0
LWPOLYLINE
  5
EFE
330
E58
100
AcDbEntity
  8
0
  6
ByBlock
 62
     0
370
    -2
100
AcDbPolyline
 90
        7
 70
     1
 43
0.0
 10
559.7952054608592
 20
-1284.676027582319
 10
539.5750504623858
 20
-1274.937309635754
 10
506.6543216636502
 20
-1251.248296620599
 10
507.1470091366111
 20
-1249.025227829924
 10
513.0709521406131
 20
-1250.381345537565
 10
537.2076268891939
 20
-1262.372609742411
 10
570.8706378996823
 20
-1286.597665494565
  0
LWPOLYLINE
  5
EFF
330
E58
100
AcDbEntity
  8
0
  6
ByBlock
 62
     0
370
    -2
100
AcDbPolyline
 90
        7
 70
     1
 43
0.0
 10
-306.5168307475101
 20
873.9559440915579
 10
-271.3941325486005
 20
893.9561103169602
 10
-242.5883502893275
 20
908.1232845042357
 10
-222.6629699669202
 20
914.1104228812507
 10
-221.2280829147155
 20
912.5778001626921
 10
-227.3740192623848
 20
908.2955490773544
 10
-257.7947401327567
 20
894.110230956225
  0
LWPOLYLINE
  5
F00
330
E58
100
AcDbEntity
  8
0
  6
ByBlock
 62
     0
370
    -2
100
AcDbPolyline
 90
        8
 70
     1
 43
0.0
 10
-198.3484024277789
 20
747.5258005457674
 10
-211.8559957901875
 20
746.8016365682449
 10
-208.580810132602
 20
752.7704768136675
 10
-193.7869249383041
 20
759.9556288174901
 10
-154.6660078876991
 20
768.4790629905753
 10
-150.2847361548568
 20
767.4488936017262
 10
-152.0571877554589
 20
764.6712269462293
 10
-172.009758279024
 20
755.4236287956212
  0
LWPOLYLINE
  5
F01
330
E58
100
AcDbEntity
  8
0
  6
ByBlock
 62
     0
370
    -2
100
AcDbPolyline
 90
        8
 70
     1
 43
0.0
 10
-399.0391486739011
 20
737.4237156292909
 10
-409.4914166536796
 20
733.4288891278345
 10
-418.4103680250784
 20
737.4237156292909
 10
-422.1207253993006
 20
747.0282815436787
 10
-416.8804180673148
 20
756.6328474580671
 10
-404.2692532555472
 20
760.6276739595235
 10
-392.07288035936
 20
757.2958206331734
 10
-391.6399445099262
 20
747.0282815436787
  0
LWPOLYLINE
  5
F02
330
E58
100
AcDbEntity
  8
0
  6
ByBlock
 62
     0
370
    -2
100
AcDbPolyline
 90
       11
 70
     1
 43
0.0
 10
-330.1616404110671
 20
713.3210414819688
 10
-343.3439793445052
 20
700.2191680682133
 10
-351.4038951167604
 20
693.1599442172007
 10
-360.4429408265426
 20
693.7367979555594
 10
-360.9596317474061
 20
697.5676608621331
 10
-356.1142248227807
 20
703.9166499313012
 10
-335.7815825743385
 20
720.397278483422
 10
-310.333867256898
 20
735.6352531635454
 10
-290.6599320461408
 20
742.0871692229186
 10
-292.2465239730457
 20
737.5971109858226
 10
-308.792455267266
 20
727.245688326783
  0
LWPOLYLINE
  5
F03
330
E58
100
AcDbEntity
  8
0
  6
ByBlock
 62
     0
370
    -2
100
AcDbPolyline
 90
        7
 70
     1
 43
0.0
 10
151.1287950282203
 20
635.4702014454203
 10
183.2426327629246
 20
657.7346586568267
 10
211.7594227613119
 20
674.8381689721388
 10
219.0621505404608
 20
677.6594735875276
 10
220.1151154949307
 20
675.8671818779519
 10
205.045858839949
 20
663.1710284128496
 10
177.2407685019186
 20
647.2994038274885
  0
LWPOLYLINE
  5
F04
330
E58
100
AcDbEntity
  8
0
  6
ByBlock
 62
     0
370
    -2
100
AcDbPolyline
 90
        8
 70
     1
 43
0.0
 10
335.4776392872961
 20
811.2480158295731
 10
325.8458574721278
 20
805.9589820123367
 10
316.214075656959
 20
811.2480158295731
 10
312.2464650562831
 20
824.0915052334624
 10
316.214075656959
 20
836.9349946373516
 10
325.8458574721278
 20
842.224028454588
 10
335.4776392872961
 20
836.9349946373516
 10
339.4452498879716
 20
824.0915052334624
  0
LWPOLYLINE
  5
F05
330
E58
100
AcDbEntity
  8
0
  6
ByBlock
 62
     0
370
    -2
100
AcDbPolyline
 90
        7
 70
     1
 43
0.0
 10
253.2851563366055
 20
787.9137090113724
 10
220.5140250434831
 20
773.4382935455666
 10
174.1128930834968
 20
756.0945431542416
 10
213.7143416853723
 20
780.1201441321202
 10
256.5898194617982
 20
803.4090911156866
 10
264.7056833133727
 20
804.0482664398744
 10
266.9151570034694
 20
798.3705258244256
  0
LWPOLYLINE
  5
F06
330
E58
100
AcDbEntity
  8
0
  6
ByBlock
 62
     0
370
    -2
100
AcDbPolyline
 90
       11
 70
     1
 43
0.0
 10
445.6633081169172
 20
-536.1299182117376
 10
444.9221309889537
 20
-549.5559152710502
 10
437.5013905408861
 20
-559.8551933949773
 10
425.5656632213911
 20
-553.9711876051515
 10
417.428699979315
 20
-543.9903792097168
 10
416.6625942170201
 20
-535.5938754747382
 10
416.4903296439018
 20
-529.11376692891
 10
409.7631706219597
 20
-523.7352213246872
 10
404.429959152748
 20
-520.1177680876903
 10
411.9753427724738
 20
-518.5674383288699
 10
438.2312341350968
 20
-526.0017738775164
  0
LWPOLYLINE
  5
F07
330
E58
100
AcDbEntity
  8
0
  6
ByBlock
 62
     0
370
    -2
100
AcDbPolyline
 90
        7
 70
     1
 43
0.0
 10
72.81798313881904
 20
-643.2558670231921
 10
70.02427991855643
 20
-645.8498327733255
 10
55.99765696958934
 20
-612.6661711314486
 10
39.99568389625892
 20
-569.0665293775009
 10
58.69938123905535
 20
-585.9932262864199
 10
72.09253418014554
 20
-605.33836052023
 10
74.70135431238578
 20
-629.5928937399907
  0
LWPOLYLINE
  5
F08
330
E58
100
AcDbEntity
  8
0
  6
ByBlock
 62
     0
370
    -2
100
AcDbPolyline
 90
        8
 70
     1
 43
0.0
 10
-283.5498486411668
 20
-636.4152441656072
 10
-303.7300921250865
 20
-616.6167942813067
 10
-322.7152517392231
 20
-593.2247147105512
 10
-331.0682717120476
 20
-576.6459135984851
 10
-321.516955416562
 20
-580.4412853256653
 10
-298.6926319176155
 20
-602.3034406382798
 10
-277.4243177941773
 20
-628.3474129094608
 10
-271.6117055571074
 20
-642.2131048190622
  0
LWPOLYLINE
  5
F09
330
E58
100
AcDbEntity
  8
0
  6
ByBlock
 62
     0
370
    -2
100
AcDbPolyline
 90
        7
 70
     1
 43
0.0
 10
427.5999168817214
 20
-1104.122143856455
 10
413.5981968674634
 20
-1089.914184367443
 10
415.3852458539424
 20
-1087.458919482761
 10
423.1755725806936
 20
-1090.059233039781
 10
451.7581022147717
 20
-1108.046707588568
 10
493.8708922787643
 20
-1138.754133453376
 10
455.7109869314556
 20
-1120.621610232251
  0
LWPOLYLINE
  5
F0A
330
E58
100
AcDbEntity
  8
0
  6
ByBlock
 62
     0
370
    -2
100
AcDbPolyline
 90
       12
 70
     1
 43
0.0
 10
72.02905611128085
 20
609.33669168763
 10
86.65067673245994
 20
597.4349649693934
 10
92.30575028040266
 20
594.5484861100196
 10
94.65618640277694
 20
587.6161926971142
 10
92.28308321289729
 20
581.5644711674451
 10
86.57815239629099
 20
580.8165093390036
 10
68.65073786650646
 20
597.9826239359984
 10
41.08817487093733
 20
631.5241014292143
 10
17.27223141767513
 20
664.1952354891579
 10
10.58475261367994
 20
678.7502683870863
 10
24.50032749156731
 20
666.6502176779865
 10
48.11907773737948
 20
637.9520911395537
  0
LWPOLYLINE
  5
F0B
330
E58
100
AcDbEntity
  8
0
  6
ByBlock
 62
     0
370
    -2
100
AcDbPolyline
 90
        9
 70
     1
 43
0.0
 10
550.2596430342862
 20
-707.8109299902816
 10
557.0355285414778
 20
-716.9463235867745
 10
554.9552468563144
 20
-723.9712384410524
 10
546.9549799090939
 20
-724.4055877697523
 10
502.6379588781012
 20
-702.748541148479
 10
476.1361478227779
 20
-686.1334778683286
 10
476.8522421186714
 20
-683.8730161261556
 10
486.373078661253
 20
-685.0965237790012
 10
533.970964966519
 20
-698.8863247018177
  0
LWPOLYLINE
  5
F0C
330
E58
100
AcDbEntity
  8
0
  6
ByBlock
 62
     0
370
    -2
100
AcDbPolyline
 90
       16
 70
     1
 43
0.0
 10
650.3998946161943
 20
-52.99902996933065
 10
641.106962330575
 20
-69.27979255320725
 10
630.0042111924783
 20
-83.20441369839841
 10
631.6508631383874
 20
-73.81292335848866
 10
633.2669325328986
 20
-59.10063446728668
 10
620.3180232753718
 20
-55.33587099112629
 10
607.6400137441234
 20
-52.51400098403109
 10
602.3668365942919
 20
-45.7346974269767
 10
600.0946044247751
 20
-40.35841338957993
 10
594.6333060344198
 20
-40.91144357739676
 10
584.1221088190507
 20
-40.42186575882169
 10
569.7010994551836
 20
-32.53421455968487
 10
562.2857559279507
 20
-26.13585651469089
 10
563.4498974516152
 20
-24.02892432045337
 10
597.8337057890105
 20
-32.73366933396119
 10
650.1732239411378
 20
-46.16986914361382
  0
LWPOLYLINE
  5
F0D
330
E58
100
AcDbEntity
  8
0
  6
ByBlock
 62
     0
370
    -2
100
AcDbPolyline
 90
       16
 70
     1
 43
0.0
 10
-291.1381763309626
 20
-352.1800092008373
 10
-272.9172464066405
 20
-381.2861172547491
 10
-263.7161388740797
 20
-394.3981934188441
 10
-265.1837415463913
 20
-399.8538121925112
 10
-277.5614509826244
 20
-394.3678678636779
 10
-290.4763339392691
 20
-381.5467628314414
 10
-299.5663934007507
 20
-366.8455247781387
 10
-300.4696323514925
 20
-355.7192584849772
 10
-299.2422697551933
 20
-347.6831405636403
 10
-304.1142757896471
 20
-341.0137799938759
 10
-310.6204437532197
 20
-330.3359721224536
 10
-313.3255860725476
 20
-312.6545029849924
 10
-310.8334936280746
 20
-298.1870287027009
 10
-304.8395705505823
 20
-295.2382282574983
 10
-298.8648964907341
 20
-303.549717639519
 10
-296.4260793647863
 20
-316.1722159850394
  0
LWPOLYLINE
  5
F0E
330
E58
100
AcDbEntity
  8
0
  6
ByBlock
 62
     0
370
    -2
100
AcDbPolyline
 90
        8
 70
     1
 43
0.0
 10
97.93476441060148
 20
-571.7512661961491
 10
100.803099336121
 20
-535.8477363509526
 10
105.054767870062
 20
-513.7476025291514
 10
107.4815575724353
 20
-508.8234776592091
 10
110.1685559579095
 20
-558.5133903773598
 10
109.8829817468854
 20
-604.8567238851688
 10
107.3228880998956
 20
-607.786121114989
 10
102.7704825773476
 20
-599.3115676248922
  0
LWPOLYLINE
  5
F0F
330
E58
100
AcDbEntity
  8
0
  6
ByBlock
 62
     0
370
    -2
100
AcDbPolyline
 90
       10
 70
     1
 43
0.0
 10
778.6758878859384
 20
-398.0660693162108
 10
776.4413313637722
 20
-392.7254563555687
 10
778.0256617238513
 20
-371.5217510844082
 10
785.5415935755934
 20
-296.7250799474541
 10
786.5207492127435
 20
-282.6028287012211
 10
787.7106931579221
 20
-282.8865782390103
 10
790.4373717613427
 20
-325.0571667551799
 10
790.2764407219767
 20
-382.1984024727949
 10
787.5381458889503
 20
-395.5704303237603
 10
782.9214399096001
 20
-399.8538121925112
  0
LWPOLYLINE
  5
F10
330
E58
100
AcDbEntity
  8
0
  6
ByBlock
 62
     0
370
    -2
100
AcDbPolyline
 90
       10
 70
     1
 43
0.0
 10
914.6179502051211
 20
-501.4140707448941
 10
911.4988640577733
 20
-506.9983161317877
 10
905.5154264264741
 20
-508.6489515192645
 10
899.2910034300946
 20
-505.9238405928483
 10
895.4099491597578
 20
-496.6599488812439
 10
893.2669089951744
 20
-451.9848036034354
 10
895.0750573721546
 20
-420.6846930324868
 10
896.8386683024375
 20
-414.3580626353477
 10
899.1373196844213
 20
-414.2034280036225
 10
913.1129545813122
 20
-474.6504576298425
  0
LWPOLYLINE
  5
F11
330
E58
100
AcDbEntity
  8
0
  6
ByBlock
 62
     0
370
    -2
100
AcDbPolyline
 90
       11
 70
     1
 43
0.0
 10
-1027.346950373079
 20
-480.4585467332604
 10
-1000.094915922489
 20
-491.3867974310353
 10
-961.5632912277854
 20
-509.5011767183071
 10
-1011.427730085881
 20
-503.5174563911548
 10
-1060.618993018529
 20
-495.3804674494554
 10
-1064.072688257628
 20
-489.0034914908158
 10
-1060.240488970657
 20
-477.451947835881
 10
-1053.897487913653
 20
-467.4223872555731
 10
-1046.568572218644
 20
-473.8889007008226
 10
-1041.115215011803
 20
-480.5662024541009
 10
-1038.762517322603
 20
-479.6278578183103
  0
LWPOLYLINE
  5
F12
330
E58
100
AcDbEntity
  8
0
  6
ByBlock
 62
     0
370
    -2
100
AcDbPolyline
 90
       11
 70
     1
 43
0.0
 10
435.2699693727283
 20
-486.3448140899122
 10
437.3246028341156
 20
-500.5890357470089
 10
433.8788230789084
 20
-504.0410605106112
 10
428.2127243926882
 20
-502.6910079140034
 10
413.5234109644682
 20
-489.5191287271354
 10
399.8642412254747
 20
-468.9424171588504
 10
393.8428195513481
 20
-448.8297636834793
 10
396.2020192451726
 20
-434.3516497572566
 10
402.8297464256413
 20
-432.355225942015
 10
413.0511032925644
 20
-442.5149551129305
 10
426.1912434449998
 20
-464.5053258448036
  0
LWPOLYLINE
  5
F13
330
E58
100
AcDbEntity
  8
0
  6
ByBlock
 62
     0
370
    -2
100
AcDbPolyline
 90
       10
 70
     1
 43
0.0
 10
545.3797215159418
 20
-676.704568877298
 10
542.6543021940495
 20
-684.4730766241034
 10
538.9030053203526
 20
-685.4410529252383
 10
532.6880911844916
 20
-663.6638862659586
 10
530.4713702007027
 20
-619.1757571448836
 10
533.2911328387101
 20
-581.4972057367826
 10
535.8827085239024
 20
-574.7334761512804
 10
538.8180166670179
 20
-575.3947788508901
 10
544.3873819721813
 20
-597.1166913206721
 10
547.3346404400024
 20
-642.9112093788399
  0
LWPOLYLINE
  5
F14
330
E58
100
AcDbEntity
  8
0
  6
ByBlock
 62
     0
370
    -2
100
AcDbPolyline
 90
       11
 70
     1
 43
0.0
 10
437.4923442735828
 20
-639.9261467655533
 10
411.4721698533201
 20
-624.4319211442745
 10
404.4231487526469
 20
-617.552877350271
 10
452.7735200200061
 20
-635.576614067143
 10
498.8573387345361
 20
-653.7091372882687
 10
504.2698849400178
 20
-619.7106433988469
 10
506.2259346474913
 20
-599.6855485391127
 10
509.3379276988855
 20
-629.5566058722833
 10
509.4206547853944
 20
-665.9701190367343
 10
504.1501760959802
 20
-669.6140428854439
 10
493.762080074888
 20
-667.3719820733549
  0
LWPOLYLINE
  5
F15
330
E58
100
AcDbEntity
  8
0
  6
ByBlock
 62
     0
370
    -2
100
AcDbPolyline
 90
       10
 70
     1
 43
0.0
 10
72.37471604093048
 20
834.4848439776509
 10
91.45254849568528
 20
816.6165128811947
 10
99.18931720805836
 20
805.052350711356
 10
84.75412165228272
 20
809.8036456164734
 10
52.36434706518799
 20
829.2524778291788
 10
18.39363446825314
 20
852.7913279470142
 10
-0.7843494174196622
 20
869.8126508679017
 10
-3.157169911445862
 20
876.1946125534075
 10
0.3806658934277038
 20
878.030105329284
 10
24.99103609355529
 20
868.0719383017319
  0
LWPOLYLINE
  5
F16
330
E58
100
AcDbEntity
  8
0
  6
ByBlock
 62
     0
370
    -2
100
AcDbPolyline
 90
       11
 70
     1
 43
0.0
 10
825.4178482464464
 20
-501.8771522521331
 10
815.3151979382631
 20
-507.9519777428995
 10
799.7863806243969
 20
-508.4663556976908
 10
779.9023766950547
 20
-503.1457370437601
 10
766.3664366484529
 20
-493.9024050305736
 10
765.81114489381
 20
-483.8209826110069
 10
776.6487273215623
 20
-475.7115179655643
 10
797.2914612213915
 20
-472.3839050770134
 10
822.7891880052332
 20
-475.9458214286587
 10
827.6771792052066
 20
-481.4908234911972
 10
829.0233768583609
 20
-490.5164282981388
  0
LWPOLYLINE
  5
F17
330
E58
100
AcDbEntity
  8
0
  6
ByBlock
 62
     0
370
    -2
100
AcDbPolyline
 90
        9
 70
     1
 43
0.0
 10
462.17821996615
 20
-1067.616857338191
 10
420.593968349234
 20
-1039.777766398902
 10
388.5445852690698
 20
-1014.447755354904
 10
375.7102963302225
 20
-998.6169160712792
 10
400.6323258587419
 20
-1010.448405719796
 10
460.5523847148894
 20
-1050.838601451849
 10
515.1822532707649
 20
-1092.15580828594
 10
517.4900537185447
 20
-1096.705952241662
 10
503.6171145152509
 20
-1090.974936307688
  0
LWPOLYLINE
  5
F18
330
E58
100
AcDbEntity
  8
0
  6
ByBlock
 62
     0
370
    -2
100
AcDbPolyline
 90
       11
 70
     1
 43
0.0
 10
159.2770918040494
 20
60.55051391692564
 10
141.7350174218613
 20
54.13470582789955
 10
127.6369752205155
 20
54.45060559408943
 10
121.854971234465
 20
62.4348616761672
 10
134.5069470475921
 20
77.87696846195672
 10
164.9197010348271
 20
102.3898856915839
 10
200.0492096338373
 20
125.2345889915873
 10
203.4357517579786
 20
123.033750374826
 10
200.6770514242721
 20
112.7072820497414
 10
190.2372477616593
 20
92.45212416471167
 10
175.3912437318722
 20
72.76133000125174
  0
LWPOLYLINE
  5
F19
330
E58
100
AcDbEntity
  8
0
  6
ByBlock
 62
     0
370
    -2
100
AcDbPolyline
 90
        9
 70
     1
 43
0.0
 10
463.9080101925353
 20
-605.4539574245841
 10
482.9006997962172
 20
-621.5239060008086
 10
482.7491234196315
 20
-632.2919452486623
 10
472.2161072243168
 20
-632.4294896310777
 10
398.3759503566296
 20
-593.6904946782074
 10
352.477991315797
 20
-566.3942311763955
 10
342.6609409182604
 20
-559.5730115341923
 10
343.978380693253
 20
-558.8307036228161
 10
421.0416043830366
 20
-586.392135834972
  0
LWPOLYLINE
  5
F1A
330
E58
100
AcDbEntity
  8
0
  6
ByBlock
 62
     0
370
    -2
100
AcDbPolyline
 90
        9
 70
     1
 43
0.0
 10
126.7292131361218
 20
672.9161198659237
 10
115.8206740492051
 20
670.6416261295806
 10
112.7887096239021
 20
676.7375510108483
 10
117.0810092618419
 20
686.2681791098014
 10
130.4679171945376
 20
697.9253996146037
 10
187.5853550612337
 20
729.8023896235342
 10
239.0805891978325
 20
753.9107176879213
 10
257.848895392907
 20
760.3738130833087
 10
183.0522242559523
 20
707.309000170246
  0
LWPOLYLINE
  5
F1B
330
E58
100
AcDbEntity
  8
0
  6
ByBlock
 62
     0
370
    -2
100
AcDbPolyline
 90
       14
 70
     1
 43
0.0
 10
-280.2621986664153
 20
-402.8030495313048
 10
-272.2928226660676
 20
-410.433010610397
 10
-271.4240212101756
 20
-420.9171461227235
 10
-278.5474170198752
 20
-432.4288810615967
 10
-292.568386051777
 20
-440.3437481615141
 10
-311.3491308643943
 20
-431.0417439089676
 10
-321.4863471655426
 20
-422.0461819613392
 10
-327.455367308326
 20
-410.72087208787
 10
-330.3701671522702
 20
-369.8716810886383
 10
-329.2821993112436
 20
-322.7905885027278
 10
-320.0164829264047
 20
-361.3222131974307
 10
-309.1188404796494
 20
-390.9439327880391
 10
-302.4324667594442
 20
-397.7167343404683
 10
-294.4405521897061
 20
-399.8538121925112
  0
LWPOLYLINE
  5
F1C
330
E58
100
AcDbEntity
  8
0
  6
ByBlock
 62
     0
370
    -2
100
AcDbPolyline
 90
       17
 70
     1
 43
0.0
 10
-397.2145782378093
 20
87.0067081413847
 10
-406.9256690896247
 20
79.19839167851751
 10
-422.592159284022
 20
75.53221195627088
 10
-439.5370258264178
 20
80.27726185299389
 10
-462.3239306742439
 20
88.9650194156843
 10
-466.4013300644707
 20
85.33880260723686
 10
-467.4520334521148
 20
76.12492236203411
 10
-468.4483307378204
 20
66.86018256287002
 10
-474.0148690844517
 20
63.43555359740981
 10
-514.3245992968222
 20
73.12397738171944
 10
-537.3631034540367
 20
82.70364036139881
 10
-540.9033550234744
 20
86.92781029870593
 10
-538.7309915890218
 20
90.49494367382498
 10
-516.7444501009795
 20
95.14012483548345
 10
-478.8415152842708
 20
97.15978110993773
 10
-438.528110025808
 20
96.34566845183712
 10
-409.3101058132572
 20
92.4895171162093
  0
LWPOLYLINE
  5
F1D
330
E58
100
AcDbEntity
  8
0
  6
ByBlock
 62
     0
370
    -2
100
AcDbPolyline
 90
       10
 70
     1
 43
0.0
 10
426.7106328262805
 20
-703.4634789613364
 10
420.0414778535007
 20
-702.9199576340377
 10
388.2398648388942
 20
-692.2226180491182
 10
287.3505206451316
 20
-646.564924783921
 10
240.9471271183193
 20
-620.9753989466435
 10
221.6201111187402
 20
-606.7005690385272
 10
251.5206459195172
 20
-616.4424223391002
 10
318.3775213222227
 20
-645.7614260701289
 10
387.8216805730751
 20
-678.9069751710633
 10
425.4840669182952
 20
-700.1283874824857
  0
LWPOLYLINE
  5
F1E
330
E58
100
AcDbEntity
  8
0
  6
ByBlock
 62
     0
370
    -2
100
AcDbPolyline
 90
       13
 70
     1
 43
0.0
 10
706.420318374561
 20
-844.6638640482435
 10
703.2562064876777
 20
-869.4227009705711
 10
692.3697433769368
 20
-875.5051592493755
 10
676.7906576004386
 20
-874.1088216317043
 10
662.8213705104342
 20
-867.0398319239431
 10
656.7644062576684
 20
-856.1043596320992
 10
659.2372239848743
 20
-848.3991757564206
 10
665.1778974434648
 20
-848.2348523668161
 10
671.872469343414
 20
-848.2357004543757
 10
677.6440135828941
 20
-837.8245004721867
 10
689.0765679832359
 20
-777.9531938009122
 10
697.9343028525956
 20
-737.1912787214641
 10
705.1238494919545
 20
-799.53995195322
  0
LWPOLYLINE
  5
F1F
330
E58
100
AcDbEntity
  8
0
  6
ByBlock
 62
     0
370
    -2
100
AcDbPolyline
 90
       21
 70
     1
 43
0.0
 10
-1.187807799246684
 20
692.5457232269675
 10
-4.609738304289976
 20
693.1994702374092
 10
-15.88873745707292
 20
703.0659667096403
 10
-34.65591286873428
 20
715.5898813012465
 10
-50.40399936622725
 20
718.8866032429253
 10
-91.20217661375978
 20
710.5184461921401
 10
-109.5126183250686
 20
708.8899124804627
 10
-83.55024235698374
 20
724.6074164265589
 10
-60.28509322433547
 20
739.5236832256894
 10
-53.30520410959252
 20
748.415418696308
 10
-62.1742725127051
 20
748.673802706174
 10
-77.01346614239105
 20
742.812463983854
 10
-93.4732779998642
 20
737.4316311131817
 10
-106.2340403172443
 20
738.8505073002431
 10
-107.7198897219016
 20
741.8086881078486
 10
-105.3645192719075
 20
745.8703593287857
 10
-92.19266578466273
 20
755.5573696338294
 10
-72.84329111305374
 20
764.418214157575
 10
-53.4412065146264
 20
768.9595688422234
 10
-38.95217024861927
 20
756.8833159840421
 10
-18.93501657239903
 20
726.8286605440001
  0
LWPOLYLINE
  5
F20
330
E58
100
AcDbEntity
  8
0
  6
ByBlock
 62
     0
370
    -2
100
AcDbPolyline
 90
       11
 70
     1
 43
0.0
 10
878.7110280096856
 20
-499.1112560239805
 10
875.9055800617018
 20
-506.4180957428131
 10
870.6012549687669
 20
-508.6489515192645
 10
865.6279410203598
 20
-505.6013103239183
 10
861.0972516792655
 20
-496.8642351846483
 10
853.7266768953374
 20
-464.756925154192
 10
849.2153650700021
 20
-417.197279887983
 10
848.2891763559011
 20
-359.0556349449789
 10
849.2683319930508
 20
-304.6580652816022
 10
860.8187448645729
 20
-363.5887657502603
 10
877.4100102938048
 20
-465.5841960192799
  0
LWPOLYLINE
  5
F21
330
E58
100
AcDbEntity
  8
0
  6
ByBlock
 62
     0
370
    -2
100
AcDbPolyline
 90
       13
 70
     1
 43
0.0
 10
217.840621758588
 20
156.0689452945028
 10
179.9062563029231
 20
130.5224920254104
 10
148.9642185795437
 20
114.9421212677612
 10
142.6995756731344
 20
113.0277306492064
 10
144.1398339465506
 20
115.6810111292754
 10
152.340275257492
 20
126.8891821210093
 10
152.7074714712346
 20
136.4790221514051
 10
152.297639582898
 20
147.9509740738401
 10
162.3482995537072
 20
161.5767086032822
 10
181.3796413904149
 20
175.9334175103479
 10
207.9119321986427
 20
189.5982411664065
 10
246.8515127092019
 20
203.0616568768398
 10
239.4625112955669
 20
179.2899167751759
  0
LWPOLYLINE
  5
F22
330
E58
100
AcDbEntity
  8
0
  6
ByBlock
 62
     0
370
    -2
100
AcDbPolyline
 90
       13
 70
     1
 43
0.0
 10
806.9549563713696
 20
-556.4156843477867
 10
814.4922960090891
 20
-559.6371834928791
 10
814.6170933784858
 20
-564.352062032174
 10
806.2565691157384
 20
-568.7415576443838
 10
787.1848531712628
 20
-570.9160284479241
 10
712.0867254562565
 20
-568.8307867355172
 10
606.4806523503413
 20
-560.6337634744379
 10
586.9612746724404
 20
-556.2330885262135
 10
577.6975371585742
 20
-549.9548505192255
 10
580.6086619564255
 20
-547.4740916085054
 10
593.7516290673936
 20
-546.3124686478975
 10
642.2674545077704
 20
-548.1778500853481
 10
767.4634507567832
 20
-553.9802595720784
  0
LWPOLYLINE
  5
F23
330
E58
100
AcDbEntity
  8
0
  6
ByBlock
 62
     0
370
    -2
100
AcDbPolyline
 90
       19
 70
     1
 43
0.0
 10
831.5166000862467
 20
-463.3176434664505
 10
797.572512298763
 20
-463.3176434664505
 10
771.4786827589189
 20
-460.460642074684
 10
767.8752615160926
 20
-456.0696044850929
 10
769.1225927194802
 20
-448.9748123558172
 10
774.6258071949844
 20
-421.7760275241287
 10
777.4642534589291
 20
-410.8095357872969
 10
783.7816062921567
 20
-409.282721183542
 10
790.280835357514
 20
-415.8883466882109
 10
793.6649617170908
 20
-429.3191495770288
 10
795.448746851446
 20
-443.6687910877631
 10
801.7611396574304
 20
-427.0525970241995
 10
805.8386675457729
 20
-388.4076626915907
 10
805.550831767923
 20
-327.323719308009
 10
805.4876363949109
 20
-280.02078757617
 10
807.4017186179892
 20
-274.1888749222103
 10
810.2403447792951
 20
-279.0798729780775
 10
817.5735266117252
 20
-317.560201225228
 10
825.2518029820997
 20
-388.5209980291195
  0
LWPOLYLINE
  5
F24
330
E58
100
AcDbEntity
  8
0
  6
ByBlock
 62
     0
370
    -2
100
AcDbPolyline
 90
       10
 70
     1
 43
0.0
 10
-677.7258350281549
 20
275.9804565595544
 10
-785.9498002332375
 20
246.5434401596074
 10
-944.9901697324074
 20
210.6501130647509
 10
-943.8582555360131
 20
214.5105305378004
 10
-935.1307406565071
 20
219.9869403064925
 10
-898.3113790452881
 20
234.612235973764
 10
-771.1717974059673
 20
270.3242522281982
 10
-659.6307047585269
 20
295.4491288812321
 10
-643.2503818350621
 20
296.2616995619517
 10
-636.4108897608899
 20
291.9200823474327
  0
LWPOLYLINE
  5
F25
330
E58
100
AcDbEntity
  8
0
  6
ByBlock
 62
     0
370
    -2
100
AcDbPolyline
 90
       24
 70
     1
 43
0.0
 10
589.5773163987498
 20
-722.0897176403432
 10
592.7600091130777
 20
-734.040736235537
 10
597.190007331171
 20
-806.9652155349395
 10
595.3356767316193
 20
-814.6238059940783
 10
586.6799408992148
 20
-814.5230891714538
 10
535.3852923203056
 20
-786.5661397609847
 10
496.3051862710601
 20
-760.5028927725368
 10
488.3322380231122
 20
-752.9866782249414
 10
490.0539842674918
 20
-750.7181468011395
 10
534.3698745150711
 20
-755.0336788982913
 10
561.5686593467592
 20
-757.5269021261769
 10
529.8367437097897
 20
-741.3889523474356
 10
513.4200044205024
 20
-731.4625243543162
 10
513.0890960744671
 20
-729.5944444564479
 10
518.5039038467746
 20
-730.2737111925505
 10
564.9832397596176
 20
-740.9685065147905
 10
571.8691967522147
 20
-741.6296293170394
 10
568.8760644572987
 20
-739.3490447700401
 10
562.907070014138
 20
-731.3129268487034
 10
563.7445693291886
 20
-719.3126163765533
 10
568.9055419249054
 20
-711.1359729165306
 10
573.0737380832695
 20
-715.4231840291113
 10
578.0805900397215
 20
-721.6358365981464
 10
585.0049422691129
 20
-721.2255935158414
  0
LWPOLYLINE
  5
F26
330
E58
100
AcDbEntity
  8
0
  6
ByBlock
 62
     0
370
    -2
100
AcDbPolyline
 90
       32
 70
     1
 43
0.0
 10
321.811376452348
 20
864.0442419824301
 10
314.5130176091127
 20
853.7563230918788
 10
309.5906146139121
 20
853.8046126835377
 10
306.0451460210008
 20
857.848602563836
 10
303.1802034457203
 20
877.7365642351226
 10
301.2068835915759
 20
894.7614594036101
 10
296.0291805412723
 20
904.2021388219849
 10
288.7606075611195
 20
905.1312829927331
 10
280.5145494193137
 20
896.6215981179646
 10
279.3790115760732
 20
890.2185627415803
 10
284.5127682710088
 20
887.5553365074017
 10
291.2920718280627
 20
881.4956737942186
 10
294.1139418351579
 20
866.9295900583904
 10
291.0981424727363
 20
855.175327777056
 10
280.3706315303887
 20
843.204314875151
 10
225.6999262735312
 20
810.2654678421842
 10
157.2859107119043
 20
774.2270663753672
 10
200.767719694295
 20
813.7650369083774
 10
237.9042403532324
 20
844.1506006944548
 10
266.1263841736688
 20
861.6983546933314
 10
280.630146323668
 20
870.405361273665
 10
281.4868946563622
 20
874.9080380256653
 10
278.2842590345692
 20
879.8127596802258
 10
270.4981727456163
 20
882.5333474729902
 10
256.9230150742821
 20
880.1583939102531
 10
208.9273500038771
 20
859.0782010273381
 10
149.2804010415871
 20
828.6246360387433
 10
205.8266904862358
 20
866.6666572152491
 10
279.5569300662567
 20
910.4045886406799
 10
301.7164300172392
 20
918.0290243008228
 10
313.8965350520536
 20
916.0778061224766
 10
322.962796662616
 20
883.9741711381128
  0
LWPOLYLINE
  5
F27
330
E58
100
AcDbEntity
  8
0
  6
ByBlock
 62
     0
370
    -2
100
AcDbPolyline
 90
       22
 70
     1
 43
0.0
 10
562.5478149839093
 20
-813.1042129843924
 10
604.6334148467442
 20
-828.8783845992531
 10
609.7513148742748
 20
-810.9124463345583
 10
612.5029221120273
 20
-773.3022045244506
 10
614.6890091451735
 20
-736.6824261856227
 10
616.9613955124284
 20
-737.2378721380036
 10
620.4993598154175
 20
-748.9048841991778
 10
627.2099425805097
 20
-786.0640976252438
 10
628.6125252065751
 20
-819.5854523136338
 10
624.9272249647995
 20
-843.8320443498808
 10
621.2454198717552
 20
-850.7157397756511
 10
616.3742105256148
 20
-853.1668927206496
 10
588.8200770063974
 20
-846.4877662941367
 10
542.4813437311093
 20
-828.6699863561652
 10
420.6608130687152
 20
-772.9361390941209
 10
305.334011752351
 20
-712.6005944325716
 10
267.1124273097887
 20
-689.0306991701249
 10
250.9222815966889
 20
-674.2986215691957
 10
251.9681020559585
 20
-670.9959630145992
 10
258.8332937531529
 20
-671.2870626445728
 10
293.4985643618886
 20
-684.1570483597979
 10
470.9060432411318
 20
-769.5940830174313
  0
LWPOLYLINE
  5
F28
330
E58
100
AcDbEntity
  8
0
  6
ByBlock
 62
     0
370
    -2
100
AcDbPolyline
 90
     2498
 70
     1
 43
0.0
 10
798.7114681918658
 20
1588.797794556699
 10
792.5316854406762
 20
1603.790003741861
 10
789.5252150414119
 20
1609.185716694262
 10
786.4040215249758
 20
1602.369996771386
 10
779.7119681880829
 20
1551.659012330936
 10
772.5858996175891
 20
1498.832152227437
 10
765.2422323389653
 20
1476.862341193981
 10
758.8006475280474
 20
1470.868418116489
 10
753.8277961728547
 20
1456.463239720403
 10
752.2018324234793
 20
1453.506934985279
 10
750.686351353477
 20
1460.541949791404
 10
748.6600388766603
 20
1498.993083266802
 10
745.5196991410728
 20
1549.207705188199
 10
741.3533276559426
 20
1552.088093236916
 10
734.117752991751
 20
1544.324391319616
 10
724.5063766772621
 20
1518.203371578614
 10
720.5183605759068
 20
1479.128893746811
 10
717.3644257397402
 20
1441.778166729983
 10
713.1249645267351
 20
1433.886275093047
 10
706.6288451157641
 20
1431.531033141168
 10
700.2430798860502
 20
1429.389689151703
 10
696.0417055143636
 20
1422.376364827409
 10
693.0294526999193
 20
1390.197943940049
 10
690.1986649236357
 20
1357.368448803043
 10
687.2716577587564
 20
1352.689755332963
 10
683.8804640028481
 20
1354.970982370538
 10
677.3361834983331
 20
1377.820799895523
 10
673.8271055716215
 20
1420.733105231739
 10
671.5288139843594
 20
1463.00795711851
 10
669.2271043472358
 20
1464.477692859533
 10
665.8306678682313
 20
1454.196687167575
 10
659.5964790151035
 20
1434.148925240334
 10
656.7825501915224
 20
1449.663556362294
 10
654.226979678184
 20
1465.002530560894
 10
650.1279155057497
 20
1454.196687167575
 10
638.8222658438924
 20
1431.531033141168
 10
631.3698120610149
 20
1409.687021762407
 10
622.9653928421456
 20
1363.534071061947
 10
613.8991312315831
 20
1300.070239788007
 10
611.3786921029165
 20
1349.934678646103
 10
608.8582786738727
 20
1399.799117504198
 10
602.3668365942919
 20
1363.534071061947
 10
595.8753945147106
 20
1327.269024619696
 10
594.4519951939976
 20
1359.000940256666
 10
591.4578606137836
 20
1380.304385764775
 10
588.6866959629116
 20
1381.965223902591
 10
584.9142739990904
 20
1377.931282574896
 10
577.5456780861352
 20
1372.373687697076
 10
572.2033946499966
 20
1386.997544185459
 10
570.6131019773763
 20
1390.124571516321
 10
569.6942890550828
 20
1382.468962213452
 10
570.13627117182
 20
1340.86841703554
 10
570.8117086640925
 20
1301.499318725409
 10
570.1388154344997
 20
1296.259422587391
 10
568.848874256141
 20
1302.336792340837
 10
563.9931874823067
 20
1323.040048852884
 10
557.8956949240348
 20
1331.064396346876
 10
552.7552563271135
 20
1325.858218114264
 10
550.7707314373308
 20
1306.869923146118
 10
550.4484581646308
 20
1294.244752039804
 10
548.3965231636609
 20
1292.020526766092
 10
535.2039814798834
 20
1322.735893814414
 10
533.5465356923053
 20
1323.723967220753
 10
532.8240678899025
 20
1316.361179422601
 10
534.3064221458291
 20
1281.937716566882
 10
542.8377718028057
 20
1155.010054019003
 10
545.0266857944845
 20
1115.185943883262
 10
544.5059600328066
 20
1105.05949572416
 10
531.0788321900806
 20
1184.629537742408
 10
516.5897959240735
 20
1259.919179048177
 10
504.2970751411756
 20
1297.504492223953
 10
495.8371190369546
 20
1303.55169061997
 10
493.5716972675384
 20
1296.815459631102
 10
490.5016460009171
 20
1290.60165057903
 10
482.9641778650819
 20
1291.955943613438
 10
476.5441293382571
 20
1292.884085498888
 10
479.5552513692889
 20
1281.158015704008
 10
485.5661875972216
 20
1240.937822978247
 10
489.9179818624577
 20
1168.609446434847
 10
490.2353208075371
 20
1103.683692105284
 10
488.3625635782784
 20
1092.531057998902
 10
485.1672780486694
 20
1096.079353550345
 10
476.3458053473944
 20
1153.278387720137
 10
473.2678128972586
 20
1176.1639020215
 10
470.4351747481171
 20
1181.95441258277
 10
467.1435413317969
 20
1182.68934470234
 10
459.7092057831507
 20
1182.415104025069
 10
453.4716245797842
 20
1188.954141806487
 10
451.9321914611248
 20
1187.361510468172
 10
451.212987510846
 20
1175.177807486134
 10
452.0482252590706
 20
1124.457879576873
 10
461.5043244512587
 20
955.5522985866231
 10
466.1009333254053
 20
892.0884673126831
 10
448.0137442392913
 20
973.6848218077478
 10
430.7764930857704
 20
1040.633496263889
 10
414.7224268765742
 20
1087.013091939782
 10
399.5182985999711
 20
1118.745007576753
 10
401.5310159762086
 20
1068.880568718657
 10
400.9881628391087
 20
1033.442818841117
 10
398.4749710041349
 20
1029.010559056198
 10
394.3052071687655
 20
1032.615522276405
 10
389.9946093992341
 20
1034.349013248506
 10
386.9309316391225
 20
1024.248496009034
 10
383.9424509759735
 20
964.6185601971858
 10
381.6011125201496
 20
899.3006810195478
 10
380.2699234468398
 20
898.1270820346109
 10
378.3888138400996
 20
902.1208548515234
 10
372.4736344075475
 20
923.820382949653
 10
362.1109039143787
 20
964.6185601971858
 10
362.0655697793675
 20
901.154728923246
 10
360.7101716611708
 20
854.2130310926079
 10
358.3427480879793
 20
855.8700142869714
 10
354.2141807483147
 20
871.9160365141622
 10
329.8168861226648
 20
958.0455218145086
 10
313.2256206934328
 20
1009.949868249999
 10
312.7360428748582
 20
972.3974248920688
 10
311.6898883204892
 20
952.2973642319787
 10
308.1541855843263
 20
940.1385127854034
 10
300.5539589690713
 20
933.2273444626222
 10
287.3142327774242
 20
928.8702817746669
 10
219.5802035413449
 20
902.9589195582804
 10
176.7783808845013
 20
883.0222057021208
 10
216.8512633710982
 20
909.9762016245211
 10
244.2359078764839
 20
931.966418158656
 10
248.3296008277068
 20
939.2055393708249
 10
246.0536936120977
 20
943.9746698143201
 10
240.5538714868321
 20
951.5914726864245
 10
248.7826337823442
 20
960.6837937147322
 10
255.3422055625572
 20
968.3561334721883
 10
238.1105055276094
 20
963.2722083462924
 10
168.0838386213329
 20
928.924687876605
 10
131.3892743795102
 20
909.5172320569661
 10
130.6425975322199
 20
911.6377336521592
 10
139.9874944555909
 20
921.1911573167329
 10
206.4703889440755
 20
971.4545314230033
 10
234.3627552018897
 20
992.9041563868644
 10
240.4731232712959
 20
1000.221070357921
 10
239.8977087118267
 20
1003.848263752043
 10
214.0815121994919
 20
994.0091116787078
 10
166.6151051656084
 20
965.4979755973856
 10
119.6348579004375
 20
937.5625624710094
 10
107.7242134130122
 20
933.7264054420923
 10
103.7224480133397
 20
936.7307427726457
 10
110.8411664916491
 20
951.0048530913179
 10
130.7943024069209
 20
968.5317903955459
 10
161.4773650291042
 20
987.7807309403831
 10
200.7858379285255
 20
1007.220928079752
 10
228.5467506145808
 20
1021.821012416839
 10
234.7044316899712
 20
1027.032253475187
 10
234.2494198643612
 20
1029.859366205378
 10
209.4905829420336
 20
1022.851156106066
 10
163.9858795326881
 20
1001.264397953757
 10
119.4728217772815
 20
980.6783060230698
 10
107.7455954993663
 20
978.0999399441114
 10
103.7224480133397
 20
980.8925123809606
 10
116.0292007904077
 20
1000.511321900335
 10
145.2289325709898
 20
1032.250613329112
 10
179.7409306280206
 20
1064.482874926703
 10
207.9844565348115
 20
1085.580620652143
 10
217.4054243423281
 20
1092.757702974335
 10
213.8322001565527
 20
1095.8073744399
 10
193.3197890450699
 20
1088.008104244337
 10
161.2478673955152
 20
1068.880568718657
 10
117.5394391373138
 20
1041.681783886969
 10
168.836349283049
 20
1093.812775297893
 10
204.5082484259455
 20
1131.960499023889
 10
210.9093049313571
 20
1142.549077804178
 10
210.1433533668001
 20
1147.290144259333
 10
188.4793935469338
 20
1138.657640886141
 10
142.2540470084197
 20
1104.918970185474
 10
95.98100196957672
 20
1070.783343107605
 10
87.71582330824207
 20
1069.670600829986
 10
85.58992479221434
 20
1077.357512273695
 10
88.68747465546972
 20
1087.386096268328
 10
97.6276539154851
 20
1099.836175842992
 10
130.9212328450283
 20
1129.570125687338
 10
162.9364611261955
 20
1155.93935238749
 10
176.2525408978417
 20
1171.809846189438
 10
180.9148637080561
 20
1181.505080373849
 10
192.1184858665151
 20
1193.015813027424
 10
201.8726749861392
 20
1202.775656064113
 10
185.3188025084046
 20
1199.45287470469
 10
149.0537560661534
 20
1192.181731762235
 10
135.9745497199037
 20
1187.546599153179
 10
123.6228997014159
 20
1177.67570804541
 10
115.6366390487423
 20
1170.064584789994
 10
121.0118180023496
 20
1183.233328622853
 10
135.6130331228489
 20
1200.112429829934
 10
157.7754885304794
 20
1213.795705815324
 10
176.6147770843411
 20
1223.613758498158
 10
184.5243757615389
 20
1231.795618981654
 10
180.8456032240115
 20
1236.358355752657
 10
164.9197010348271
 20
1235.319011598389
 10
155.3491357216974
 20
1235.160342125849
 10
171.7194100925603
 20
1244.494059713205
 10
189.4208735367328
 20
1255.058095353508
 10
190.1651346194587
 20
1257.49575599642
 10
186.1358963227758
 20
1258.071915844956
 10
131.7462678429131
 20
1242.281887562691
 10
96.80829853428804
 20
1231.215372893056
 10
91.46699168382383
 20
1232.621656264837
 10
92.08136687179536
 20
1238.446861317187
 10
102.6061591877426
 20
1250.858571354679
 10
120.8214094953771
 20
1262.236719653082
 10
135.8476192817966
 20
1270.907464065332
 10
108.3825092567281
 20
1269.943060011796
 10
81.20865305937128
 20
1265.205925598964
 10
66.61424833897285
 20
1257.912115589004
 10
63.99296388956691
 20
1257.078034323815
 10
61.01129362651909
 20
1261.534091959652
 10
55.43552911522238
 20
1283.025658708285
 10
52.18187974172974
 20
1306.670185675989
 10
53.45002763976549
 20
1318.229953210291
 10
60.91268417298238
 20
1320.317739185377
 10
76.24261210427949
 20
1315.546347175055
 10
91.42407331337677
 20
1306.828007060969
 10
81.44663156855813
 20
1292.6903103413
 10
70.87766160063529
 20
1279.806009936051
 10
82.67964808192209
 20
1278.311217062581
 10
121.854971234465
 20
1285.61862217312
 10
144.5206252608723
 20
1292.028467949606
 10
123.2058462190096
 20
1297.703946998229
 10
109.7163710908319
 20
1304.235043596134
 10
107.1948268783751
 20
1311.956109838839
 10
107.3690446228436
 20
1316.489626138466
 10
102.7714848626456
 20
1320.452610806998
 10
83.87072281051406
 20
1325.958960636511
 10
59.71212628349531
 20
1327.059084399227
 10
39.51517804461128
 20
1322.336984265862
 10
28.28719264352685
 20
1315.777669481879
 10
22.48874089874243
 20
1307.716494428096
 10
18.65371465323892
 20
1262.708179237427
 10
13.70013801531286
 20
1231.480567303023
 10
3.803187489799938
 20
1208.881783695721
 10
-4.632970763501816
 20
1196.006555257398
 10
8.526701102430479
 20
1198.763842111839
 10
18.73078782268294
 20
1200.191764566204
 10
3.993570297149062
 20
1186.143605333144
 10
-18.67208372925779
 20
1167.176975147207
 10
19.85951526582266
 20
1172.535140950373
 10
47.08777756511767
 20
1173.881467101643
 10
58.39113996052583
 20
1169.570458138144
 10
45.24619397858532
 20
1161.882287412906
 10
13.64007799630985
 20
1155.091650322099
 10
-20.11475776723774
 20
1147.473716666581
 10
-26.19551987092246
 20
1142.485008643984
 10
-26.21520578215746
 20
1136.170354271173
 10
-16.45425766167887
 20
1127.849792922225
 10
2.669885513762665
 20
1128.08324829776
 10
26.65922432355614
 20
1132.761453475002
 10
3.993570297149062
 20
1121.954453598647
 10
-18.67208372925779
 20
1111.156551388841
 10
13.05983190771189
 20
1104.810157981598
 10
31.46207267245677
 20
1099.781795440677
 10
24.39264607110386
 20
1097.276107895625
 10
7.99646648023463
 20
1093.986324852163
 10
5.261718195184812
 20
1087.739517484131
 10
15.49227552715024
 20
1079.848910828347
 10
37.99206418657104
 20
1071.627652822757
 10
71.99053237636963
 20
1062.108075561704
 10
40.25861673940039
 20
1060.322028860523
 10
-8.789859087736658
 20
1051.745345068535
 10
-17.05673392419089
 20
1047.541709130022
 10
-18.10656352465207
 20
1042.907990000232
 10
4.909273565057219
 20
1025.788623017515
 10
62.01763946482628
 20
996.6950049803919
 10
79.14720919788351
 20
988.3982414823632
 10
83.70413785408345
 20
982.3793640709162
 10
70.86858963370833
 20
983.3381142073864
 10
46.18795666423738
 20
991.8173450288733
 10
22.74938647543468
 20
999.0068916682323
 10
13.05983190771189
 20
996.7584573496344
 10
9.065005406255522
 20
992.0032047025708
 10
-0.5395605081321265
 20
993.0684797764685
 10
-10.14412642252
 20
993.8096569044311
 10
-14.13895292397637
 20
988.2542978938152
 10
-11.47572668979796
 20
981.1656222748185
 10
-5.072691313413542
 20
978.2179526130295
 10
1.330344062970652
 20
975.5547263788511
 10
3.993570297149062
 20
969.1516910024668
 10
-1.174186999044877
 20
962.7486556260821
 10
-13.60404097039008
 20
960.085429391904
 10
-30.62027536591882
 20
957.5611867190302
 10
-35.48547100027122
 20
951.6209501540318
 10
-28.5871781886242
 20
944.7134311777192
 10
-10.31299864539983
 20
939.2874183697738
 10
21.62489947009362
 20
928.8132029119344
 10
55.9817746025617
 20
910.2923840865649
 10
83.43357222290478
 20
889.6347701050055
 10
94.65618640277694
 20
872.750143478974
 10
93.05003706275215
 20
863.2831219470014
 10
85.08449030623433
 20
862.9234300231813
 10
31.19235512883756
 20
896.6215981179646
 10
-22.90149638966136
 20
930.3911597655039
 10
-30.1502549604636
 20
930.9940729216066
 10
-26.43280449028726
 20
921.7170230030149
 10
-18.34569851687433
 20
896.7847907241564
 10
-10.51245341967569
 20
862.6231299281659
 10
-8.203959082074106
 20
848.2145591818413
 10
-12.00837707655819
 20
842.224028454588
 10
-17.11155122009745
 20
836.2301053770954
 10
-17.91052680023767
 20
821.8249526806332
 10
-13.93723658287422
 20
800.0908328899155
 10
-12.16563306983153
 20
800.1381458958997
 10
-10.73909839510975
 20
807.8538409173946
 10
-8.117120055882196
 20
809.993899925708
 10
-1.81904193992068
 20
807.7167077289475
 10
18.02813442962997
 20
791.987870249098
 10
31.43827482153802
 20
778.1572840245451
 10
24.86410565544839
 20
782.5771051919216
 10
6.96051467620532
 20
794.7773073319392
 10
-0.2879611987439148
 20
793.8634544368889
 10
3.557267797099484
 20
781.5380180338832
 10
18.93476573061093
 20
759.5034696500349
 10
43.68566146942453
 20
728.895758322553
 10
10.37622587247688
 20
760.0111657028407
 10
-21.07379059956111
 20
786.0289243585391
 10
-26.98629727131879
 20
787.9478895099916
 10
-26.72745066823791
 20
783.3443160380063
 10
-8.806563842701052
 20
757.1820741016765
 10
30.46706036790215
 20
712.7668805107389
 10
75.80062998754169
 20
661.9912872180109
 10
94.65618640277694
 20
634.7970255199745
 10
89.16995937809042
 20
636.9251856028284
 10
74.23215629486776
 20
650.4080045286435
 10
25.1270384985894
 20
702.5401267229806
 10
-44.4021351052213
 20
780.6913182537908
 10
-85.93467908061574
 20
775.3240804836975
 10
-121.0320117516028
 20
773.6199127814654
 10
-139.9095413445218
 20
777.5611812685427
 10
-141.9635580149565
 20
780.8313041003932
 10
-138.3998683893223
 20
784.5317157205052
 10
-112.3356448151999
 20
791.9153459129286
 10
-82.01124613191609
 20
798.9065685614248
 10
-84.02424620400665
 20
802.4348955057801
 10
-95.7353074190412
 20
807.6453141761911
 10
-131.7170412170942
 20
812.6782255503879
 10
-186.397923524669
 20
812.0061804083546
 10
-238.9403145009344
 20
809.7758900236092
 10
-238.141493118532
 20
812.6130513064024
 10
-222.7445662700159
 20
818.7242674633692
 10
-201.8978287626355
 20
828.8036853123406
 10
-200.3833499779312
 20
832.6364499910175
 10
-204.6120430488902
 20
835.8504448461873
 10
-207.5007834750895
 20
838.5148018637789
 10
-195.4641851352316
 20
836.983721122602
 10
-175.2418970680473
 20
837.884698506518
 10
-160.8673269229814
 20
851.7798678837259
 10
-154.911233690578
 20
862.6269334723732
 10
-155.920560685156
 20
868.0299965169595
 10
-188.0661117546699
 20
868.00848593249
 10
-227.1961007722016
 20
864.9259446490793
 10
-195.4641851352316
 20
885.2706400207187
 10
-177.0483492699083
 20
899.8423776736119
 10
-174.5551260420223
 20
904.4279357098591
 10
-177.3316619141062
 20
906.2952960182823
 10
-182.8167581553796
 20
908.624195856564
 10
-172.7985311088248
 20
914.1285411154811
 10
-166.367251846739
 20
918.4012319410541
 10
-168.3563512694193
 20
922.2109697575044
 10
-190.5774789164095
 20
927.6338729110637
 10
-225.4256280425716
 20
928.7814638775019
 10
-258.8645640399288
 20
924.0379816577826
 10
-299.1470783515188
 20
915.9191366499369
 10
-296.5046945116114
 20
921.6512833673247
 10
-279.0551130726806
 20
934.1015171397259
 10
-256.2625286081666
 20
952.1195742399106
 10
-257.363243462212
 20
958.1941170348233
 10
-265.4557206568366
 20
965.3982610600589
 10
-283.0204621065304
 20
974.1313270581374
 10
-302.5911362319839
 20
977.9278295687307
 10
-339.5452152670864
 20
986.7583742369326
 10
-348.8528734366973
 20
989.5775457836105
 10
-359.9148392730572
 20
988.5251462208469
 10
-390.9871740851595
 20
973.8842765820242
 10
-409.77560308506
 20
961.3837486473673
 10
-420.7290651130201
 20
949.839426586502
 10
-426.0863571290038
 20
935.7367070537664
 10
-428.0863274922223
 20
915.5610124031216
 10
-426.7263805407512
 20
886.1183420861101
 10
-421.9436549966771
 20
883.8761270762827
 10
-413.126988124907
 20
887.5190743393179
 10
-400.4353577934568
 20
891.5139008407738
 10
-399.5820018110009
 20
880.6377689784879
 10
-404.4052556605813
 20
863.2838158368228
 10
-408.5213329834566
 20
869.4228132862761
 10
-412.641959139607
 20
875.5550003356287
 10
-417.4697361228391
 20
858.1262612909688
 10
-417.1456124772817
 20
845.4210101593169
 10
-412.1024983527458
 20
837.1015795937816
 10
-408.1620779532279
 20
830.2860395682662
 10
-410.49778819161
 20
821.1993724570241
 10
-415.7629984583047
 20
816.2469266025111
 10
-417.5875945940196
 20
824.0915052334624
 10
-419.3747720786134
 20
832.2771949607888
 10
-425.1125984126885
 20
826.2855334501225
 10
-425.6758313508455
 20
816.0123404435633
 10
-413.5168514061554
 20
807.9082213197095
 10
-403.8087160109876
 20
803.6473780203493
 10
-401.7273035424111
 20
799.4562063990026
 10
-423.5078625519295
 20
783.9189082095388
 10
-452.3204552113035
 20
766.8924710636704
 10
-468.8935767066818
 20
788.696827924108
 10
-507.1985307263283
 20
833.1577668440251
 10
-563.9170590444723
 20
908.5074681687963
 10
-589.1960563367713
 20
945.1939627289904
 10
-594.6897105525115
 20
951.7849394485363
 10
-595.442709507065
 20
950.6145786161008
 10
-551.3965625027276
 20
869.4228132862761
 10
-513.6704153927894
 20
801.2446688647484
 10
-498.510773163638
 20
766.9230536150669
 10
-499.3461137103549
 20
762.2430494642128
 10
-505.7663421345412
 20
765.7686779481507
 10
-535.2858029251438
 20
797.0921751760504
 10
-568.9544935523204
 20
833.1940290121094
 10
-586.4739265666258
 20
846.0409364658611
 10
-600.9946761674427
 20
856.4999891461173
 10
-627.4352964203499
 20
886.875375881477
 10
-654.1025616486908
 20
918.6038734685855
 10
-654.801925489997
 20
915.4430254338256
 10
-648.7772656633701
 20
900.7014132727556
 10
-641.7887414752915
 20
883.9993824682975
 10
-642.3844073377024
 20
879.735686510782
 10
-675.8310018227205
 20
912.7595478967057
 10
-735.2781876152576
 20
980.2043021760463
 10
-814.1096224678449
 20
1077.198868500779
 10
-1013.259110922073
 20
1338.792247290061
 10
-1070.331240353381
 20
1408.865379114761
 10
-1049.379108691986
 20
1368.917165499445
 10
-991.4366358274051
 20
1272.871454956319
 10
-931.7794841147756
 20
1172.026288414532
 10
-925.7859722312517
 20
1155.950249027651
 10
-934.0471931506407
 20
1159.543184824284
 10
-948.0769514536163
 20
1170.921333122688
 10
-951.8782597937146
 20
1171.834774823769
 10
-926.4768551969606
 20
1134.610952545425
 10
-903.9857273104978
 20
1100.993275669948
 10
-898.2898427611953
 20
1087.013091939782
 10
-941.3274080600224
 20
1116.142997844613
 10
-978.109222522006
 20
1145.263831782516
 10
-960.7654721306809
 20
1118.754079543679
 10
-950.5749805110076
 20
1100.325753661566
 10
-951.7490677887817
 20
1098.295072248836
 10
-957.030160422504
 20
1100.712224592577
 10
-981.6359817893568
 20
1110.839238143384
 10
-1017.901028231608
 20
1130.458613054466
 10
-1125.472223011924
 20
1195.631443559765
 10
-1207.585371226344
 20
1238.392455215249
 10
-1164.828882704512
 20
1199.788331884
 10
-1119.162117472388
 20
1164.076315629566
 10
-1158.228628421055
 20
1178.473527142514
 10
-1197.286093102417
 20
1192.861692388159
 10
-1180.314062058487
 20
1171.583175514381
 10
-1168.211724082938
 20
1153.315806371258
 10
-1184.511735684458
 20
1152.652833196151
 10
-1187.649659655481
 20
1150.657540164322
 10
-1180.049998431933
 20
1143.361031693945
 10
-1138.019935454449
 20
1116.995223043656
 10
-1054.383673381989
 20
1065.705123298021
 10
-1049.049099832757
 20
1060.793077250899
 10
-1051.104529982457
 20
1059.936406017073
 10
-1079.705743242473
 20
1072.171611043647
 10
-1123.48445996964
 20
1091.819615334775
 10
-1141.329121713293
 20
1096.054424916014
 10
-1132.580173348187
 20
1085.346882580755
 10
-1096.578059749077
 20
1060.167882521635
 10
-1018.986734505808
 20
1004.236996249879
 10
-998.8281815037193
 20
985.4141554547506
 10
-995.5969422015019
 20
980.1034311556838
 10
-997.7648853007947
 20
978.2179526130295
 10
-1067.538822114269
 20
1000.883606639436
 10
-1121.280794394347
 20
1018.799250741876
 10
-1138.090198223792
 20
1020.658258672818
 10
-1118.062276405525
 20
1006.818471983223
 10
-1061.292168943976
 20
977.6377065244322
 10
-1005.25133968493
 20
947.7315178065898
 10
-994.4214157448387
 20
939.7247231551212
 10
-997.8283376700366
 20
938.0816177571908
 10
-1025.027122501725
 20
942.8504655048321
 10
-993.2952068647553
 20
924.6544899144645
 10
-972.7929985036119
 20
910.3331950879244
 10
-972.053389052653
 20
906.5388256460417
 10
-977.4292618960817
 20
904.7087040913778
 10
-1001.959140876904
 20
903.0269207607974
 10
-1006.950547359919
 20
903.4388600182222
 10
-1004.62804672777
 20
904.6905601575238
 10
-1014.270005593655
 20
906.788266187096
 10
-1047.003743935281
 20
909.4231714367044
 10
-1096.188222167452
 20
912.4331626843225
 10
-1006.205566687748
 20
877.3739168546551
 10
-916.2319831749718
 20
842.3237686915369
 10
-975.1626836436296
 20
847.9085794701379
 10
-1043.050859218597
 20
854.6629286932368
 10
-1045.731920991153
 20
853.990035463644
 10
-1040.358875106256
 20
850.539347080439
 10
-1012.097487961465
 20
838.0138905114511
 10
-932.0435477413299
 20
809.4313608773726
 10
-897.2734483702863
 20
798.1791407317785
 10
-887.7514553446689
 20
792.6055092891931
 10
-941.2730019580843
 20
801.2989207689482
 10
-976.5622851134244
 20
807.4243231178222
 10
-986.131873840879
 20
807.4020672442854
 10
-988.2634262739719
 20
805.1520909483057
 10
-989.4749065032435
 20
799.1071541191143
 10
-999.5600039689026
 20
796.1764976077654
 10
-1003.891289934967
 20
795.3288983408667
 10
-1002.90969283363
 20
793.2750101685472
 10
-983.1591213470201
 20
784.8912534465878
 10
-859.5678609587659
 20
746.4208452539235
 10
-800.3017033107976
 20
725.9118264926794
 10
-775.5779977731415
 20
711.5973420662396
 10
-764.2451836097498
 20
687.562669121435
 10
-761.4145243315808
 20
681.228483035127
 10
-768.5539053068002
 20
679.8971397640796
 10
-823.3028145165148
 20
693.2562921039109
 10
-867.0652119830629
 20
703.732769128577
 10
-891.0107843348496
 20
705.9365889016087
 10
-894.3529946092773
 20
704.101712916685
 10
-891.3018839648232
 20
700.3972407561348
 10
-864.1009660644241
 20
687.6442654245304
 10
-845.5763436948474
 20
678.7309936698195
 10
-846.04268905421
 20
676.4642869192523
 10
-852.7681519010323
 20
675.4138919270847
 10
-856.3044971277706
 20
673.9909294999627
 10
-853.0458106281654
 20
670.5563547803924
 10
-827.6750142824305
 20
658.2922376779181
 10
-712.2410969373095
 20
616.6645022988484
 10
-657.8919710633297
 20
596.5058207986446
 10
-636.4380799620477
 20
584.3104244881321
 10
-638.5488670997387
 20
582.0226183470634
 10
-649.4858556693409
 20
582.7140410048557
 10
-698.6417045214652
 20
594.3524236859827
 10
-710.0731281383937
 20
595.928838562171
 10
-707.7079661320281
 20
590.2091561619497
 10
-678.6675977138072
 20
575.408486267174
 10
-621.5784808316819
 20
552.8289516775146
 10
-586.1040318924658
 20
538.4471856380026
 10
-575.0311694159442
 20
530.8557482938206
 10
-588.0819005798853
 20
531.0822647711395
 10
-624.9783353605485
 20
540.1543344965054
 10
-635.6051294802717
 20
541.0938099157085
 10
-636.5015580309127
 20
536.1107815097986
 10
-624.4105535891167
 20
528.2038555933952
 10
-603.037976095077
 20
521.6500919279853
 10
-584.8215950040298
 20
515.1835784827356
 10
-580.3269879336589
 20
507.5067155916278
 10
-581.3480853555811
 20
499.7969828826742
 10
-576.3922214512058
 20
493.2636247179441
 10
-569.886053487633
 20
484.3616864969856
 10
-567.180911168305
 20
470.951546105078
 10
-561.3297751963248
 20
457.5040127616728
 10
-546.183445371899
 20
449.0746649084719
 10
-525.1349915234168
 20
439.9506048457322
 10
-503.9981309717377
 20
425.4207832779882
 10
-488.9549337345001
 20
409.9990819928782
 10
-500.0633644892846
 20
407.1432113845246
 10
-540.6602622893065
 20
409.8861578493186
 10
-571.5293130833022
 20
419.1934048249611
 10
-597.6946903736407
 20
437.49832111732
 10
-624.1804905638211
 20
467.2343783307544
 10
-653.5506622442869
 20
501.5626497827986
 10
-670.8717455681062
 20
515.8386104743283
 10
-673.8432130808141
 20
512.6427595530124
 10
-668.7230514864572
 20
504.9590862618035
 10
-658.2163774047403
 20
487.1676998366758
 10
-660.4881726806661
 20
482.2740290200147
 10
-667.843610386634
 20
481.8401422845292
 10
-667.5911629896859
 20
477.7105983591902
 10
-659.5071923702817
 20
464.7966919882203
 10
-625.4135070771852
 20
420.642863563419
 10
-596.8491213769607
 20
383.6445811767187
 10
-594.7523919330631
 20
378.4766696827867
 10
-601.8140315486395
 20
383.8066429994972
 10
-622.1350575674757
 20
400.3959295577567
 10
-629.7755040927611
 20
402.0751686256569
 10
-624.4098339996721
 20
390.2909919831243
 10
-605.7125101633853
 20
366.4900828093303
 10
-601.7529692443388
 20
360.5583271199291
 10
-609.4081673532389
 20
365.6344652600485
 10
-653.3103964686516
 20
403.8974774949227
 10
-732.4316716696841
 20
470.2625135122268
 10
-775.4964014700458
 20
516.6545735052862
 10
-809.6422055986314
 20
555.1317920980515
 10
-810.8301706728376
 20
551.0066428082494
 10
-801.0723322067445
 20
531.1061911201734
 10
-788.3251649899431
 20
500.2990507180381
 10
-766.7520019382143
 20
460.8698666892808
 10
-727.3092228088783
 20
409.3100237004043
 10
-712.6241498184567
 20
389.5440324399812
 10
-713.8247848068129
 20
387.4280282788165
 10
-719.5553124479495
 20
389.8141868771915
 10
-741.1092007824115
 20
406.0653177957231
 10
-770.2923820057671
 20
434.2422559792632
 10
-812.234038280054
 20
475.860919391406
 10
-818.9684188960651
 20
478.067154929002
 10
-818.7696837112335
 20
469.7457454924944
 10
-821.8261398772762
 20
470.5993841708034
 10
-831.8182818064634
 20
480.185549155107
 10
-866.3675443168765
 20
519.0752723970033
 10
-922.1522511328821
 20
578.7675297946814
 10
-924.2432752604686
 20
575.4249597255308
 10
-922.4369772563461
 20
565.5922582575747
 10
-909.6952069603792
 20
532.2372058297621
 10
-889.0521903646968
 20
490.2635278251889
 10
-865.6331775890139
 20
451.2324309570474
 10
-849.1610556121136
 20
426.4417265021722
 10
-846.7549284066503
 20
421.2083066691559
 10
-849.0090423419369
 20
421.1857167005193
 10
-916.2319831749718
 20
479.7458286051957
 10
-1014.383340931184
 20
562.5570556797713
 10
-1026.49246360721
 20
566.9111372114559
 10
-1020.493991696443
 20
552.1036569165792
 10
-1014.594129239213
 20
537.1284608818589
 10
-1029.650921577029
 20
543.082729441028
 10
-1050.03627375229
 20
551.02560913004
 10
-1052.488480381832
 20
548.6411467067839
 10
-1049.790482557704
 20
542.035572601361
 10
-1028.973916407752
 20
516.2094817341633
 10
-987.64691801729
 20
473.6442241072397
 10
-916.4223659823209
 20
403.344447307106
 10
-986.0331358892272
 20
455.738371561171
 10
-1042.522731965489
 20
502.3446122124985
 10
-1080.585184342296
 20
540.8252231555027
 10
-1099.566514712603
 20
561.1574542099763
 10
-1105.919564322209
 20
564.367054429609
 10
-1109.279892830867
 20
562.2669326354723
 10
-1115.862003180471
 20
556.8339809293108
 10
-1129.434179695534
 20
565.8299797705305
 10
-1145.670738927812
 20
576.9996013277311
 10
-1161.68288905186
 20
583.0014655887373
 10
-1179.088961029013
 20
592.4122563455369
 10
-1198.6913741889
 20
611.7777960800265
 10
-1212.309039036713
 20
626.9919729092309
 10
-1218.978245408739
 20
630.489408906714
 10
-1218.257910675047
 20
622.5956925965435
 10
-1209.706875106836
 20
603.6362840046751
 10
-1206.081506385948
 20
591.8614877245456
 10
-1226.071469861011
 20
608.767804832408
 10
-1246.056910202421
 20
625.9227143937653
 10
-1258.29070174973
 20
632.5610555185419
 10
-1262.993835561303
 20
628.7193730706755
 10
-1260.387276995889
 20
614.434211914104
 10
-1258.365487652724
 20
600.0324515678805
 10
-1264.904551133766
 20
601.8547604371462
 10
-1276.451545955425
 20
616.6373120976912
 10
-1289.453704831854
 20
641.116203026437
 10
-1301.798544450242
 20
663.3818167208785
 10
-1305.539664273221
 20
664.2245587590261
 10
-1308.112068039639
 20
658.6322179908805
 10
-1316.165893001238
 20
646.9187667109046
 10
-1331.268430668034
 20
643.4677699322239
 10
-1351.336469597838
 20
648.2019231887859
 10
-1374.286721249594
 20
661.0438449156706
 10
-1399.96236652362
 20
679.3305144756839
 10
-1405.764776010349
 20
661.0438449156706
 10
-1410.78437497982
 20
648.9205617473583
 10
-1418.192368414869
 20
643.9267651994021
 10
-1431.648665329725
 20
645.4538624990107
 10
-1454.813251837487
 20
652.893286573015
 10
-1480.922963744359
 20
658.2208441251621
 10
-1488.835106684236
 20
654.5239276537806
 10
-1496.336723845955
 20
646.0936032149049
 10
-1502.339590392258
 20
636.865973671385
 10
-1502.915441845319
 20
631.1580616985081
 10
-1484.69564270441
 20
624.5793436991432
 10
-1460.570327189205
 20
619.9827605246198
 10
-1492.120931985753
 20
599.8012577591723
 10
-1523.671511082677
 20
579.6106830267969
 10
-1496.472726250989
 20
578.3776922130562
 10
-1457.941127255909
 20
578.6224811223434
 10
-1449.935617585591
 20
576.8930763903033
 10
-1446.608287392893
 20
570.6623055870379
 10
-1437.951138081223
 20
560.3437527458443
 10
-1417.142950008376
 20
548.7944706577352
 10
-1387.677586924235
 20
536.3646166863902
 10
-1421.775795350984
 20
529.6102674632909
 10
-1452.790922802238
 20
521.3065650670462
 10
-1458.670097062936
 20
517.7247572071812
 10
-1458.378560539371
 20
514.7223216487316
 10
-1440.027873218409
 20
511.0534691656905
 10
-1399.227999795757
 20
511.495862476396
 10
-1360.13427294631
 20
512.2506347049381
 10
-1354.594796302721
 20
510.980790631783
 10
-1359.962034072815
 20
508.7215881711379
 10
-1378.067341393159
 20
501.7779612244797
 10
-1384.123611756104
 20
494.1883742531556
 10
-1385.896063356706
 20
486.245211868291
 10
-1393.706641386399
 20
478.4584059898931
 10
-1397.202252710647
 20
475.0902904954589
 10
-1395.567499690198
 20
472.6673300369159
 10
-1376.879659014807
 20
470.6433048265487
 10
-1354.855441879414
 20
467.9732938918921
 10
-1342.527615411467
 20
461.7402358221773
 10
-1331.47808819265
 20
456.6608595295567
 10
-1312.52734037374
 20
456.7628613333324
 10
-1229.018008739387
 20
465.0947562160329
 10
-1170.087308270729
 20
469.6278870213143
 10
-1240.523087475898
 20
448.7392077291617
 10
-1311.438267448924
 20
424.3600313377426
 10
-1318.280586481629
 20
418.1839236326452
 10
-1305.863633721041
 20
416.109732758138
 10
-1293.91544208438
 20
414.2182919029421
 10
-1306.616144382757
 20
402.8004633865927
 10
-1316.294365416727
 20
392.9851091641756
 10
-1312.346029533318
 20
389.2010709707486
 10
-1305.513450657739
 20
386.4902490347329
 10
-1305.74577524986
 20
380.379598269473
 10
-1305.372796620938
 20
377.2547040073216
 10
-1300.007974615408
 20
375.4736173333838
 10
-1276.815349818929
 20
376.299783114682
 10
-1242.617401155231
 20
380.742245649941
 10
-1278.882447597482
 20
359.8989004927996
 10
-1300.136164335044
 20
347.0055538202471
 10
-1303.513557393389
 20
343.6669671926654
 10
-1301.277253296857
 20
342.3534337603726
 10
-1224.484877934106
 20
356.6441203358934
 10
-1138.487976988932
 20
369.8695318375174
 10
-1127.641476791991
 20
367.7157235308871
 10
-1147.421654244322
 20
359.3912044399938
 10
-1168.398714540048
 20
350.9187840186076
 10
-1168.478614668025
 20
348.059495360392
 10
-1162.054608399254
 20
345.7102157210536
 10
-1155.719265829911
 20
343.0098792312308
 10
-1156.617107859818
 20
339.0396986682533
 10
-1182.281419600091
 20
325.0663253381888
 10
-1217.704032399671
 20
306.8945587927081
 10
-1221.648333442265
 20
302.4783355725551
 10
-1216.922481163939
 20
301.1620008813527
 10
-1182.983918795405
 20
307.789573864083
 10
-1118.935472496954
 20
326.6982514001049
 10
-1032.022174394051
 20
352.804288260885
 10
-980.9254386120363
 20
365.084801722847
 10
-972.1972298427088
 20
365.4928346375725
 10
-976.4898892753704
 20
361.7872316936094
 10
-1029.560253307006
 20
341.1589409819187
 10
-1141.584113372921
 20
295.3595913946226
 10
-1178.643175368069
 20
275.9698426152461
 10
-1189.888019721855
 20
265.1655411993076
 10
-1052.733629085842
 20
289.6897919626879
 10
-914.3190060356834
 20
312.9538103119228
 10
-920.3979177665104
 20
308.3912020390351
 10
-940.5114193294412
 20
302.9174650311372
 10
-1036.575273806421
 20
275.8841343724669
 10
-1075.930777015973
 20
261.2982105276653
 10
-1090.902580700454
 20
252.2642533432415
 10
-1066.296168242272
 20
254.0932184148699
 10
-1010.006592331993
 20
264.4141870206279
 10
-889.0331983432833
 20
293.0261684226896
 10
-884.496520990025
 20
293.9502240680793
 10
-885.5483551610818
 20
292.408529382594
 10
-902.6325907591274
 20
283.2164681173374
 10
-925.6064860640639
 20
270.2993235938668
 10
-923.2101761145951
 20
268.0497584918551
 10
-912.4060288963949
 20
267.2145207436299
 10
-909.3861175942901
 20
265.2470090042882
 10
-917.3834033852399
 20
260.402347368731
 10
-960.1670821082297
 20
245.0021823677137
 10
-1005.751402949698
 20
229.3006892867599
 10
-1031.584304216997
 20
217.2310926309413
 10
-1035.970407478968
 20
213.2799040893776
 10
-1034.070434348929
 20
211.1027091257963
 10
-1009.614467483919
 20
213.2249325957325
 10
-979.6958144489108
 20
218.6012166331295
 10
-1015.317162433322
 20
192.6898544167436
 10
-1034.751962651857
 20
177.243198797679
 10
-1038.276331854267
 20
170.7789726188787
 10
-997.8283376700366
 20
184.8928714876294
 10
-922.8526172594859
 20
201.8819156820007
 10
-830.1024978746253
 20
211.8468674100307
 10
-828.0413367089906
 20
210.5236195202349
 10
-832.482385764983
 20
206.7142157988849
 10
-857.3012827063136
 20
193.9863232993505
 10
-884.8955847363152
 20
178.91691244663
 10
-882.6178271478484
 20
176.9443121819297
 10
-871.4809212107555
 20
178.3164150550908
 10
-828.2019850525029
 20
190.0046807045043
 10
-766.2034948840491
 20
211.8015332750194
 10
-652.4966950045191
 20
248.9471259008835
 10
-603.0235329069385
 20
261.2272538685004
 10
-571.7140419735865
 20
265.6460470509558
 10
-568.4382909242945
 20
264.2307174118716
 10
-580.3360599005856
 20
258.777231706915
 10
-674.9062265878858
 20
226.0627680825566
 10
-772.298288981904
 20
187.635406758455
 10
-795.0976581468961
 20
173.4178099108092
 10
-799.2601489889497
 20
167.9432762145977
 10
-798.3071298684136
 20
163.7049971842514
 10
-803.4216118460825
 20
155.1147182916845
 10
-822.958285370278
 20
141.7102575164647
 10
-838.6837048002652
 20
131.7668420725276
 10
-839.3234455161593
 20
130.2536225693513
 10
-834.6356286799066
 20
131.4925756956333
 10
-784.7711898218115
 20
139.1354379854831
 10
-766.0788260127681
 20
141.117547110701
 10
-771.1717974059673
 20
144.8471792021903
 10
-777.3918257668099
 20
147.8186467148982
 10
-775.3400192639551
 20
151.7624851642783
 10
-743.9730125742792
 20
164.3215054409336
 10
-665.3390536249953
 20
184.5902841261647
 10
-659.046757924214
 20
184.5112063861249
 10
-660.053720553474
 20
182.1668867740307
 10
-687.8709925128171
 20
170.2689892996243
 10
-724.009108516961
 20
155.7901557839571
 10
-736.8922524391734
 20
147.621453507448
 10
-663.0928808732228
 20
158.4374996511076
 10
-589.0850082656918
 20
169.0450447531873
 10
-603.0028447104054
 20
161.312644976728
 10
-641.9231762033214
 20
148.1745093948877
 10
-720.0743420345081
 20
120.2866919703488
 10
-741.5069795475508
 20
109.3890238239705
 10
-720.9991172693426
 20
106.3518423751948
 10
-702.8464712433906
 20
99.48117665829636
 10
-690.373262008007
 20
87.42489240720374
 10
-686.1549001855028
 20
74.10215643319429
 10
-692.7667706985662
 20
63.43216124717105
 10
-694.4615837380183
 20
58.51399868976887
 10
-686.579046763863
 20
51.54402962951303
 10
-640.5723012187768
 20
30.5034912649212
 10
-578.7766581748383
 20
2.57941167229751
 10
-666.5471415040278
 20
26.62313088440646
 10
-727.9778499010494
 20
44.16068213294283
 10
-756.1308617355559
 20
48.85361319417689
 10
-756.8198943284071
 20
43.0512037074468
 10
-765.2243392468995
 20
40.13527308008997
 10
-796.6389159387898
 20
36.66854813211922
 10
-807.6470667645409
 20
32.93524099453794
 10
-806.3783534747988
 20
25.80716785344839
 10
-794.3287254260687
 20
17.06757415112202
 10
-772.9941062752329
 20
8.499679630207992
 10
-755.9166810772883
 20
2.04563050212414
 10
-784.7711898218115
 20
5.308351842544198
 10
-844.1166822060495
 20
10.76397061621105
 10
-837.5104913096739
 20
5.624534304587541
 10
-807.4368438482185
 20
-5.090640818709516
 10
-753.0392741848418
 20
-22.84239842513648
 10
-811.9699746534999
 20
-20.03183625217094
 10
-876.7574907108262
 20
-13.65827834339325
 10
-888.1549137264959
 20
-14.91280544122719
 10
-907.3379861375276
 20
-22.93304099553598
 10
-932.0616659755605
 20
-35.7527582481298
 10
-887.881778133015
 20
-41.72740660835484
 10
-836.7027264584599
 20
-51.82041955790509
 10
-894.3460300114384
 20
-51.67310931874135
 10
-938.7411007975497
 20
-50.9812240677345
 10
-969.5359310802572
 20
-53.85580400164826
 10
-982.6294521165303
 20
-59.50124019095824
 10
-973.9205951633387
 20
-67.12200080500839
 10
-971.4055786551298
 20
-69.08668558581758
 10
-973.696211754731
 20
-70.80403719465994
 10
-990.5118605925704
 20
-72.75217141824305
 10
-1013.276124072514
 20
-76.78439087119659
 10
-1016.560227499288
 20
-82.42386474796512
 10
-1015.960860891162
 20
-91.60091743337693
 10
-1015.312613600047
 20
-100.6571304913382
 10
-1018.247818944671
 20
-106.1987402036379
 10
-1038.608370983715
 20
-109.7334406545026
 10
-1057.75618351196
 20
-112.1486141272696
 10
-1069.097093056604
 20
-117.8692731131659
 10
-1070.325149542725
 20
-124.6082025624519
 10
-1059.1344028954
 20
-130.0781360261421
 10
-1058.858594541125
 20
-132.0306391856388
 10
-1069.915317654388
 20
-134.7030658848593
 10
-1118.264558138334
 20
-140.8035138997791
 10
-1176.556083282804
 20
-148.883835172714
 10
-1185.158261100831
 20
-153.6370832491814
 10
-1183.469101978444
 20
-159.8608123557392
 10
-1182.146136784501
 20
-166.7639109968913
 10
-1191.672935639623
 20
-174.1039032294231
 10
-1253.424375331964
 20
-195.2282994639363
 10
-1431.04038095241
 20
-248.639903090062
 10
-1503.145504870615
 20
-273.7511846425177
 10
-1532.230050940811
 20
-281.9924112551953
 10
-1545.992584563601
 20
-287.4191950518311
 10
-1568.677718904259
 20
-302.0360612427514
 10
-1628.870733456526
 20
-348.8594894082403
 10
-1688.919290427785
 20
-402.5013102573998
 10
-1724.933457150093
 20
-443.0001639955917
 10
-1744.931644504523
 20
-478.3092615602822
 10
-1750.488982386112
 20
-493.073103895267
 10
-1741.117589151405
 20
-488.6074089007961
 10
-1716.329583156947
 20
-466.2279201767425
 10
-1685.913385420227
 20
-440.7585143774711
 10
-1676.662266421265
 20
-435.5833812894697
 10
-1673.264827656963
 20
-436.7353668914445
 10
-1671.945974402704
 20
-440.3273004027798
 10
-1668.119711728651
 20
-440.4819864337512
 10
-1653.727023349355
 20
-430.7244306635113
 10
-1634.189244741369
 20
-413.4532046083552
 10
-1649.23018041178
 20
-436.8441533956977
 10
-1658.308906339509
 20
-454.8984983635896
 10
-1659.030808750206
 20
-465.4663375480993
 10
-1659.719841343057
 20
-477.6457486930921
 10
-1668.731696851681
 20
-499.5826899087017
 10
-1677.893149865919
 20
-521.3677720518724
 10
-1678.949378672512
 20
-533.191320516875
 10
-1659.490909101174
 20
-520.5042133190768
 10
-1619.347763845234
 20
-483.3722157937911
 10
-1580.59062495851
 20
-446.7173060702918
 10
-1564.469688330209
 20
-435.1668931987699
 10
-1604.343116042531
 20
-504.541946163316
 10
-1627.766215058274
 20
-542.3850779572514
 10
-1631.97830617276
 20
-550.8083349997964
 10
-1630.486802851038
 20
-551.7884929222439
 10
-1556.92656627731
 20
-474.6141954617578
 10
-1517.588050518575
 20
-435.0501655110028
 10
-1508.23138316786
 20
-428.3656421636553
 10
-1507.896208684403
 20
-432.265688455405
 10
-1514.951885987439
 20
-452.5296356115084
 10
-1513.432292977753
 20
-463.7211018482775
 10
-1504.801922673272
 20
-464.1622101778325
 10
-1490.525268091921
 20
-452.1752121104079
 10
-1476.176757364599
 20
-437.8063215820297
 10
-1478.24953475984
 20
-449.7182510506063
 10
-1485.810800746594
 20
-474.632339395612
 10
-1473.622343334297
 20
-462.8688509496121
 10
-1442.075156587612
 20
-425.0489516148884
 10
-1408.060806030785
 20
-385.8271635439212
 10
-1389.944165176688
 20
-370.6695258853656
 10
-1383.322374609137
 20
-377.1575499150849
 10
-1389.844424939738
 20
-381.8028852744815
 10
-1394.611011120554
 20
-385.1607980185759
 10
-1396.644108297849
 20
-393.1357251374964
 10
-1405.810110145361
 20
-420.443296473438
 10
-1405.753442476597
 20
-422.5887267029634
 10
-1398.897091449722
 20
-416.5618053095106
 10
-1369.54506370311
 20
-384.6859460839928
 10
-1300.906664732875
 20
-309.8348945447231
 10
-1297.996670718437
 20
-308.2993420691403
 10
-1301.192830035229
 20
-313.9852551647105
 10
-1326.716050845109
 20
-347.722820781587
 10
-1359.270714213515
 20
-390.9450892710754
 10
-1369.699184342375
 20
-408.9200738030743
 10
-1369.065688634875
 20
-414.7621378081275
 10
-1375.021087977457
 20
-428.811453524223
 10
-1378.659486407217
 20
-437.3857215516466
 10
-1375.963981446522
 20
-438.7582613183992
 10
-1347.178604687929
 20
-418.2220523559974
 10
-1308.692314128237
 20
-387.7412971662457
 10
-1328.456763411278
 20
-426.4814229025289
 10
-1339.204808352421
 20
-451.8510884648503
 10
-1339.982247648469
 20
-458.0286096492141
 10
-1337.305426313712
 20
-458.4671994157126
 10
-1330.336870732721
 20
-456.7717952849314
 10
-1330.596411225624
 20
-464.323989304758
 10
-1336.665120206111
 20
-473.5500511712735
 10
-1345.365342085967
 20
-478.0503121587094
 10
-1360.408539323204
 20
-481.7085506974422
 10
-1353.679118734437
 20
-485.5027916412093
 10
-1334.35323351827
 20
-476.0285485151674
 10
-1303.814679876341
 20
-450.7518127896944
 10
-1276.529749908283
 20
-427.4968407077631
 10
-1265.047338239277
 20
-422.9002575332397
 10
-1252.05198976295
 20
-415.7186263777714
 10
-1221.139429507177
 20
-386.254419776667
 10
-1177.467237717437
 20
-340.923111723853
 10
-1225.908277254819
 20
-425.4750770642215
 10
-1274.349316792201
 20
-514.4150988379101
 10
-1236.497678423045
 20
-475.2035135172825
 10
-1208.111211213004
 20
-445.596494111043
 10
-1204.055476604985
 20
-445.4450719321955
 10
-1205.56358188318
 20
-454.2513818558878
 10
-1212.927526164368
 20
-483.2020842893834
 10
-1212.042559645595
 20
-495.0710953875127
 10
-1202.775301283374
 20
-489.9459737659128
 10
-1184.992241536106
 20
-467.914226640974
 10
-1162.071595850072
 20
-439.7068344041525
 10
-1149.697278764078
 20
-430.824170900461
 10
-1127.325140132209
 20
-405.7015558142523
 10
-1080.385703868397
 20
-338.4480324298211
 10
-1041.185040887555
 20
-280.7990749597777
 10
-1022.958893939759
 20
-258.6037240346789
 10
-1021.337530422904
 20
-260.5854733651747
 10
-1024.511331067667
 20
-271.1718162782606
 10
-1044.646523112429
 20
-317.8132140138828
 10
-1066.456533889931
 20
-373.6103851470541
 10
-1086.995030118782
 20
-437.9955736059662
 10
-1105.13888687366
 20
-491.1839246068973
 10
-1113.01661801831
 20
-504.2760321639041
 10
-1120.222869412634
 20
-508.6398795523376
 10
-1123.465467948227
 20
-510.0835558756155
 10
-1122.011177680641
 20
-513.9470573034278
 10
-1106.62347699679
 20
-526.7814747403897
 10
-1090.854702302764
 20
-538.5033040974708
 10
-1088.90800725807
 20
-543.8827234888765
 10
-1127.901993870568
 20
-536.2466458995047
 10
-1151.60007885265
 20
-531.7021815604707
 10
-1154.40167185718
 20
-534.6325810755891
 10
-1152.8251541825
 20
-541.3690947603108
 10
-1152.695962177567
 20
-550.9770530249377
 10
-1166.750931810727
 20
-549.0663374524753
 10
-1179.952545461432
 20
-546.9232972878912
 10
-1179.153569881292
 20
-553.9802595720784
 10
-1178.802256034577
 20
-561.1006742255072
 10
-1193.88623857355
 20
-558.9122999259118
 10
-1215.418616323543
 20
-552.8469832956637
 10
-1192.752962297136
 20
-572.2578314655415
 10
-1170.087308270729
 20
-591.6777773019694
 10
-1195.019540549588
 20
-586.2561591295609
 10
-1212.626198084431
 20
-584.8542703933174
 10
-1219.951747128824
 20
-589.1029577709878
 10
-1216.089659180278
 20
-596.3563936731802
 10
-1205.768716274143
 20
-602.5108365960697
 10
-1173.342088427635
 20
-608.3778292354548
 10
-1158.379922101787
 20
-611.324085417978
 10
-1163.711463095502
 20
-618.6272500907184
 10
-1185.576445366649
 20
-627.9838917418103
 10
-1220.214679971966
 20
-637.0906816578792
 10
-1256.484249547868
 20
-647.1429093056927
 10
-1263.766726024076
 20
-651.6250263592748
 10
-1262.916762391859
 20
-655.3592072840388
 10
-1259.697113619625
 20
-660.7264193545092
 10
-1272.082764239372
 20
-662.6393964937975
 10
-1286.872100600395
 20
-665.052719593707
 10
-1291.801879387402
 20
-670.9032901739808
 10
-1286.872100600395
 20
-678.4945990200474
 10
-1272.082764239372
 20
-686.1300855180895
 10
-1264.049344778452
 20
-689.7258482732552
 10
-1264.327697395407
 20
-692.0628177931655
 10
-1292.481840013326
 20
-693.9905465160686
 10
-1323.350196917501
 20
-696.2842892700555
 10
-1323.440017099964
 20
-699.6997434700968
 10
-1315.147494039733
 20
-705.5681495887482
 10
-1302.309658552909
 20
-715.1613819693832
 10
-1317.948958546149
 20
-716.900989451763
 10
-1331.170977697534
 20
-719.6197268716696
 10
-1333.561068338231
 20
-725.7859145222803
 10
-1316.362366619244
 20
-730.30431944357
 10
-1281.974035148196
 20
-728.9137899407021
 10
-1235.708905593244
 20
-723.4286936994285
 10
-1268.664765776651
 20
-772.4318353915544
 10
-1292.445577845242
 20
-812.4163111749544
 10
-1292.493456242932
 20
-819.9744675073223
 10
-1285.709346856373
 20
-822.3597266188914
 10
-1269.816185986919
 20
-825.6689128777356
 10
-1264.876075951457
 20
-828.8787957932216
 10
-1253.69296209217
 20
-826.0939075436557
 10
-1241.722822977448
 20
-819.5198668756807
 10
-1234.421508677565
 20
-811.3623696348097
 10
-1228.228105126174
 20
-803.1812030411352
 10
-1220.749566225929
 20
-802.8128760439795
 10
-1206.627751873287
 20
-796.550366206281
 10
-1184.475473516374
 20
-774.1997638585046
 10
-1156.614846292992
 20
-740.3916527764318
 10
-1165.61762983469
 20
-771.7881369337146
 10
-1173.768213876968
 20
-830.4377863250007
 10
-1172.479249284284
 20
-841.190508597533
 10
-1169.134212051324
 20
-840.2485917141426
 10
-1153.36911240339
 20
-798.7693230572729
 10
-1140.038306747752
 20
-763.8075558977289
 10
-1136.355011076572
 20
-758.3536332991814
 10
-1135.445115923467
 20
-762.5042766150218
 10
-1135.454907479839
 20
-787.5719202075854
 10
-1131.647482629461
 20
-800.3695100847567
 10
-1124.877122541219
 20
-799.900903158568
 10
-1115.997979885882
 20
-785.1699306414289
 10
-1106.153173895481
 20
-766.7121529913329
 10
-1107.738635038974
 20
-798.7693230572729
 10
-1111.301656474409
 20
-839.5675003048054
 10
-1093.033156547872
 20
-794.2361922519917
 10
-1081.472540926011
 20
-769.3232346903991
 10
-1079.004940222278
 20
-767.2724304728424
 10
-1079.343095862006
 20
-773.0846058163209
 10
-1080.356252100414
 20
-796.1797776422995
 10
-1076.351222848618
 20
-817.7449995105144
 10
-1071.985268091097
 20
-827.0644281074698
 10
-1068.098662702187
 20
-827.097991815137
 10
-1057.221425756112
 20
-793.5652778933713
 10
-1046.625214187785
 20
-761.4253807409225
 10
-1042.771221620491
 20
-760.0164503079707
 10
-1038.952900129952
 20
-767.0374074203031
 10
-1032.207597174157
 20
-779.1216014619985
 10
-1025.29910161217
 20
-762.5042766150218
 10
-1006.876455346745
 20
-726.2392301727707
 10
-992.7648180448208
 20
-699.9266711413838
 10
-974.926966701269
 20
-655.758116832591
 10
-960.3520936943674
 20
-618.6953797913506
 10
-951.9122603949732
 20
-604.4124802016053
 10
-950.3129214550492
 20
-613.2910317656133
 10
-956.2595315265571
 20
-645.7126995848784
 10
-960.5728020568827
 20
-677.2508143646368
 10
-956.5768447720138
 20
-694.0539988853106
 10
-950.4922534244988
 20
-710.1001496106164
 10
-947.9638988119413
 20
-736.5838424317091
 10
-945.300672577763
 20
-762.1847018027397
 10
-938.8976372013788
 20
-776.103669030866
 10
-932.494601824994
 20
-775.7523551841511
 10
-929.8313755908157
 20
-767.0374074203031
 10
-927.1681493566372
 20
-758.3224596564552
 10
-920.7651139802532
 20
-757.9711458097406
 10
-914.3620786038688
 20
-759.2993537267793
 10
-911.6988523696903
 20
-754.6166254158852
 10
-907.5013072418343
 20
-743.9888547104869
 10
-897.429702078262
 20
-731.6483840280134
 10
-885.2654537108522
 20
-721.4311391007738
 10
-874.7901074695995
 20
-717.172968562208
 10
-868.5627033169497
 20
-721.8352913724227
 10
-865.4155788808843
 20
-733.0389392305043
 10
-864.2262003274121
 20
-736.576749335755
 10
-861.6938879729092
 20
-734.4759336517966
 10
-854.0827647174923
 20
-715.6498290045451
 10
-844.4866796787016
 20
-689.1541087598782
 10
-836.8523239640726
 20
-676.6615220087356
 10
-831.6590726418404
 20
-678.5655556792121
 10
-829.3862750806168
 20
-695.2598251975173
 10
-827.8223245215942
 20
-715.4549230635441
 10
-821.28102517335
 20
-699.0404453410826
 10
-801.5981721934039
 20
-608.3778292354548
 10
-789.3043206270929
 20
-540.3808671562339
 10
-789.0051256158671
 20
-635.576614067143
 10
-787.4774629245522
 20
-707.083347962897
 10
-786.4740211436464
 20
-709.0012080305596
 10
-785.0936172922494
 20
-705.2815730924264
 10
-780.9452355432348
 20
-682.4219897106929
 10
-774.1347583434551
 20
-655.2945984317607
 10
-766.579737365096
 20
-645.3908375061471
 10
-760.3982327391638
 20
-653.0574976469152
 10
-757.7084073951571
 20
-678.6413438675049
 10
-755.1981710168306
 20
-693.049914613829
 10
-749.3492966116762
 20
-699.0404453410826
 10
-741.7925794581976
 20
-673.0758078061715
 10
-735.1606118399306
 20
-610.6443817882839
 10
-721.6881498621935
 20
-485.9832974928572
 10
-717.8634548651452
 20
-471.057393335094
 10
-716.4951298365686
 20
-469.6174948564003
 10
-715.4267451082853
 20
-472.5425745495531
 10
-713.2111806075322
 20
-533.1369144149371
 10
-709.1948435216066
 20
-606.1600031678761
 10
-700.9082827739173
 20
-664.597707768097
 10
-689.5754429109024
 20
-712.6398377569266
 10
-684.4892819178042
 20
-631.0434832618616
 10
-680.351642611213
 20
-580.0740891119225
 10
-678.671709653491
 20
-569.7506019431086
 10
-677.5535704550364
 20
-572.1127827932036
 10
-674.3191957988103
 20
-587.5594384122682
 10
-666.9097888844955
 20
-581.1790444037665
 10
-662.7656475732797
 20
-577.0206141021503
 10
-659.8675781839233
 20
-579.829300202635
 10
-657.0819703449128
 20
-608.3778292354548
 10
-648.360212180964
 20
-671.8416605093941
 10
-646.7548338296296
 20
-674.6294785159848
 10
-645.4396042222172
 20
-672.8186830778331
 10
-643.7149025211901
 20
-656.2057528663935
 10
-644.1353483538351
 20
-576.6459135984851
 10
-645.5032107891972
 20
-494.875032963476
 10
-644.8663998303277
 20
-492.8472813077698
 10
-643.7974754099609
 20
-497.6631850651656
 10
-640.2821781744778
 20
-526.7814747403897
 10
-631.6227672959812
 20
-586.3377554326568
 10
-621.07983104618
 20
-634.0353562752495
 10
-609.2030329622748
 20
-673.3013219981922
 10
-598.0787198404629
 20
-629.5022254699681
 10
-588.0854471278623
 20
-571.9450670533603
 10
-579.683289475819
 20
-495.0495591034203
 10
-572.4121465333644
 20
-404.3869429977928
 10
-566.3830920712005
 20
-498.0142162160275
 10
-559.5380488784558
 20
-566.7206163887787
 10
-551.5506831419925
 20
-600.4357719343797
 10
-548.2211170820916
 20
-598.2641537889949
 10
-544.762590313865
 20
-586.3928554244166
 10
-538.1258168660926
 20
-539.9264207223309
 10
-530.643885615609
 20
-400.7241813254074
 10
-528.1377611769658
 20
-372.1366916640861
 10
-525.5790039103731
 20
-369.3744447824029
 10
-522.4604317554856
 20
-373.5945284796494
 10
-515.4758910089753
 20
-400.8656834497685
 10
-509.0480297967514
 20
-449.7182510506063
 10
-491.3869661599701
 20
-558.5133903773598
 10
-480.1946518356412
 20
-594.7240307176725
 10
-476.5262362461915
 20
-591.6261981585637
 10
-471.6950412130975
 20
-576.6459135984851
 10
-465.7940479724536
 20
-524.1465951904051
 10
-462.9189026468334
 20
-436.1188586347623
 10
-462.2026798528247
 20
-322.7905885027278
 10
-450.7338375847755
 20
-404.3869429977928
 10
-439.4565603067349
 20
-468.672416919378
 10
-428.4308309388365
 20
-508.6489515192645
 10
-422.769666580237
 20
-518.6464903692865
 10
-419.6966341573447
 20
-517.3684224167641
 10
-419.1016621847555
 20
-472.3839050770134
 10
-420.6157297754914
 20
-413.4532046083552
 10
-408.2221379722309
 20
-485.9832974928572
 10
-395.8285718685936
 20
-558.5133903773598
 10
-398.4759157357442
 20
-449.7182510506063
 10
-401.1323315698216
 20
-340.923111723853
 10
-385.1938365653564
 20
-420.1350294952858
 10
-369.7165983948955
 20
-480.2964849104816
 10
-354.8853202491002
 20
-513.7079223112052
 10
-344.4115416848515
 20
-522.3355941552693
 10
-339.3910946278211
 20
-522.8920423929483
 10
-338.0810049450133
 20
-522.5667879639779
 10
-336.526152052541
 20
-529.0480529928422
 10
-340.2931770955272
 20
-542.7120285613411
 10
-351.7846607314589
 20
-559.6466666537744
 10
-361.0267334631171
 20
-571.179655180887
 10
-363.1027747104822
 20
-580.1738293488722
 10
-357.1738459796133
 20
-590.9376024593043
 10
-342.4010858754398
 20
-607.7794649126265
 10
-323.1964771803155
 20
-635.5063512978001
 10
-317.795264508587
 20
-661.0437325999655
 10
-319.7365626324458
 20
-676.9425730861073
 10
-321.9294600656929
 20
-680.907922119957
 10
-319.9960774257252
 20
-683.5609456037957
 10
-312.0109732560879
 20
-696.3115051708359
 10
-299.7261936567036
 20
-716.2482190269965
 10
-329.0192921677256
 20
-696.3115051708359
 10
-358.3214369460511
 20
-676.3747913146755
 10
-335.0211564287317
 20
-705.8401543988161
 10
-323.0076363503479
 20
-723.8050903782132
 10
-319.8974936718116
 20
-734.2980151616131
 10
-325.2716703401211
 20
-735.2084500068015
 10
-338.7111083022741
 20
-724.4259675708089
 10
-348.4954687793263
 20
-717.1749474331806
 10
-349.1724482489799
 20
-722.2160826867439
 10
-329.1915310412207
 20
-751.8967572125655
 10
-308.792455267266
 20
-774.1816199246509
 10
-335.6376646854137
 20
-757.0101341064444
 10
-352.5496357103407
 20
-748.2124592560879
 10
-356.0966719802566
 20
-748.1275991008681
 10
-355.5018285057822
 20
-751.1714624516301
 10
-353.7021867040223
 20
-759.5566069532326
 10
-360.3885604242275
 20
-763.120784871704
 10
-363.3384916528428
 20
-764.1553231964669
 10
-362.5961837414666
 20
-766.5217701839837
 10
-351.2316305436418
 20
-773.8461627453407
 10
-336.712011726238
 20
-785.4623152525537
 10
-334.3774579708918
 20
-799.8935273667607
 10
-334.7106278837532
 20
-810.9815783204883
 10
-321.8116015945127
 20
-805.3695516411076
 10
-307.9369662161
 20
-799.0865078046142
 10
-300.2304973592702
 20
-801.2070093998076
 10
-298.8562614173986
 20
-811.5058506301433
 10
-303.978273384613
 20
-829.7577999994532
 10
-308.5725949923106
 20
-846.509996468051
 10
-307.520066931432
 20
-849.4378260208671
 10
-304.2321342608273
 20
-848.6156179815145
 10
-297.6535961588234
 20
-848.0847665683656
 10
-297.5273339109151
 20
-857.7725478621001
 10
-313.4434445437278
 20
-900.7851588269724
 10
-345.6040298927096
 20
-963.6154943934117
 10
-387.6326536913041
 20
-1032.225546679452
 10
-416.2163141087951
 20
-1078.649345706944
 10
-423.0001407995011
 20
-1097.955956205844
 10
-409.3984868168308
 20
-1088.272775144631
 10
-385.7060814514369
 20
-1061.934567889468
 10
-321.5396224840676
 20
-975.561424463247
 10
-298.5600475624433
 20
-945.6812951631494
 10
-293.9791668575868
 20
-944.0830870066383
 10
-293.5520648225788
 20
-950.9827932975518
 10
-311.484850573575
 20
-999.4976421522537
 10
-349.5498215134392
 20
-1086.968776272479
 10
-391.184649988463
 20
-1176.590326349096
 10
-419.826956945691
 20
-1231.556397373349
 10
-426.8623829457851
 20
-1246.052218339835
 10
-424.8949997045586
 20
-1252.082403585411
 10
-408.5383204342745
 20
-1235.943323023257
 10
-380.9689727382277
 20
-1197.140850001521
 10
-355.0190610873081
 20
-1160.871280425618
 10
-342.5461345477777
 20
-1150.821340044254
 10
-346.2066603529597
 20
-1172.515753917402
 10
-359.046731706987
 20
-1212.562576986254
 10
-381.4132164217911
 20
-1292.880580832944
 10
-399.2646885655447
 20
-1355.057015191204
 10
-408.4340827632959
 20
-1381.080581961705
 10
-409.6274190587139
 20
-1394.531507655349
 10
-395.7833662316973
 20
-1376.608359262986
 10
-369.4355473175233
 20
-1326.901716090248
 10
-317.5414036323727
 20
-1209.226174826629
 10
-297.6862860793083
 20
-1164.973762647915
 10
-311.6267895915273
 20
-1230.700754124445
 10
-362.890829919417
 20
-1419.808243380822
 10
-385.3842450723287
 20
-1510.47085948645
 10
-383.9517223854423
 20
-1512.894565234061
 10
-380.2936637440703
 20
-1509.469884869354
 10
-368.2614600397494
 20
-1488.9112915353
 10
-339.0556374485113
 20
-1419.808243380822
 10
-323.5341959264517
 20
-1374.476935328009
 10
-329.7083247605767
 20
-1433.407635796667
 10
-335.2840635722498
 20
-1522.960773476798
 10
-333.5161608049223
 20
-1703.663817814684
 10
-329.6437159082984
 20
-1791.663233385756
 10
-326.4032504414158
 20
-1813.186539168821
 10
-322.3918476831104
 20
-1818.723754245584
 10
-315.6816761119864
 20
-1802.273014355038
 10
-312.2829780661557
 20
-1770.590981686355
 10
-311.3383627223477
 20
-1751.809928478261
 10
-309.4520360921336
 20
-1749.842827932888
 10
-300.6237529907576
 20
-1802.422611860651
 10
-284.3940041585804
 20
-1880.917176054662
 10
-281.642062825729
 20
-1886.379656627676
 10
-280.0908078804793
 20
-1884.310939772873
 10
-281.9472458491189
 20
-1853.846452444494
 10
-286.0542769046904
 20
-1818.723754245584
 10
-276.3261729024341
 20
-1849.866351827029
 10
-266.9221925457352
 20
-1871.580066117067
 10
-262.7862751138867
 20
-1872.703139643142
 10
-258.374986221354
 20
-1867.998875048155
 10
-251.9390553275014
 20
-1863.417017757623
 10
-249.9977572036423
 20
-1879.921032966694
 10
-246.9900275228497
 20
-1897.531108551399
 10
-239.9432679890028
 20
-1904.85323954593
 10
-235.9664312236623
 20
-1902.121755113005
 10
-234.0014637469997
 20
-1893.894406296759
 10
-236.0900978096458
 20
-1860.754948006481
 10
-238.1481493208948
 20
-1824.631557886329
 10
-234.9681550669838
 20
-1816.01336920316
 10
-228.6466902940722
 20
-1811.470755236983
 10
-221.6697823355998
 20
-1811.379804271107
 10
-215.6082949491822
 20
-1817.644858371485
 10
-203.8142239517859
 20
-1853.302468523981
 10
-194.8397356950356
 20
-1883.566781488639
 10
-191.3388816476911
 20
-1890.48619939041
 10
-189.1359356618425
 20
-1890.310953661021
 10
-192.2637853806409
 20
-1858.520108788461
 10
-204.503256544637
 20
-1796.157840456127
 10
-218.719157217163
 20
-1710.611993594617
 10
-217.7746960710931
 20
-1705.783060128349
 10
-215.0393823943373
 20
-1709.055007633434
 10
-204.213133500338
 20
-1742.85728490108
 10
-179.9438743965852
 20
-1815.904145805315
 10
-168.959675619491
 20
-1840.283322196734
 10
-162.3451323456329
 20
-1847.554465139189
 10
-167.8483468211373
 20
-1819.820768353914
 10
-178.2734245997583
 20
-1777.619597286348
 10
-189.8612304227777
 20
-1687.262960892424
 10
-203.8504861198703
 20
-1617.262353403893
 10
-210.5515857240673
 20
-1580.422740489732
 10
-210.6229792768234
 20
-1558.331652935234
 10
-207.1188613773552
 20
-1555.975562895795
 10
-205.246669539803
 20
-1566.600095448693
 10
-201.9080315129754
 20
-1582.379920980618
 10
-194.8839390466341
 20
-1592.420789395056
 10
-190.9796523170853
 20
-1593.123288590371
 10
-188.8832055690409
 20
-1589.282736925917
 10
-190.1241632659189
 20
-1568.023494769406
 10
-209.4171529646164
 20
-1448.339759263201
 10
-219.970291964758
 20
-1355.165801695457
 10
-213.8767828480541
 20
-1365.778846516863
 10
-203.2147031459215
 20
-1399.598419630804
 10
-175.7088078191166
 20
-1510.47085948645
 10
-163.7322694982617
 20
-1564.868429149827
 10
-167.8211566199798
 20
-1501.404597875887
 10
-172.3542874252612
 20
-1393.606758120138
 10
-172.7985311088248
 20
-1349.263651971777
 10
-143.3331680246842
 20
-1396.471674995795
 10
-113.8678306401666
 20
-1446.499306460082
 10
-98.97196934171644
 20
-1484.643355139986
 10
-81.68259935270681
 20
-1513.036607050505
 10
-90.86671943444958
 20
-1473.180192488625
 10
-118.4644138146902
 20
-1382.863236312647
 10
-145.1776042693721
 20
-1295.815066588123
 10
-155.3233014461177
 20
-1253.531862323869
 10
-154.0696995347127
 20
-1250.391239892428
 10
-148.5377785802925
 20
-1259.898789729907
 10
-124.4572318083926
 20
-1318.801015016257
 10
-103.2246144613325
 20
-1369.714024193285
 10
-87.46234177193105
 20
-1399.848862457156
 10
-83.14871144688323
 20
-1404.826930835823
 10
-82.02201427396222
 20
-1401.853355954027
 10
-91.75520680157706
 20
-1368.375330830053
 10
-100.3817735618511
 20
-1330.595086013653
 10
-102.0182227574194
 20
-1293.923188839335
 10
-98.67277433049048
 20
-1258.038933711406
 10
-68.1194691049468
 20
-1313.615113786209
 10
-34.80096154107219
 20
-1366.42609152268
 10
-53.64973325582946
 20
-1314.675865726454
 10
-108.2943533953194
 20
-1162.091832621817
 10
-153.7321863855606
 20
-1011.826470905498
 10
-152.9477824916739
 20
-1007.000133101155
 10
-146.6817518056216
 20
-1013.789459511188
 10
-123.6435303442604
 20
-1051.560503862546
 10
-96.4948854770887
 20
-1103.830196138921
 10
-77.11320637934091
 20
-1149.289128519664
 10
-66.10222859505711
 20
-1173.182119442747
 10
-52.96974693028187
 20
-1190.159830103365
 10
-41.794445756394
 20
-1196.378162289088
 10
-44.29334860096787
 20
-1179.552310700909
 10
-54.5608876904621
 20
-1129.448736850591
 10
-47.89378868752374
 20
-1135.213624887709
 10
-32.43466875129366
 20
-1159.99638815907
 10
-10.71756211101706
 20
-1192.758447485266
 10
1.201152058037678
 20
-1203.496315375692
 10
-4.671520198035295
 20
-1176.578581621375
 10
-25.73469993050935
 20
-1118.790229396059
 10
-63.40502745924323
 20
-1016.359601710779
 10
-66.47281715903886
 20
-1000.180866630302
 10
-54.98246430652011
 20
-1018.626154263608
 10
-42.76339864320426
 20
-1036.236255547936
 10
-33.35941828650516
 20
-1043.558386542468
 10
-23.06808134609219
 20
-1054.74954438376
 10
-8.717334751567477
 20
-1081.654813820911
 10
8.526701102430479
 20
-1119.751241099355
 10
6.912918974368039
 20
-1088.454522878645
 10
-1.743099553889805
 20
-1044.190751466554
 10
-20.28586585732023
 20
-981.7174093635177
 10
-45.87086856094583
 20
-906.2861117356506
 10
-0.5395605081321265
 20
-981.7174093635177
 10
40.56007331745195
 20
-1044.181679499628
 10
43.00045812040366
 20
-1043.968809522134
 10
42.79319066072889
 20
-1037.781753777629
 10
35.40817268866226
 20
-1008.199971401197
 10
26.65922432355614
 20
-977.3746870652088
 10
49.324878349963
 20
-1010.457477686723
 10
61.48316440483177
 20
-1027.839186421251
 10
65.2191700028302
 20
-1031.250939875578
 10
46.49619794276691
 20
-989.1880070802487
 10
27.12952742486459
 20
-940.8059224780801
 10
16.37809013348305
 20
-900.801041194
 10
11.75429105817898
 20
-866.7662851364937
 10
32.04458032788034
 20
-889.4319391629007
 10
47.05832579713387
 20
-904.2133343404097
 10
45.31758753134113
 20
-893.965069968182
 10
34.82381466038101
 20
-863.8728673789044
 10
33.49858789961309
 20
-851.4726450729042
 10
41.35123621219349
 20
-856.7533008130352
 10
58.39113996052583
 20
-879.7038351606445
 10
90.12305559749552
 20
-926.3225658287607
 10
65.84361944302623
 20
-867.0745264150232
 10
51.7795778429388
 20
-828.6675962912243
 10
48.28905504404906
 20
-809.9253495138945
 10
50.38031046824335
 20
-808.5681010228404
 10
54.96070288026249
 20
-812.8945554597764
 10
71.38309608661462
 20
-839.6219064067437
 10
86.1130663184565
 20
-864.0094351756449
 10
91.39572662918316
 20
-867.0484669972788
 10
72.80649540732793
 20
-820.2291764710965
 10
39.49251097710544
 20
-746.9239058573726
 10
36.83779131814754
 20
-732.632936585998
 10
43.25048975278787
 20
-732.4496211749799
 10
48.89818750892368
 20
-734.4168502184684
 10
50.78908867203586
 20
-729.9235281292485
 10
43.31394212202986
 20
-694.5073145358012
 10
29.46438957568671
 20
-638.8390527117098
 10
27.24399354580555
 20
-616.7799868874983
 10
37.71183549713601
 20
-626.7849015293275
 10
61.9269711948034
 20
-667.3085297041127
 10
101.8139940077033
 20
-730.5060357846721
 10
104.6545733403584
 20
-732.5681735359819
 10
103.9083076870367
 20
-728.3081783241814
 10
90.18650796673751
 20
-699.1673757791895
 10
82.96182994270703
 20
-678.597731607236
 10
82.1220690608302
 20
-660.8193491913578
 10
87.05526589770011
 20
-650.1024778929413
 10
97.14940963066306
 20
-650.717264274881
 10
102.6990890245915
 20
-651.0345775203372
 10
100.8303152369014
 20
-641.1251626776588
 10
98.99099321719541
 20
-631.3472014067395
 10
104.0669771595765
 20
-631.2520100030649
 10
110.0767569044735
 20
-641.0605795250037
 10
111.6191711794031
 20
-656.6556761666451
 10
111.3743822701158
 20
-728.5058084252232
 10
115.8604827652664
 20
-766.9480241314317
 10
119.9834218874887
 20
-777.322576451191
 10
124.9465587851793
 20
-781.6941594261541
 10
130.4400845028046
 20
-779.9838238143968
 10
136.1541643852067
 20
-772.1126717732402
 10
147.0047765218312
 20
-737.5720700357858
 10
155.9803698623714
 20
-694.5073145358012
 10
157.0501937695435
 20
-756.2394795108746
 10
160.4875954476458
 20
-795.836096583622
 10
166.9924784300676
 20
-812.4208343086063
 10
170.4329383633096
 20
-811.4754993753541
 10
173.4854881866531
 20
-804.0473060366098
 10
176.8871673887545
 20
-768.7690737191692
 10
179.922112970328
 20
-723.2023057202249
 10
182.5791712949808
 20
-713.4655409450104
 10
185.6973065562772
 20
-712.1661166057565
 10
192.4210732279798
 20
-734.0982519918609
 10
198.3016866675666
 20
-787.436483194258
 10
205.0073351050387
 20
-853.0694397501489
 10
211.8557449483997
 20
-880.3656775523378
 10
219.6606690610277
 20
-874.3751468250845
 10
228.6555371188342
 20
-859.9665760787601
 10
233.6928431285674
 20
-851.7463203584686
 10
236.7777744769187
 20
-853.8854027811071
 10
239.0998639150991
 20
-896.2316482206343
 10
242.0615655710587
 20
-935.979404776376
 10
248.2012569103333
 20
-951.4395012982813
 10
251.6986929078159
 20
-949.7336374209297
 10
255.0736188023509
 20
-941.5622366840034
 10
260.2333321165395
 20
-905.297909831197
 10
261.7796784337909
 20
-890.8148358777308
 10
263.2070611960732
 20
-892.6255285173905
 10
265.5280198508406
 20
-943.8295088262773
 10
269.3177119613326
 20
-1013.277060427369
 10
273.588218318949
 20
-1019.323976127533
 10
280.8046724636122
 20
-1012.361382859084
 10
290.3083673576377
 20
-994.4464583460886
 10
294.4675172486989
 20
-976.0963364168333
 10
295.7667873902144
 20
-970.065817076157
 10
298.8762875781752
 20
-970.907890924106
 10
308.0805304647445
 20
-987.4359609803262
 10
317.1895562480165
 20
-1014.132986372127
 10
321.3127266668464
 20
-1039.451381186519
 10
326.2096356360082
 20
-1056.459674398534
 10
339.8169692353661
 20
-1066.341899040055
 10
349.6381315725864
 20
-1071.030718161605
 10
354.4147920056269
 20
-1079.795112000148
 10
352.2377512397846
 20
-1125.880035798468
 10
351.3791525342319
 20
-1169.163520789995
 10
354.7125735375864
 20
-1177.604484872802
 10
359.8250766442827
 20
-1177.734524965295
 10
373.1990833662214
 20
-1154.530566635063
 10
387.1247324963335
 20
-1102.489087011126
 10
389.5550430470605
 20
-1097.303468476931
 10
393.3011228972839
 20
-1100.197580124342
 10
404.9308448054528
 20
-1130.53102507493
 10
437.1704821948513
 20
-1212.127379569994
 10
451.7433763307801
 20
-1248.464976048038
 10
461.5496585862699
 20
-1286.080897474833
 10
467.0507656926868
 20
-1309.320835277296
 10
473.640663028066
 20
-1322.277942714567
 10
480.4634503472737
 20
-1324.015545626351
 10
486.6632017055519
 20
-1313.596995551978
 10
490.1851551433976
 20
-1313.228257360854
 10
497.0576712331533
 20
-1320.363809092243
 10
516.8901217187119
 20
-1352.092332378974
 10
532.7753414046521
 20
-1378.963601214866
 10
549.0889481067508
 20
-1398.096816357234
 10
570.6723139088196
 20
-1413.962761325907
 10
602.3668365942919
 20
-1431.032271039961
 10
647.9814572913035
 20
-1451.757757725922
 10
674.8969294787936
 20
-1460.243773247887
 10
675.7101940493351
 20
-1457.89773176105
 10
667.8717062290395
 20
-1451.668220239312
 10
631.8865800807477
 20
-1431.349584285418
 10
592.4018848662619
 20
-1408.110494570514
 10
585.2351337925235
 20
-1400.452623700819
 10
586.5552720279335
 20
-1395.519735259426
 10
593.2835875329117
 20
-1389.492942364088
 10
586.5008916256186
 20
-1386.852383197415
 10
581.161974840096
 20
-1385.795023607409
 10
584.2343133731662
 20
-1385.356459540533
 10
608.3902371393908
 20
-1387.771478815562
 10
609.7599499476102
 20
-1390.990433697975
 10
604.3342198355182
 20
-1395.728262000629
 10
602.3728246064559
 20
-1399.752565969692
 10
606.4667745539093
 20
-1404.574380640383
 10
627.2491859048648
 20
-1414.635937251353
 10
655.5384828402586
 20
-1421.964030558425
 10
680.1916172130952
 20
-1422.609707887238
 10
688.2206420384775
 20
-1420.169040388433
 10
689.6114799368222
 20
-1416.853763318932
 10
670.3637986735127
 20
-1403.488982761659
 10
643.1650138418242
 20
-1388.021921641914
 10
668.3873434653589
 20
-1393.633948321295
 10
697.2896021094582
 20
-1399.14014395307
 10
706.5347844955019
 20
-1397.742084460657
 10
696.0013571062193
 20
-1388.430905442692
 10
665.5677350250901
 20
-1370.197665398942
 10
619.5644075298657
 20
-1342.316786872618
 10
604.5064844086371
 20
-1328.716109475623
 10
620.3939656614027
 20
-1329.38291189456
 10
667.2268769877867
 20
-1344.304421416787
 10
722.4030167306243
 20
-1361.826090298295
 10
751.1351181706925
 20
-1367.169530217469
 10
752.1139911119892
 20
-1364.958206154515
 10
747.4678333646559
 20
-1361.398859765172
 10
724.7613683368893
 20
-1352.201118883227
 10
679.4300602840751
 20
-1331.248987221832
 10
676.6897865800763
 20
-1325.68005881026
 10
687.0729225739248
 20
-1327.849158392589
 10
727.8710998214571
 20
-1338.674276503175
 10
737.8701806488609
 20
-1340.153906599061
 10
739.431715443319
 20
-1338.516737814048
 10
715.6951067263264
 20
-1324.032250381316
 10
542.0365346558394
 20
-1225.798165538594
 10
482.27470837864
 20
-1189.129249520548
 10
460.9694124976725
 20
-1172.870485813979
 10
477.0518253910629
 20
-1177.537331757845
 10
509.0931387895982
 20
-1195.381993501498
 10
629.4443706045606
 20
-1264.106537608103
 10
667.6769287861536
 20
-1280.005069698769
 10
688.8498973081789
 20
-1282.418110102825
 10
699.5435618470062
 20
-1280.280749554929
 10
698.5145489411932
 20
-1286.806192235769
 10
695.7878703377725
 20
-1294.590428151864
 10
699.8812805931422
 20
-1296.695201577767
 10
723.0206557707195
 20
-1284.403637277905
 10
729.6951048658423
 20
-1276.308153227387
 10
724.3443148544831
 20
-1266.204243637676
 10
660.1189266515241
 20
-1222.90716354557
 10
603.0864774381623
 20
-1185.177932480868
 10
577.3258178111793
 20
-1163.359954820229
 10
579.4546974834782
 20
-1160.916229066285
 10
587.6081084842887
 20
-1161.105172694744
 10
617.0859101859721
 20
-1167.950884077688
 10
694.4075178856216
 20
-1197.503497381989
 10
709.7453613008094
 20
-1204.01534496225
 10
693.0294526999193
 20
-1189.244152535081
 10
534.3698745150711
 20
-1078.33655559514
 10
393.8428195513481
 20
-978.7346083170572
 10
431.9211285955609
 20
-1000.721432500953
 10
529.8367437097897
 20
-1064.002796451434
 10
668.7941941974257
 20
-1151.085377971185
 10
679.6552146813739
 20
-1155.780030907162
 10
680.612782635185
 20
-1153.461745013188
 10
652.1134169812069
 20
-1127.421293590362
 10
629.0005381149661
 20
-1107.277337974149
 10
624.936168433611
 20
-1099.625275219258
 10
679.6476589922051
 20
-1120.331487187952
 10
730.948244184033
 20
-1141.539741292387
 10
741.4922598180017
 20
-1144.487847847768
 10
742.1663352302532
 20
-1142.539302430217
 10
649.1759500697574
 20
-1088.889694595281
 10
537.3164133934476
 20
-1029.958994126623
 10
631.0434268486317
 20
-1073.032795893912
 10
733.1930034565391
 20
-1116.097551393896
 10
736.1040511555217
 20
-1113.433682669143
 10
730.7565763955328
 20
-1106.023222070284
 10
699.8234821409653
 20
-1080.326605903872
 10
649.4687458748505
 20
-1045.735992700016
 10
588.7674441784477
 20
-1008.979672264071
 10
507.9417185793297
 20
-960.0252570571958
 10
440.9329841041856
 20
-914.4366957779288
 10
347.9765995449481
 20
-850.8731242670398
 10
322.0459626112954
 20
-833.307252033933
 10
309.9526966026735
 20
-819.6851925505832
 10
323.2505039423511
 20
-823.2044475280117
 10
361.1147608264112
 20
-840.781242100903
 10
487.2706379953071
 20
-906.6940932511297
 10
684.8743455239894
 20
-1008.617024883603
 10
702.8941501985393
 20
-1015.440017799795
 10
707.3385659051475
 20
-1014.355390909762
 10
673.4553862242266
 20
-987.5742249521861
 10
522.9645103158871
 20
-887.8453472359955
 10
463.9400319228209
 20
-847.3688778694565
 10
451.9269230384054
 20
-836.8522323340069
 10
451.7059576796598
 20
-832.7983994980913
 10
487.0187816896884
 20
-844.0242775300873
 10
570.634920957322
 20
-880.9368516740088
 10
619.8828515587353
 20
-901.5240743881095
 10
633.3264271601954
 20
-905.4616678290951
 10
636.4378548198827
 20
-904.1464896209287
 10
629.6381457621489
 20
-887.3920315855052
 10
638.5294700387992
 20
-884.2232423672319
 10
659.2904993034001
 20
-886.6225334729714
 10
682.8274990483785
 20
-892.8245720976983
 10
700.0467347661599
 20
-901.0639483375182
 10
709.8960895898356
 20
-905.792010783424
 10
717.3451767220965
 20
-904.4003247975201
 10
725.0446809810871
 20
-903.365657974642
 10
735.4776999432222
 20
-908.9334556028015
 10
747.778336210011
 20
-915.0799573421769
 10
755.428008899961
 20
-907.8217156104793
 10
759.0386260372341
 20
-885.5548426345098
 10
759.2222241441052
 20
-846.6754506410683
 10
760.2999892347918
 20
-806.0824077845001
 10
762.5205137627879
 20
-796.3700319515337
 10
765.6683320886752
 20
-795.2516100572259
 10
774.8303761942418
 20
-821.490513969031
 10
783.92100104743
 20
-869.9304227229999
 10
789.7443557269232
 20
-919.5534650220466
 10
789.1046150110289
 20
-949.3417952687083
 10
787.9645540341364
 20
-957.5547008968156
 10
793.5017691108989
 20
-956.9755855916309
 10
810.9543060064773
 20
-931.5719194280507
 10
817.557952640174
 20
-921.2488434532053
 10
819.6669922034995
 20
-943.8295088262773
 10
822.3574086388355
 20
-968.3276744722897
 10
826.4522323734716
 20
-966.9557000972439
 10
833.8466307079412
 20
-957.9638131957077
 10
845.2236482229317
 20
-947.5262710999208
 10
847.2919024845207
 20
-971.5632056115518
 10
849.3159276948883
 20
-993.0060458749345
 10
852.0499820901161
 20
-994.0315122327703
 10
856.2221616900494
 20
-989.1608168790909
 10
863.2337898392245
 20
-980.9105182994866
 10
865.1524208955782
 20
-988.0003247018958
 10
867.9504930517548
 20
-995.7576531126866
 10
878.887815716456
 20
-989.1608168790909
 10
889.9611150865688
 20
-983.7357806568206
 10
892.4872081323007
 20
-998.1726723877157
 10
896.2497100416346
 20
-1013.278216910405
 10
910.6197313534259
 20
-1013.730376077859
 10
924.2009798354162
 20
-1013.517326203004
 10
928.7522545745517
 20
-1022.27986966869
 10
931.434729826374
 20
-1030.003197478221
 10
937.8910405212835
 20
-1029.913659991612
 10
948.7750878674594
 20
-1030.148811542266
 10
960.9170803613316
 20
-1038.492605350426
 10
969.5606345724238
 20
-1050.328052740888
 10
969.9493413706361
 20
-1061.038139338826
 10
970.5580112422964
 20
-1066.05036251649
 10
977.8496110846774
 20
-1070.282319439573
 10
1005.619415840298
 20
-1075.752689796854
 10
1039.534463053767
 20
-1076.143658161893
 10
1065.870383042481
 20
-1070.1497350844
 10
1077.417968955469
 20
-1063.442261973694
 10
1079.680589465977
 20
-1058.872432106737
 10
1051.047046080199
 20
-1048.363496458194
 10
1027.545049221777
 20
-1039.204305010783
 10
1024.920912114216
 20
-1035.481483319394
 10
1028.481132290742
 20
-1032.397811252571
 10
1037.219877905508
 20
-1026.225969684895
 10
1029.659742702167
 20
-1018.109386243876
 10
1022.74333165629
 20
-1009.343450427952
 10
1033.404100677648
 20
-1000.366726303999
 10
1043.542447762209
 20
-991.6041828383137
 10
1027.692359460941
 20
-984.0655839190658
 10
1017.485163086303
 20
-979.7088039269635
 10
1017.533632575323
 20
-975.3971010736423
 10
1055.67991712243
 20
-960.8740899059997
 10
1105.544355980525
 20
-944.9355949015343
 10
1064.746178732993
 20
-944.2465623086832
 10
1036.678155551821
 20
-941.7340643635306
 10
1033.539409192862
 20
-938.9950756406825
 10
1037.257270857006
 20
-935.1349665631092
 10
1040.090191702001
 20
-931.1700287232278
 10
1034.462591051068
 20
-927.9964079758265
 10
996.4590936094735
 20
-923.6389340939027
 10
942.3516469903955
 20
-920.5654904770419
 10
980.7200533792846
 20
-912.9317001541195
 10
1010.249434224373
 20
-904.2467695499619
 10
1013.918312407038
 20
-900.2415347011817
 10
1010.495945008403
 20
-896.6124138353329
 10
983.2954383019725
 20
-890.9363693950034
 10
930.4839208734177
 20
-888.1263983133676
 10
851.6890308847679
 20
-886.8208574638344
 10
960.484170211521
 20
-875.9232150170792
 10
1030.153869354017
 20
-867.8145727595735
 10
1045.770219583898
 20
-865.0288107228247
 10
1047.562254297243
 20
-864.1304547004573
 10
1044.881989213001
 20
-863.6293634507683
 10
1026.465305260118
 20
-860.2814992592755
 10
1016.12154108874
 20
-854.0497261707116
 10
1015.463964834468
 20
-846.8982920722949
 10
1026.105767534036
 20
-840.7914448512428
 10
1025.51192634486
 20
-839.2986308487461
 10
1012.08706006896
 20
-838.6948696050831
 10
955.9510394062401
 20
-840.2293426964988
 10
885.8008344120952
 20
-840.7075869813208
 10
838.0896384689238
 20
-836.0588592716851
 10
827.1302398280461
 20
-832.4460833660786
 10
829.7532204525717
 20
-830.7177066189595
 10
878.887815716456
 20
-832.6590047428185
 10
929.3381545802143
 20
-834.1232150648911
 10
943.3421361612984
 20
-830.5896453974392
 10
922.3990764668304
 20
-824.2035974718728
 10
868.0082915039317
 20
-817.1103730196016
 10
797.2914612213915
 20
-810.3741420307331
 10
897.0203389375821
 20
-808.1982320483037
 10
956.861345753313
 20
-804.6876121442105
 10
975.2463163713867
 20
-799.1319704377408
 10
952.952098996521
 20
-793.712331136305
 10
890.7555418334343
 20
-790.609692747691
 10
850.5016312022682
 20
-787.2692043480058
 10
825.358327919527
 20
-780.7830049915212
 10
820.678477966411
 20
-777.3799380097768
 10
822.446663429592
 20
-774.4140987145105
 10
848.8875663783522
 20
-771.4254895532469
 10
890.0438421730775
 20
-766.4718872156974
 10
946.8666338618234
 20
-754.7798180220766
 10
1014.845477706813
 20
-738.2973647967214
 10
974.0654186935119
 20
-732.3136187699458
 10
829.0233768583609
 20
-720.9989228407846
 10
750.5448235294932
 20
-715.6304257891633
 10
714.340839391543
 20
-710.4446787568535
 10
713.2586282660739
 20
-708.3152850920944
 10
724.1452969737986
 20
-706.7055378048462
 10
783.6920688055472
 20
-705.6769360930013
 10
869.8215541058932
 20
-706.4203747877907
 10
779.1589380002658
 20
-694.1537391222603
 10
712.7791760989696
 20
-684.4007064856725
 10
721.6985386643366
 20
-684.0969883407947
 10
756.4932839738587
 20
-686.0575611819204
 10
942.7913675403072
 20
-696.4135069746114
 10
965.122412474964
 20
-695.6068729068103
 10
960.484170211521
 20
-691.3341306819908
 10
927.7039669514714
 20
-683.4294663324135
 10
874.3546849111746
 20
-675.8580232949429
 10
825.0058832893989
 20
-668.7194647076603
 10
822.8712212019207
 20
-665.6546561641353
 10
833.5565076636424
 20
-662.186080843307
 10
903.2851360417291
 20
-654.7789611954413
 10
934.9671687104125
 20
-651.3598319493076
 10
951.4179086009583
 20
-644.6428756777061
 10
948.4815724729216
 20
-640.7810704250132
 10
934.720118234299
 20
-637.921370572829
 10
877.1561494175905
 20
-635.5040897309743
 10
798.3175186705568
 20
-632.8424311738001
 10
719.2026169760335
 20
-626.1850980276099
 10
656.1741116164687
 20
-617.3195761724746
 10
625.5945927754425
 20
-608.0333000892178
 10
625.2320995927127
 20
-604.3144361397751
 10
632.3160978803191
 20
-601.5781201777213
 10
667.5895243682551
 20
-599.3115676248922
 10
804.8323217074651
 20
-608.1477662101592
 10
924.2191237692697
 20
-622.7569225141728
 10
935.4646877125013
 20
-624.6256963018627
 10
928.7522545745517
 20
-619.3208058172215
 10
860.7552924953308
 20
-599.184637186785
 10
806.3577228319543
 20
-587.0993123616769
 10
847.1559000794865
 20
-578.6495590077961
 10
874.6081088937978
 20
-571.185617493428
 10
891.1782749325281
 20
-561.8781135215549
 10
897.9993660766165
 20
-549.689219215667
 10
896.2043759066238
 20
-533.5811837981236
 10
896.1057921527102
 20
-521.7247655152751
 10
905.4791642583893
 20
-517.7152131298271
 10
915.5132479723494
 20
-522.1542833148468
 10
919.6859929639888
 20
-532.8286731364073
 10
921.4493725976637
 20
-541.7317421407785
 10
925.6878572249945
 20
-541.9311969150546
 10
929.5704791723354
 20
-527.6914983916099
 10
930.4748489064907
 20
-501.8855303292384
 10
931.4982078952386
 20
-478.6532253148124
 10
933.9720022081198
 20
-476.9756824220316
 10
937.9273026893672
 20
-481.4501666875762
 10
944.9185253378635
 20
-486.4003509752633
 10
947.3199495123138
 20
-467.850774271732
 10
949.1309505474498
 20
-447.5242228339461
 10
956.4496891917418
 20
-461.6313113025958
 10
966.7917314883778
 20
-477.6865339948285
 10
971.4726608256603
 20
-478.7002556249436
 10
975.4865564473996
 20
-475.5253755960138
 10
980.4925603162908
 20
-458.0716822173995
 10
979.7681136429153
 20
-428.2493513694794
 10
974.6547367490359
 20
-386.254419776667
 10
990.4934915165515
 20
-438.9384670750316
 10
1011.019523428237
 20
-491.4502498002773
 10
1010.688589382579
 20
-474.5677305433339
 10
1003.313183069522
 20
-434.2330716966314
 10
989.3058091381993
 20
-364.6767078916632
 10
989.7832567347075
 20
-361.7762741369891
 10
992.78188874895
 20
-366.8819411439613
 10
1004.235671037908
 20
-395.4215524075923
 10
1034.220063708607
 20
-485.9832974928572
 10
1047.281023322511
 20
-523.419450056612
 10
1050.98192323546
 20
-528.3944344805156
 10
1052.698246859383
 20
-525.1937520300721
 10
1049.882750358797
 20
-497.2244668005519
 10
1038.245498461083
 20
-445.4299091546126
 10
1023.286159093767
 20
-374.8218653763254
 10
1051.491315463386
 20
-431.5947997964078
 10
1072.356171204997
 20
-473.4797884019303
 10
1079.385789090288
 20
-480.9669623755107
 10
1084.184242803652
 20
-479.5371895482876
 10
1087.975065697557
 20
-465.9570461500873
 10
1086.76813430156
 20
-449.7182510506063
 10
1082.017404788148
 20
-431.5857278294808
 10
1093.005715504927
 20
-449.7182510506063
 10
1110.249751358925
 20
-472.3839050770134
 10
1131.065880615286
 20
-504.115820713983
 10
1142.632304351951
 20
-520.8116322096698
 10
1145.269214172154
 20
-520.3359578871498
 10
1145.849563059244
 20
-514.7233401164396
 10
1140.96326803439
 20
-490.3234755284873
 10
1128.21908197386
 20
-452.0845438403851
 10
1111.560946125524
 20
-402.0217809914267
 10
1117.378235693983
 20
-408.7071524263341
 10
1132.743140812214
 20
-436.1188586347623
 10
1145.720936446017
 20
-457.2201509081785
 10
1153.262362323798
 20
-463.3391797505432
 10
1154.361072607247
 20
-454.7623417608174
 10
1148.010721458059
 20
-431.7761106368302
 10
1148.107480538738
 20
-429.7139728855202
 10
1152.952964562232
 20
-437.3575290651912
 10
1173.541318059746
 20
-475.9650704463024
 10
1201.25008621069
 20
-526.7157351046989
 10
1202.296394962796
 20
-522.0695773573654
 10
1196.959482747869
 20
-499.5826899087017
 10
1195.71086656333
 20
-491.9899675833687
 10
1197.775445778827
 20
-491.735849710924
 10
1211.782819710151
 20
-513.1820823245459
 10
1227.832645481548
 20
-537.4618268744918
 10
1229.8822161172
 20
-536.9167378701884
 10
1228.319679037444
 20
-529.1659114640226
 10
1191.519720641607
 20
-444.8678069998686
 10
1168.395225545759
 20
-391.1099780523862
 10
1166.477750972443
 20
-378.4776881504945
 10
1170.54605269612
 20
-375.2502523924845
 10
1195.307562379241
 20
-396.7310509990712
 10
1240.015140581304
 20
-454.9948205506771
 10
1281.12950029088
 20
-508.2568266711903
 10
1294.963915759263
 20
-522.3117963043507
 10
1301.620400817893
 20
-524.9229037030399
 10
1308.792934306811
 20
-522.7617196046018
 10
1318.229784481356
 20
-532.4932159570971
 10
1326.491416594713
 20
-544.3439546232575
 10
1322.336815536928
 20
-531.3146055456711
 10
1314.848073886343
 20
-490.1175187495867
 10
1309.500110833516
 20
-465.9570461500873
 10
1297.740040437378
 20
-440.2530798914913
 10
1286.88999369246
 20
-420.7311579509109
 10
1307.468144439635
 20
-442.9185419928728
 10
1328.785185048323
 20
-463.7301481155816
 10
1343.45211410489
 20
-472.3839050770134
 10
1356.318296275908
 20
-481.8468146693025
 10
1373.298268503353
 20
-504.5963265656309
 10
1388.275854603014
 20
-525.6303372259749
 10
1396.801421844811
 20
-531.897113201095
 10
1397.158826502182
 20
-523.7587364797525
 10
1387.632027647059
 20
-501.5772633510858
 10
1379.405526918374
 20
-480.9855175033328
 10
1379.155058392398
 20
-469.2469833912878
 10
1375.698561894389
 20
-455.8402353496187
 10
1359.74421022252
 20
-431.2411986832439
 10
1342.033109419714
 20
-411.162417311016
 10
1330.97127208147
 20
-403.7964941588552
 10
1329.488532331198
 20
-409.5250943282651
 10
1340.514647193441
 20
-428.7298572211272
 10
1349.176345338387
 20
-444.8474014991888
 10
1348.249745430317
 20
-448.5475818226944
 10
1343.878239554223
 20
-449.7182510506063
 10
1335.566750172203
 20
-447.0550248164281
 10
1331.484673450586
 20
-440.6519894400437
 10
1330.131511199592
 20
-435.5805543309368
 10
1328.356798032164
 20
-436.1188586347623
 10
1325.962184257815
 20
-434.4257417704297
 10
1323.125562667105
 20
-423.9881996746428
 10
1316.039148614934
 20
-406.4676615765477
 10
1303.424591452928
 20
-387.7231532323918
 10
1286.869588191781
 20
-368.1218965555418
 10
1308.809947457252
 20
-386.254419776667
 10
1330.741234755796
 20
-404.3869429977928
 10
1323.995931800002
 20
-386.254419776667
 10
1315.664036917301
 20
-360.9776840511941
 10
1331.847320831053
 20
-375.7658896288039
 10
1372.999073492127
 20
-421.3499277744192
 10
1416.939852042073
 20
-469.217505923681
 10
1419.297124264171
 20
-470.1768728511037
 10
1418.6535029052
 20
-467.082124246758
 10
1409.264119934378
 20
-449.4281280063078
 10
1386.598465907971
 20
-409.9898977102464
 10
1410.315799907697
 20
-434.3871923358963
 10
1444.04228898705
 20
-476.9170358822948
 10
1451.714628744507
 20
-487.4826391996018
 10
1454.287186708662
 20
-481.4501666875762
 10
1449.140939996939
 20
-463.1272606591014
 10
1436.426642597982
 20
-438.1678381790847
 10
1422.406804349493
 20
-413.0983442136635
 10
1419.871639336834
 20
-402.844554422486
 10
1428.746387356635
 20
-407.4735705212636
 10
1448.956211106654
 20
-427.0525970241995
 10
1462.653621884705
 20
-440.7909473017252
 10
1465.672145407167
 20
-441.6685380286907
 10
1437.57806280825
 20
-399.8538121925112
 10
1382.917560301732
 20
-330.8595505422868
 10
1346.905243952283
 20
-320.633953237565
 10
1278.546765276007
 20
-310.1703517240332
 10
1136.78669379892
 20
-289.5638799922888
 10
1095.209946471927
 20
-279.9478263464096
 10
1077.547752051732
 20
-271.6296807620263
 10
1065.145088281545
 20
-266.1434537373398
 10
1042.080524706586
 20
-263.8598880340696
 10
1018.668039635151
 20
-261.0142201760559
 10
1005.434686950013
 20
-254.177118166825
 10
997.4813218148085
 20
-248.7634411779302
 10
986.7672517753019
 20
-249.3538643172449
 10
977.7871353011098
 20
-250.8597080286133
 10
974.5187343440019
 20
-247.0873117644153
 10
985.4163767907568
 20
-228.3926606889231
 10
990.5932317535015
 20
-219.9950518701548
 10
976.350115180195
 20
-222.6537292710582
 10
961.2072034056311
 20
-224.4488479391662
 10
955.9510394062401
 20
-218.0299301957539
 10
953.1416337163102
 20
-211.8705529452443
 10
942.7505565389477
 20
-218.2021947688729
 10
931.2729506994484
 20
-223.6821767851647
 10
920.5858138648684
 20
-223.1478302232852
 10
914.1790777427688
 20
-217.7993017787519
 10
915.5426997403331
 20
-208.8367381470841
 10
917.4032753482785
 20
-201.9299644598397
 10
911.6260771917339
 20
-201.0103034499864
 10
883.1761576124502
 20
-215.826830012167
 10
865.8539435052178
 20
-226.7437471761891
 10
873.384601240952
 20
-215.6092313040371
 10
880.8872206879684
 20
-202.5492996750541
 10
880.021091992871
 20
-194.7455063458392
 10
872.3620903397634
 20
-193.8128156271136
 10
859.4860138138821
 20
-201.3661404303534
 10
848.3050587229287
 20
-208.8333457968454
 10
854.7352843004707
 20
-194.194737724848
 10
863.0261111855817
 20
-176.6877947273315
 10
864.0191446191636
 20
-168.2652315746083
 10
857.3897212635758
 20
-168.4510912483058
 10
842.8131520815544
 20
-176.7693910304272
 10
824.3474589475679
 20
-186.6164842872768
 10
829.2863097015022
 20
-167.9660365633829
 10
834.0593978869431
 20
-152.8626508090269
 10
833.5640633528111
 20
-149.4635929684743
 10
830.5895632845865
 20
-148.9574902922957
 10
785.5325216086664
 20
-177.7304027337236
 10
747.1459712859243
 20
-204.9291875654119
 10
779.0138893279279
 20
-167.5671270148304
 10
809.4787878502749
 20
-125.8781751337219
 10
809.5564007118024
 20
-119.9658483593257
 10
797.9895657811692
 20
-127.2857177870307
 10
786.9015148274418
 20
-131.7769325071626
 10
781.4164442857912
 20
-117.0589896988954
 10
779.0276129266219
 20
-106.5757022741288
 10
776.0616708328637
 20
-104.3786672015751
 10
763.3292551996771
 20
-127.8659638756282
 10
744.5836160721085
 20
-158.26627924532
 10
719.7658499141905
 20
-186.796664344286
 10
690.6178257751296
 20
-213.9954491759747
 10
723.5555677243057
 20
-170.2326148158347
 10
754.4488532628113
 20
-122.054482421971
 10
756.0742516204802
 20
-112.1818951390839
 10
747.4270223632959
 20
-114.266571459784
 10
740.8128902834066
 20
-116.8127616107188
 10
738.8276715038025
 20
-113.4075358606403
 10
748.7507071466832
 20
-88.73597485809638
 10
755.3214582629109
 20
-73.67124133676679
 10
739.6844455361204
 20
-86.20648946212623
 10
725.8821802961376
 20
-95.9957842667984
 10
720.0287827573317
 20
-95.27275107268906
 10
714.4394231454564
 20
-96.13517902207149
 10
701.2888232464513
 20
-109.7334406545026
 10
687.81862283554
 20
-124.7653043579871
 10
692.4220164101641
 20
-112.5983832297834
 10
701.640137093166
 20
-87.84180787428159
 10
699.5617057808601
 20
-84.53051424634963
 10
693.0294526999193
 20
-87.06778662809574
 10
686.6264173235351
 20
-88.04807304865859
 10
683.9631910893565
 20
-82.53465582281434
 10
680.6834822981193
 20
-77.30115889092894
 10
672.6303512263418
 20
-79.20732563011643
 10
667.3322711418015
 20
-80.38141290789054
 10
673.9268458085709
 20
-70.45840296463325
 10
682.9931074191338
 20
-52.00854079842816
 10
611.4330982048548
 20
-20.78434691388702
 10
566.4355511562314
 20
-1.005737138560107
 10
556.2898282798625
 20
6.489223820796269
 10
642.2946447089282
 20
-15.04541549602208
 10
722.6149358220666
 20
-33.87717406033857
 10
725.1374309205746
 20
-32.44917450710455
 10
720.1197337232076
 20
-28.58402830341857
 10
686.4292241160853
 20
-13.57668204029755
 10
643.1650138418242
 20
3.59482947753213
 10
683.9631910893565
 20
3.59482947753213
 10
704.955259964928
 20
4.050843588439875
 10
708.3310339470233
 20
6.45409243612471
 10
652.2312754523871
 20
23.31394462556227
 10
543.436136125634
 20
57.52096525618731
 10
507.1710896833827
 20
72.00884503915858
 10
573.0012137471005
 20
69.23457073390114
 10
612.9997215246715
 20
69.61266358780495
 10
633.9820245434942
 20
74.09521753497824
 10
636.7064929793348
 20
77.51362719166741
 10
633.9141775387154
 20
81.52374496882202
 10
610.7621838462343
 20
90.7397325831123
 10
608.3039635049047
 20
92.84990292985117
 10
617.8667418322586
 20
94.12373044457444
 10
665.8306678682313
 20
93.76786776458471
 10
724.0870616280301
 20
92.88164196428374
 10
726.0167435222826
 20
93.87022936308268
 10
723.5358561134473
 20
95.45078187857711
 10
706.6288451157641
 20
100.6038389904026
 10
679.6782415436016
 20
109.6134329322012
 10
665.8034776670736
 20
117.4126774281414
 10
654.598699025579
 20
123.4881968087295
 10
634.0715620301041
 20
128.3465820429815
 10
630.6765133307424
 20
130.052882813924
 10
641.5149438460542
 20
131.7498289220871
 10
697.5625835052007
 20
134.3303280697566
 10
760.8904123741065
 20
137.7845630009385
 10
772.2921015271979
 20
140.5979521324363
 10
770.092676389703
 20
144.1218844412549
 10
759.73220746336
 20
150.6666018393614
 10
778.4064273385499
 20
152.5535195609047
 10
799.9599044790431
 20
155.3402581833281
 10
800.5775435191383
 20
157.8292152737924
 10
795.230017359903
 20
160.7448632052958
 10
769.0623785027384
 20
166.9450771567888
 10
726.302626128783
 20
172.1184883700477
 10
661.2975370629499
 20
177.4585359389832
 10
738.3607607527335
 20
179.0632461001189
 10
792.2472163134423
 20
182.3554449081455
 10
803.0144074737366
 20
185.2250648148163
 10
802.5136246195236
 20
188.8366842373864
 10
797.7321583569776
 20
192.9054485542781
 10
798.1856282052064
 20
196.0851601123356
 10
816.1130170353679
 20
200.9401529963486
 10
828.6323827936996
 20
204.3207328079486
 10
803.5562583255389
 20
206.2257687637232
 10
776.7711089263946
 20
209.7049580288597
 10
770.6053324697521
 20
212.8427278021452
 10
770.092676389703
 20
216.6519773257571
 10
800.1337367291665
 20
223.0822286029217
 10
865.2884233006117
 20
225.71823893632
 10
930.4431098720581
 20
228.3542492697177
 10
960.484170211521
 20
234.7845005468823
 10
963.2856347179366
 20
244.5216765160656
 10
847.1559000794865
 20
256.9243145866301
 10
776.4707831317557
 20
265.836455557928
 10
768.5607732605896
 20
268.5390536145767
 10
780.0927595024043
 20
269.852792643854
 10
890.2365122468761
 20
277.9727684351121
 10
921.389595274514
 20
284.1461776797921
 10
927.8680333448457
 20
287.3243215608456
 10
927.0931383114772
 20
290.3969427897694
 10
924.0971533584064
 20
293.6474825088769
 10
926.5706906750567
 20
296.0497547708867
 10
947.4196897492632
 20
298.1123294157876
 10
975.3743775929066
 20
302.1184894509968
 10
997.2841286073586
 20
311.5576011923674
 10
1016.368617264476
 20
321.4080867994555
 10
1037.547393901305
 20
326.3900101215757
 10
1053.939204556261
 20
328.2655943093666
 10
1039.813946454134
 20
331.8478904620686
 10
1025.408793757671
 20
336.8150879001967
 10
1019.414870680179
 20
343.2441826943257
 10
1026.951208032601
 20
353.0113758231989
 10
1053.281885298219
 20
359.9125212930014
 10
1184.656559214631
 20
368.5299903867256
 10
1277.665062609358
 20
373.9130848242237
 10
1313.814512147255
 20
380.2617397982924
 10
1287.450965063792
 20
387.2484136135138
 10
1230.169178107868
 20
394.1875174265204
 10
1174.693869053427
 20
401.0166782522376
 10
1167.675302006036
 20
404.2927119973826
 10
1173.541318059746
 20
407.6962415723417
 10
1180.538914214751
 20
410.8177177846307
 10
1177.11682951197
 20
413.2209923319384
 10
1137.276271617495
 20
416.2910692981829
 10
1078.345571148837
 20
418.2765707736405
 10
1150.875664033339
 20
430.0989627556075
 10
1336.081256625109
 20
448.6122772910541
 10
1404.385329199446
 20
454.2713342805662
 10
1428.824591309492
 20
460.8381276548486
 10
1409.568968862669
 20
468.7920838813827
 10
1346.788516264515
 20
478.6125523287812
 10
1309.697304040967
 20
484.7345366277933
 10
1309.105030528794
 20
486.5171909787356
 10
1320.333170127616
 20
487.4974773992987
 10
1347.332911378997
 20
491.1418381415995
 10
1359.015497411722
 20
497.7423494212874
 10
1353.890941181829
 20
504.3088857993395
 10
1330.469229945729
 20
507.851244737865
 10
1313.653298412035
 20
508.7667938080346
 10
1310.503064321584
 20
510.585838825176
 10
1350.33341946572
 20
520.0997621691647
 10
1453.978919730509
 20
546.2105791598267
 10
1496.926947542727
 20
557.0436384539264
 10
1531.042143420294
 20
562.0765498281232
 10
1551.850357192763
 20
563.8002749434751
 10
1536.191782482257
 20
569.8010084210684
 10
1521.226789197877
 20
576.4612970239056
 10
1545.25804409282
 20
582.3124329958861
 10
1599.655613756196
 20
591.4875068103254
 10
1604.163944425261
 20
592.9913716507214
 10
1599.683934740767
 20
594.5156162921741
 10
1567.923698119227
 20
596.9181969496605
 10
1529.506539545464
 20
600.0075229335491
 10
1527.718359775573
 20
602.6095326656879
 10
1536.191782482257
 20
606.3198900399104
 10
1640.453791003729
 20
639.602135435701
 10
1684.933285051468
 20
654.9113751704651
 10
1699.013902908404
 20
663.0996348600936
 10
1682.681175686777
 20
664.2264091318836
 10
1635.920660198447
 20
658.3511669135084
 10
1595.122482950915
 20
652.2042539801644
 10
1647.58893154115
 20
679.5299692499595
 10
1683.269208761151
 20
701.0657393501912
 10
1695.368128686838
 20
714.462258941897
 10
1712.635962391755
 20
728.6498386298529
 10
1760.754009066993
 20
752.0781803686929
 10
1829.049035374026
 20
782.4297692531342
 10
1836.216608835701
 20
788.0213904318354
 10
1834.208877186329
 20
792.0150604502557
 10
1806.192998540269
 20
787.191832300298
 10
1744.7157995252
 20
769.6939355700858
 10
1657.171986871067
 20
745.4235456829199
 10
1738.351287883726
 20
795.6506319214834
 10
1797.701303401616
 20
832.3213983123876
 10
1801.455864127437
 20
838.2184338110853
 10
1790.047107578014
 20
837.5367770100417
 10
1744.999112169399
 20
821.1846465730324
 10
1681.251968251262
 20
790.41035028912
 10
1592.466067116837
 20
743.6646891828965
 10
1593.83819568962
 20
745.7410131261147
 10
1606.2377241058
 20
755.6106192527315
 10
1655.80296795267
 20
792.341445662639
 10
1703.007598626448
 20
829.98938881972
 10
1712.689006413673
 20
840.9553665640917
 10
1713.303458700513
 20
846.5259654511603
 10
1687.972342572725
 20
841.01113474605
 10
1628.295941842451
 20
812.504830193856
 10
1584.68751081743
 20
791.095707835879
 10
1560.752295413722
 20
782.6450806948153
 10
1556.913825418733
 20
783.3838934574603
 10
1558.895677547721
 20
787.487891957515
 10
1581.523090535071
 20
805.9589820123367
 10
1604.291311756959
 20
824.1957686040638
 10
1606.522167533411
 20
828.0958148958136
 10
1603.025990817456
 20
828.5883738706591
 10
1537.39758309484
 20
797.5545627934673
 10
1472.292779491681
 20
761.7700222028645
 10
1503.707356183571
 20
799.7304727758967
 10
1521.388285628949
 20
823.172692311169
 10
1522.930956900109
 20
828.1052723570862
 10
1519.135867868782
 20
828.3594416287762
 10
1443.489258799234
 20
780.3014549725424
 10
1411.300635161534
 20
759.7516509095615
 10
1407.725817599132
 20
759.0825869237989
 10
1413.79725073966
 20
765.4690460433337
 10
1429.975985820138
 20
782.3889582517751
 10
1429.695782830325
 20
785.1414392767094
 10
1423.851739954299
 20
784.1183629838154
 10
1411.913725368355
 20
781.9163935836407
 10
1418.158116971822
 20
792.1510628552894
 10
1424.258590686365
 20
802.5160806149076
 10
1419.581516292535
 20
805.9589820123367
 10
1380.121749712382
 20
778.6593261602859
 10
1299.326632364283
 20
713.029787654257
 10
1189.068413498871
 20
621.2871705907403
 10
1183.898523133965
 20
618.0809884209691
 10
1185.485680452577
 20
621.1357227122696
 10
1204.529795001926
 20
642.7662730222071
 10
1300.745508551345
 20
754.2371029003045
 10
1352.05601379766
 20
819.5583744281805
 10
1276.506857698612
 20
753.9821112406769
 10
1198.573264875932
 20
685.9851491614565
 10
1204.466342632685
 20
698.3118705456129
 10
1228.038627960073
 20
731.3436474154279
 10
1264.203934165374
 20
785.2607112271564
 10
1240.715506707908
 20
767.0987105384244
 10
1184.248577699152
 20
714.8158600550607
 10
1104.284149266003
 20
638.2331422169256
 10
1148.881090590955
 20
695.5047264225097
 10
1178.889281112573
 20
737.4429646469345
 10
1188.409989157038
 20
757.8533996542653
 10
1188.90863894254
 20
769.33581132327
 10
1197.240533825241
 20
789.8210322335955
 10
1208.649290374663
 20
815.4863462591659
 10
1207.880563250821
 20
818.4194442347013
 10
1202.868417172027
 20
814.8223964983847
 10
1141.46487327654
 20
736.1759732319349
 10
1039.733506634074
 20
600.7838057465607
 10
1005.371080383033
 20
558.386443756842
 10
992.2160858484911
 20
545.8660757132126
 10
1064.746178732993
 20
646.7463736396714
 10
1132.015584484452
 20
740.0585951792757
 10
1134.638565108978
 20
749.7464535718793
 10
1117.94699405109
 20
737.1007227671464
 10
1098.608670217381
 20
719.8294967119907
 10
1117.874469714921
 20
757.8715178884956
 10
1130.516525473561
 20
789.0448779186988
 10
1131.03666014391
 20
796.8667894821448
 10
1128.126152137011
 20
799.5071944510794
 10
1113.322912279933
 20
789.2287587214239
 10
1088.72644557586
 20
758.1797848666485
 10
1006.714168381802
 20
643.8814310643908
 10
990.6208588482503
 20
626.0166465159116
 10
989.0229076879693
 20
627.1857223671966
 10
991.8081043330118
 20
635.1959350685262
 10
1004.811393992853
 20
673.804607233051
 10
1000.834711425251
 20
674.2882484387076
 10
989.9495075960388
 20
661.14358515262
 10
978.162246998743
 20
648.1006409744543
 10
974.9778581092952
 20
647.9211548072669
 10
973.7934395830663
 20
652.0773235420572
 10
972.2115249875516
 20
656.1493517110728
 10
967.8221835730804
 20
655.4488313867302
 10
951.1277855566598
 20
639.9919987169494
 10
934.5250580955596
 20
623.8811106412502
 10
930.7524562343775
 20
623.030941412049
 10
929.9977354050813
 20
626.9717216062892
 10
957.1387217845929
 20
690.4548018978728
 10
974.492263732289
 20
729.9227923573937
 10
974.2878232311461
 20
735.4491364936182
 10
968.5406679339147
 20
731.8649642684356
 10
941.55254291214
 20
698.4486953385838
 10
895.7963943911448
 20
631.8414403742942
 10
829.8937459912574
 20
540.5895062131419
 10
835.77662099767
 20
565.1976148464439
 10
859.9030672962882
 20
627.2992376020859
 10
897.0203389375821
 20
716.1032569707406
 10
863.1306572520363
 20
657.7528025906802
 10
829.8733404905782
 20
605.3894865876339
 10
797.4999879625941
 20
561.4237794033567
 10
731.6607919319497
 20
469.0657591669475
 10
704.1140856037852
 20
428.1485926648217
 10
702.5347152709493
 20
431.5709600634561
 10
706.6288451157641
 20
448.9386625034378
 10
709.9089908005923
 20
463.6675276514891
 10
708.0851142543222
 20
465.3996051443234
 10
685.6404512862844
 20
426.0554097689012
 10
663.0699886635518
 20
387.0535076725121
 10
651.0254748398035
 20
373.4892466413396
 10
654.8015718497169
 20
390.4941475031158
 10
670.2731304034898
 20
424.9946578286551
 10
688.5113304744829
 20
465.6571410666299
 10
690.9396364546148
 20
475.7880866597608
 10
689.1332356519999
 20
479.1225099484124
 10
673.4936529629074
 20
465.4129175490486
 10
642.9474151336947
 20
424.5504141450917
 10
603.7471633468201
 20
373.9538701259601
 10
601.1856048213178
 20
374.5025313778631
 10
601.1292969472759
 20
380.1263027849652
 10
607.7521925986159
 20
406.1912459485326
 10
610.188748157738
 20
420.8400567708692
 10
605.1048487314654
 20
422.3382419945776
 10
601.5576839634343
 20
421.6912796846143
 10
599.452036750348
 20
424.8190009052975
 10
599.8645413994788
 20
441.313944147442
 10
601.0495253174147
 20
452.5689912515684
 10
598.9205171470005
 20
454.4498181624556
 10
580.8072686431422
 20
427.1887117449384
 10
487.3261748806583
 20
289.2987978980266
 10
440.8350942400936
 20
225.557744790545
 10
428.047218820425
 20
209.6025964303615
 10
425.5671024002801
 20
207.4306698895004
 10
426.1912434449998
 20
209.8250780668657
 10
479.6277757054574
 20
311.847724236666
 10
523.3997077321467
 20
393.444078731731
 10
478.4673092278856
 20
345.846192426465
 10
448.233578814624
 20
312.0256427268498
 10
438.630143683649
 20
297.5502272610441
 10
437.5569274262373
 20
296.1699005085163
 10
427.8413134407704
 20
293.823987519794
 10
411.9753427724738
 20
294.8394053250279
 10
427.8413134407704
 20
323.1533481989002
 10
435.9045958636413
 20
338.3450121583376
 10
435.9078597157652
 20
341.4602690618551
 10
432.9999987700373
 20
340.8144375353047
 10
423.9541426601546
 20
338.5614543834315
 10
417.2337683386906
 20
342.4010294622096
 10
419.5819428942384
 20
349.7265528069799
 10
432.3200381441131
 20
355.8553475060933
 10
445.9216921267832
 20
362.2651932825786
 10
441.7761373363016
 20
371.8029144774853
 10
434.5450858057613
 20
376.3172074590909
 10
424.1207276165848
 20
377.529381578184
 10
387.5417602791165
 20
369.8264592693315
 10
337.8915277789122
 20
358.7089565476206
 10
385.1573492551072
 20
384.3778171211681
 10
422.0389039540402
 20
403.031657195301
 10
430.2469780530193
 20
408.2753568775262
 10
429.6817405442664
 20
409.6908150147258
 10
399.2100573214413
 20
405.1576842094443
 10
392.5046915798228
 20
404.9366931510755
 10
399.8492069460064
 20
409.1763085618192
 10
470.9060432411318
 20
437.442655733854
 10
498.8403255840956
 20
449.7251737664121
 10
479.9723048516946
 20
452.365707233462
 10
469.7261478485545
 20
453.8065308985848
 10
471.5826115168172
 20
457.5278106125913
 10
516.2373512939459
 20
474.6505956451708
 10
579.7011825678849
 20
496.0197550893483
 10
534.3698745150711
 20
491.4231719148244
 10
479.9654944515939
 20
480.4291815813587
 10
412.8184960045898
 20
460.4528132068751
 10
332.8631395383679
 20
437.8053031143219
 10
342.3531108336995
 20
444.7003320738446
 10
373.4312537606049
 20
457.8111489564123
 10
478.8752907433643
 20
494.360638826274
 10
517.6618813980719
 20
508.3748231576985
 10
515.809118475525
 20
510.7360017224957
 10
501.5409447697713
 20
511.3054796690469
 10
470.9060432411318
 20
511.3054796690469
 10
516.2373512939459
 20
535.9113010358998
 10
584.2343133731662
 20
579.547230657555
 10
597.6767581912134
 20
591.0460900852942
 10
598.8355284936663
 20
595.3134610889021
 10
547.9692669309153
 20
584.2888882040394
 10
542.4783625748384
 20
583.9236965608923
 10
544.2827074076119
 20
587.0110179741848
 10
567.2441383953821
 20
601.3062533829813
 10
598.1374239338877
 20
620.9245232102723
 10
614.5881638244339
 20
637.2721305136295
 10
616.7069692445076
 20
643.1187176523351
 10
614.3864217837092
 20
646.8268134597312
 10
595.3223386272709
 20
646.0663873141245
 10
521.6408512321233
 20
618.6318855400752
 10
469.0111843360739
 20
600.8438914651867
 10
490.7011007751932
 20
613.473174511185
 10
547.9601949639884
 20
638.7227200355003
 10
605.5364739001249
 20
664.3805297711485
 10
629.9974007923781
 20
678.8409366571088
 10
629.111303490192
 20
681.0896022723142
 10
619.108393418958
 20
679.5999493234496
 10
570.634920957322
 20
664.1535764002385
 10
516.2750269412965
 20
645.5278003144456
 10
498.9955770067729
 20
642.2200275348675
 10
576.2559939040068
 20
683.5644502697398
 10
625.5913289233188
 20
709.1896728833951
 10
648.5990963313986
 20
724.5983444596324
 10
649.9021186178754
 20
728.1283161798612
 10
644.2295950259001
 20
728.6923458063317
 10
611.4330982048548
 20
720.3734806325035
 10
601.8470874182887
 20
718.2792954512849
 10
600.8924235218789
 20
721.2925762506504
 10
627.3625212423933
 20
746.7653487005375
 10
653.0891802681178
 20
772.920394742421
 10
660.7354349082063
 20
788.7330900921917
 10
653.8994636823879
 20
792.8185591640478
 10
644.8060118706673
 20
790.7639257026605
 10
641.0944980134092
 20
790.9735832272765
 10
647.2085668285306
 20
800.4920297049167
 10
655.418054406776
 20
813.4715215138395
 10
643.6636636273263
 20
813.5655821341018
 10
640.6921961146183
 20
814.6902233371804
 10
644.9216087750216
 20
820.0196312621853
 10
671.3520262775894
 20
839.8486636978825
 10
705.6655461460188
 20
865.0256848860287
 10
703.3046502770742
 20
868.5986263759508
 10
689.9197212153515
 20
869.3140267820229
 10
660.329714959553
 20
863.3982819577642
 10
625.3679478000092
 20
849.0237375123212
 10
608.7323505210636
 20
840.8245554829084
 10
606.0080619825842
 20
841.3638620720309
 10
645.3499700915578
 20
872.1970875915337
 10
685.3548513756375
 20
904.4593920484382
 10
699.0313169609255
 20
920.8375819031919
 10
679.2113307925326
 20
915.4612978657949
 10
638.6862891384814
 20
895.3976535715272
 10
583.409278375281
 20
864.889682480995
 10
651.7688878349697
 20
915.5610124031216
 10
698.4782867731085
 20
952.9162882532244
 10
714.7794034584187
 20
971.5723898941835
 10
720.5489688269265
 20
981.5350800553876
 10
741.9238078877913
 20
997.9642579622176
 10
766.2941950081374
 20
1015.722389075154
 10
773.5786503553174
 20
1025.066720606818
 10
764.1766488695914
 20
1024.359415581998
 10
738.4876911908406
 20
1011.962585626236
 10
720.6441602306011
 20
1002.476160878882
 10
716.6447848958694
 20
1002.31381636025
 10
754.353636159514
 20
1036.387096152667
 10
785.8203830861396
 20
1065.938578673556
 10
791.296407360486
 20
1073.434387720471
 10
788.4427983189582
 20
1074.410999094942
 10
777.633536875777
 20
1073.242565734233
 10
792.9759291242397
 20
1091.827273822436
 10
815.4239844425172
 20
1115.789396731449
 10
785.8407628871962
 20
1103.667809738256
 10
773.5722768488082
 20
1099.499305184415
 10
772.6754371041986
 20
1102.190004315604
 10
808.2978901723997
 20
1132.344399992596
 10
839.7816245498431
 20
1160.028239509208
 10
845.2648704182591
 20
1167.571078866254
 10
842.4142425330021
 20
1169.298479027698
 10
819.5128715642347
 20
1166.433536452418
 10
769.6484327061396
 20
1133.151291056628
 10
749.0212727778619
 20
1117.964895519911
 10
744.8817059995442
 20
1115.634685000855
 10
745.0448729061124
 20
1117.082473263816
 10
791.5253139027456
 20
1164.692823886248
 10
837.0651486967624
 20
1213.743561280211
 10
852.8223071611826
 20
1239.308158483157
 10
852.6523298545132
 20
1248.618078219594
 10
859.9211855305187
 20
1258.573957980697
 10
867.4870003505477
 20
1270.940333883177
 10
868.0355074047122
 20
1286.0266036886
 10
869.5971706972857
 20
1301.290791984206
 10
882.5687213226949
 20
1313.216316553361
 10
895.9777309311901
 20
1323.050945493045
 10
901.5534697428632
 20
1332.43678191589
 10
896.089909785682
 20
1336.257082277402
 10
881.1543682692857
 20
1330.986192394019
 10
872.6264366621711
 20
1327.326257680167
 10
871.1021663210951
 20
1329.089071922135
 10
890.220629879848
 20
1351.49408037185
 10
919.6859929639888
 20
1389.517983314125
 10
911.0322360025568
 20
1388.322359752258
 10
890.220629879848
 20
1375.65565805514
 10
876.231682578232
 20
1366.62326854772
 10
873.5600011680793
 20
1366.119247541007
 10
873.9602984962745
 20
1368.69391287425
 10
909.1328539638473
 20
1415.837327045989
 10
940.0669505037123
 20
1459.395052714788
 10
946.2489948217278
 20
1472.219138903296
 10
944.9446104552309
 20
1476.862341193981
 10
932.8751422975276
 20
1473.666490272666
 10
921.4992555659508
 20
1465.982816981457
 10
911.3978645392956
 20
1459.965815642491
 10
911.3303002303693
 20
1470.523888970253
 10
937.818516185114
 20
1528.122989171633
 10
963.3627078873807
 20
1581.321542922904
 10
956.6647179375692
 20
1579.390987241468
 10
936.9844092203022
 20
1558.458695689046
 10
918.1027933873226
 20
1539.42974391728
 10
914.6997007059551
 20
1539.062984597129
 10
915.4248412691524
 20
1544.859303273203
 10
921.1637983866406
 20
1562.991826494328
 10
905.6060946964969
 20
1544.859303273203
 10
894.7764277526351
 20
1534.272163671802
 10
895.0710996302094
 20
1541.432258543178
 10
906.3857955593705
 20
1598.096380759384
 10
908.3717339284191
 20
1625.402127422091
 10
904.7640722477934
 20
1638.723449916834
 10
896.5139021663041
 20
1637.121129820639
 10
884.572366732006
 20
1619.655974410157
 10
873.883251026454
 20
1599.256872936579
 10
877.7998735750532
 20
1619.655974410157
 10
878.4537747832326
 20
1634.061127106619
 10
874.5178775173664
 20
1640.055050184111
 10
867.571989003882
 20
1630.188682209995
 10
861.0000814046182
 20
1606.464563509791
 10
849.8032439466371
 20
1574.716765505794
 10
831.7251268274501
 20
1545.566479799907
 10
808.7512058228906
 20
1518.258882764343
 10
811.7340068693513
 20
1581.423544726679
 10
812.5284593158401
 20
1625.895817180349
 10
810.4909418033855
 20
1625.939455140241
 10
806.5571776062304
 20
1612.856265352423
  0
ENDBLK
  5
E5A
330
E58
100
AcDbEntity
  8
0
100
AcDbBlockEnd
  0
ENDSEC
  0
SECTION
  2
ENTITIES
  0
INSERT
  5
EC0
330
6F
100
AcDbEntity
  8
0
  6
Continuous
100
AcDbBlockReference
  2
Vue de dessus Palmier
 10
76.83900103070482
 20
72.87264914109073
 30
0.0
  0
ENDSEC
  0
SECTION
  2
OBJECTS
  0
DICTIONARY
  5
C
330
0
100
AcDbDictionary
281
     1
  3
ACAD_CIP_PREVIOUS_PRODUCT_INFO
350
DDF
  3
ACAD_COLOR
350
62
  3
ACAD_DETAILVIEWSTYLE
350
69
  3
ACAD_GROUP
350
D
  3
ACAD_LAYOUT
350
61
  3
ACAD_MATERIAL
350
10
  3
ACAD_MLEADERSTYLE
350
65
  3
ACAD_MLINESTYLE
350
5E
  3
ACAD_PLOTSETTINGS
350
60
  3
ACAD_PLOTSTYLENAME
350
E
  3
ACAD_RENDER_ACTIVE_RAPIDRT_SETTINGS
350
DE8
  3
ACAD_RENDER_ACTIVE_SETTINGS
350
F6B
  3
ACAD_RENDER_RAPIDRT_SETTINGS
350
DE1
  3
ACAD_SCALELIST
350
42
  3
ACAD_SECTIONVIEWSTYLE
350
67
  3
ACAD_TABLESTYLE
350
63
  3
ACAD_VISUALSTYLE
350
29
  3
ACDB_RECOMPOSE_DATA
350
F5E
  3
AcDbVariableDictionary
350
F52
  3
AcDsDecomposeData
350
F64
  0
DICTIONARY
  5
F42
330
2
100
AcDbDictionary
280
     1
281
     1
  3
ACAD_LAYERSTATES
360
F43
  0
DICTIONARY
  5
F33
330
54
100
AcDbDictionary
280
     1
281
     1
  3
ADSK_XREC_LAYER_RECONCILED
360
F34
  0
DICTIONARY
  5
F2A
330
E58
100
AcDbDictionary
280
     1
281
     1
  0
XRECORD
  5
DDF
102
{ACAD_REACTORS
330
C
102
}
330
C
100
AcDbXrecord
280
     1
300
AOEM
300
2019
300

  0
DICTIONARY
  5
62
102
{ACAD_REACTORS
330
C
102
}
330
C
100
AcDbDictionary
281
     1
  0
DICTIONARY
  5
69
102
{ACAD_REACTORS
330
C
102
}
330
C
100
AcDbDictionary
281
     1
  3
Imperial24
350
6A
  0
DICTIONARY
  5
D
102
{ACAD_REACTORS
330
C
102
}
330
C
100
AcDbDictionary
281
     1
  0
DICTIONARY
  5
61
102
{ACAD_REACTORS
330
C
102
}
330
C
100
AcDbDictionary
281
     1
  3
Model
350
72
  3
Présentation1
350
6E
  0
DICTIONARY
  5
10
102
{ACAD_REACTORS
330
C
102
}
330
C
100
AcDbDictionary
281
     1
  3
ByBlock
350
19
  3
ByLayer
350
11
  3
Global
350
21
  0
DICTIONARY
  5
65
102
{ACAD_REACTORS
330
C
102
}
330
C
100
AcDbDictionary
281
     1
  3
Standard
350
66
  0
DICTIONARY
  5
5E
102
{ACAD_REACTORS
330
C
102
}
330
C
100
AcDbDictionary
281
     1
  3
Standard
350
5F
  0
DICTIONARY
  5
60
102
{ACAD_REACTORS
330
C
102
}
330
C
100
AcDbDictionary
281
     1
  0
ACDBDICTIONARYWDFLT
  5
E
102
{ACAD_REACTORS
330
C
102
}
330
C
100
AcDbDictionary
281
     1
  3
Normal
350
F
100
AcDbDictionaryWithDefault
340
F
  0
RAPIDRTRENDERSETTINGS
  5
DE8
102
{ACAD_REACTORS
330
C
102
}
330
C
100
AcDbRenderSettings
 90
        2
  1
Moyenne
290
     1
290
     0
290
     1
290
     1
  1

  1
Applique 5 niveaux de rendu
 90
        0
100
AcDbRapidRTRenderSettings
 90
        3
 70
     0
 90
        5
 90
        1
 70
     1
 70
     2
 40
3.0
 40
3.0
290
     1
  0
MENTALRAYRENDERSETTINGS
  5
F6B
102
{ACAD_XDICTIONARY
360
F6C
102
}
102
{ACAD_REACTORS
330
C
102
}
330
C
100
AcDbRenderSettings
 90
        2
  1
Moyen
290
     1
290
     1
290
     1
290
     1
  1

  1

 90
        0
100
AcDbMentalRayRenderSettings
 90
        2
 90
        0
 90
        1
 70
     2
 40
3.0
 40
3.0
 40
0.0500000007450581
 40
0.0500000007450581
 40
0.0500000007450581
 40
0.0500000007450581
 70
     0
290
     0
290
     1
 90
        5
 90
        5
 90
        5
290
     0
 90
      500
290
     0
 40
1.0
 90
    10000
 90
        5
 90
        5
 90
        5
290
     0
 90
      200
290
     0
290
     0
290
     0
 40
1.0
 40
1.0
 40
1500.0
 70
     0
 70
     0
 40
10.0
 70
     0
 70
     0
290
     0
  1

 90
       32
 70
     0
 90
     1048
290
     0
 40
1.0
  0
DICTIONARY
  5
DE1
102
{ACAD_REACTORS
330
C
102
}
330
C
100
AcDbDictionary
281
     1
  3
Bas
350
DE2
  3
Elevé
350
DE4
  3
Moyenne
350
DE3
  3
Temps d'un déjeuner
350
DE6
  3
Temps d'une nuit
350
DE7
  3
Temps d'une pause café
350
DE5
  0
DICTIONARY
  5
42
102
{ACAD_REACTORS
330
C
102
}
330
C
100
AcDbDictionary
281
     1
  3
A0
350
43
  3
A1
350
44
  3
A2
350
45
  3
A3
350
46
  3
A4
350
47
  3
A5
350
48
  3
A6
350
49
  3
A7
350
4A
  3
A8
350
4B
  3
A9
350
4C
  3
B0
350
4D
  3
B1
350
4E
  3
B2
350
4F
  3
B3
350
50
  3
B4
350
51
  3
B5
350
52
  3
B6
350
53
  0
DICTIONARY
  5
67
102
{ACAD_REACTORS
330
C
102
}
330
C
100
AcDbDictionary
281
     1
  3
Imperial24
350
68
  0
DICTIONARY
  5
63
102
{ACAD_REACTORS
330
C
102
}
330
C
100
AcDbDictionary
281
     1
  3
Standard
350
64
  0
DICTIONARY
  5
29
102
{ACAD_REACTORS
330
C
102
}
330
C
100
AcDbDictionary
281
     1
  3
2dWireframe
350
2F
  3
Basic
350
2E
  3
Brighten
350
35
  3
ColorChange
350
39
  3
Conceptual
350
32
  3
Dim
350
34
  3
EdgeColorOff
350
41
  3
Facepattern
350
38
  3
Flat
350
2A
  3
FlatWithEdges
350
2B
  3
Gouraud
350
2C
  3
GouraudWithEdges
350
2D
  3
Hidden
350
31
  3
JitterOff
350
3F
  3
Linepattern
350
37
  3
OverhangOff
350
40
  3
Realistic
350
33
  3
Shaded
350
3E
  3
Shaded with edges
350
3D
  3
Shades of Gray
350
3A
  3
Sketchy
350
3B
  3
Thicken
350
36
  3
Wireframe
350
30
  3
X-Ray
350
3C
  0
XRECORD
  5
F5E
102
{ACAD_REACTORS
330
C
102
}
330
C
100
AcDbXrecord
280
     1
 90
        1
330
64
  0
DICTIONARY
  5
F52
102
{ACAD_REACTORS
330
C
102
}
330
C
100
AcDbDictionary
281
     1
  3
CANNOSCALE
350
F58
  3
CMLEADERSTYLE
350
F54
  3
CTABLESTYLE
350
F53
  3
CVIEWDETAILSTYLE
350
F55
  3
CVIEWSECTIONSTYLE
350
F56
  3
LAYEREVAL
350
F5A
  3
LAYERNOTIFY
350
F5B
  3
LIGHTINGUNITS
350
F59
  3
MSLTSCALE
350
F57
  0
DICTIONARY
  5
F64
102
{ACAD_REACTORS
330
C
102
}
330
C
100
AcDbDictionary
281
     1
  3
AcDsRecords
350
F66
  3
AcDsSchemas
350
F65
1001
ACAD
1070
     2
  0
DICTIONARY
  5
F43
102
{ACAD_REACTORS
330
F42
102
}
330
F42
100
AcDbDictionary
281
     1
  0
XRECORD
  5
F34
102
{ACAD_REACTORS
330
F33
102
}
330
F33
100
AcDbXrecord
280
     1
290
     1
  0
ACDBDETAILVIEWSTYLE
  5
6A
102
{ACAD_XDICTIONARY
360
F69
102
}
102
{ACAD_REACTORS
330
69
102
}
330
69
100
AcDbModelDocViewStyle
 70
     0
  3
Imperial24
290
     0
100
AcDbDetailViewStyle
 70
     0
 71
     0
 90
        3
 71
     1
340
55
 62
   256
 40
0.24
340
0
 62
   256
 40
0.24
300

 40
0.36
280
     3
 71
     2
340
5C
 90
       25
 62
   256
 71
     3
340
55
 62
   256
 40
0.24
 90
        1
 40
0.75
 90
        1
300
%<\AcVar ViewType \f "%tc1">% %<\AcVar ViewDetailId>%\PECHELLE %<\AcVar ViewScale \f "%sn">%
 71
     4
340
5C
 90
       25
 62
   256
340
5C
 90
       25
 62
   256
280
     0
  0
LAYOUT
  5
72
102
{ACAD_REACTORS
330
61
102
}
330
61
100
AcDbPlotSettings
  1

  2
AutoCAD PDF (General Documentation).pc3
  4

  6

 40
0.0
 41
0.0
 42
0.0
 43
0.0
 44
0.0
 45
0.0
 46
0.0
 47
0.0
 48
0.0
 49
0.0
140
0.0
141
0.0
142
1.0
143
1.0
 70
  1712
 72
     0
 73
     0
 74
     0
  7

 75
     0
147
1.0
 76
     0
 77
     2
 78
   300
148
0.0
149
0.0
100
AcDbLayout
  1
Model
 70
     1
 71
     0
 10
0.0
 20
0.0
 11
12.0
 21
9.0
 12
0.0
 22
0.0
 32
0.0
 14
0.0
 24
0.0
 34
0.0
 15
0.0
 25
0.0
 35
0.0
146
0.0
 13
0.0
 23
0.0
 33
0.0
 16
1.0
 26
0.0
 36
0.0
 17
0.0
 27
1.0
 37
0.0
 76
     0
330
6F
331
DDE
  0
LAYOUT
  5
6E
102
{ACAD_REACTORS
330
61
102
}
330
61
100
AcDbPlotSettings
  1

  2
AutoCAD PDF (General Documentation).pc3
  4

  6

 40
0.0
 41
0.0
 42
0.0
 43
0.0
 44
0.0
 45
0.0
 46
0.0
 47
0.0
 48
0.0
 49
0.0
140
0.0
141
0.0
142
1.0
143
1.0
 70
   688
 72
     0
 73
     0
 74
     5
  7

 75
    16
147
1.0
 76
     0
 77
     2
 78
   300
148
0.0
149
0.0
100
AcDbLayout
  1
Présentation1
 70
     1
 71
     1
 10
0.0
 20
0.0
 11
12.0
 21
9.0
 12
0.0
 22
0.0
 32
0.0
 14
1.000000000000000E+20
 24
1.000000000000000E+20
 34
1.000000000000000E+20
 15
-1.000000000000000E+20
 25
-1.000000000000000E+20
 35
-1.000000000000000E+20
146
0.0
 13
0.0
 23
0.0
 33
0.0
 16
1.0
 26
0.0
 36
0.0
 17
0.0
 27
1.0
 37
0.0
 76
     0
330
6B
  0
MATERIAL
  5
19
102
{ACAD_XDICTIONARY
360
1A
102
}
102
{ACAD_REACTORS
330
10
102
}
330
10
100
AcDbMaterial
  1
ByBlock
 72
     0
 43
0.0208333333333333
 43
0.0
 43
0.0
 43
0.0
 43
0.0
 43
0.0208333333333333
 43
0.0
 43
0.0
 43
0.0
 43
0.0
 43
1.0
 43
0.0
 43
0.0
 43
0.0
 43
0.0
 43
1.0
 77
     0
 47
0.0208333333333333
 47
0.0
 47
0.0
 47
0.0
 47
0.0
 47
0.0208333333333333
 47
0.0
 47
0.0
 47
0.0
 47
0.0
 47
1.0
 47
0.0
 47
0.0
 47
0.0
 47
0.0
 47
1.0
171
     0
 49
0.0208333333333333
 49
0.0
 49
0.0
 49
0.0
 49
0.0
 49
0.0208333333333333
 49
0.0
 49
0.0
 49
0.0
 49
0.0
 49
1.0
 49
0.0
 49
0.0
 49
0.0
 49
0.0
 49
1.0
175
     0
142
0.0208333333333333
142
0.0
142
0.0
142
0.0
142
0.0
142
0.0208333333333333
142
0.0
142
0.0
142
0.0
142
0.0
142
1.0
142
0.0
142
0.0
142
0.0
142
0.0
142
1.0
179
     0
144
0.0208333333333333
144
0.0
144
0.0
144
0.0
144
0.0
144
0.0208333333333333
144
0.0
144
0.0
144
0.0
144
0.0
144
1.0
144
0.0
144
0.0
144
0.0
144
0.0
144
1.0
147
0.0208333333333333
147
0.0
147
0.0
147
0.0
147
0.0
147
0.0208333333333333
147
0.0
147
0.0
147
0.0
147
0.0
147
1.0
147
0.0
147
0.0
147
0.0
147
0.0
147
1.0
  0
MATERIAL
  5
11
102
{ACAD_XDICTIONARY
360
12
102
}
102
{ACAD_REACTORS
330
10
102
}
330
10
100
AcDbMaterial
  1
ByLayer
 72
     0
 43
0.0208333333333333
 43
0.0
 43
0.0
 43
0.0
 43
0.0
 43
0.0208333333333333
 43
0.0
 43
0.0
 43
0.0
 43
0.0
 43
1.0
 43
0.0
 43
0.0
 43
0.0
 43
0.0
 43
1.0
 77
     0
 47
0.0208333333333333
 47
0.0
 47
0.0
 47
0.0
 47
0.0
 47
0.0208333333333333
 47
0.0
 47
0.0
 47
0.0
 47
0.0
 47
1.0
 47
0.0
 47
0.0
 47
0.0
 47
0.0
 47
1.0
171
     0
 49
0.0208333333333333
 49
0.0
 49
0.0
 49
0.0
 49
0.0
 49
0.0208333333333333
 49
0.0
 49
0.0
 49
0.0
 49
0.0
 49
1.0
 49
0.0
 49
0.0
 49
0.0
 49
0.0
 49
1.0
175
     0
142
0.0208333333333333
142
0.0
142
0.0
142
0.0
142
0.0
142
0.0208333333333333
142
0.0
142
0.0
142
0.0
142
0.0
142
1.0
142
0.0
142
0.0
142
0.0
142
0.0
142
1.0
179
     0
144
0.0208333333333333
144
0.0
144
0.0
144
0.0
144
0.0
144
0.0208333333333333
144
0.0
144
0.0
144
0.0
144
0.0
144
1.0
144
0.0
144
0.0
144
0.0
144
0.0
144
1.0
147
0.0208333333333333
147
0.0
147
0.0
147
0.0
147
0.0
147
0.0208333333333333
147
0.0
147
0.0
147
0.0
147
0.0
147
1.0
147
0.0
147
0.0
147
0.0
147
0.0
147
1.0
  0
MATERIAL
  5
21
102
{ACAD_XDICTIONARY
360
22
102
}
102
{ACAD_REACTORS
330
10
102
}
330
10
100
AcDbMaterial
  1
Global
 72
     0
 43
0.0208333333333333
 43
0.0
 43
0.0
 43
0.0
 43
0.0
 43
0.0208333333333333
 43
0.0
 43
0.0
 43
0.0
 43
0.0
 43
1.0
 43
0.0
 43
0.0
 43
0.0
 43
0.0
 43
1.0
 77
     0
 47
0.0208333333333333
 47
0.0
 47
0.0
 47
0.0
 47
0.0
 47
0.0208333333333333
 47
0.0
 47
0.0
 47
0.0
 47
0.0
 47
1.0
 47
0.0
 47
0.0
 47
0.0
 47
0.0
 47
1.0
171
     0
 49
0.0208333333333333
 49
0.0
 49
0.0
 49
0.0
 49
0.0
 49
0.0208333333333333
 49
0.0
 49
0.0
 49
0.0
 49
0.0
 49
1.0
 49
0.0
 49
0.0
 49
0.0
 49
0.0
 49
1.0
175
     0
142
0.0208333333333333
142
0.0
142
0.0
142
0.0
142
0.0
142
0.0208333333333333
142
0.0
142
0.0
142
0.0
142
0.0
142
1.0
142
0.0
142
0.0
142
0.0
142
0.0
142
1.0
179
     0
144
0.0208333333333333
144
0.0
144
0.0
144
0.0
144
0.0
144
0.0208333333333333
144
0.0
144
0.0
144
0.0
144
0.0
144
1.0
144
0.0
144
0.0
144
0.0
144
0.0
144
1.0
147
0.0208333333333333
147
0.0
147
0.0
147
0.0
147
0.0
147
0.0208333333333333
147
0.0
147
0.0
147
0.0
147
0.0
147
1.0
147
0.0
147
0.0
147
0.0
147
0.0
147
1.0
  0
MLEADERSTYLE
  5
66
102
{ACAD_REACTORS
330
65
102
}
330
65
100
AcDbMLeaderStyle
179
     2
170
     2
171
     1
172
     0
 90
        2
 40
0.0
 41
0.0
173
     1
 91
-1056964608
340
5A
 92
       -2
290
     1
 42
0.09
291
     1
 43
0.36
  3
Standard
 44
0.18
300

342
55
174
     1
178
     6
175
     1
176
     0
 93
-1056964608
 45
0.18
292
     0
297
     0
 46
0.18
 94
-1056964608
 47
1.0
 49
1.0
140
1.0
293
     1
141
0.0
294
     1
177
     0
142
1.0
295
     0
296
     0
143
0.125
271
     0
272
     9
273
     9
298
     0
  0
MLINESTYLE
  5
5F
102
{ACAD_REACTORS
330
5E
102
}
330
5E
100
AcDbMlineStyle
  2
STANDARD
 70
     0
  3

 62
   256
 51
90.0
 52
90.0
 71
     2
 49
0.5
 62
   256
  6
BYLAYER
 49
-0.5
 62
   256
  6
BYLAYER
  0
ACDBPLACEHOLDER
  5
F
102
{ACAD_REACTORS
330
E
102
}
330
E
  0
DICTIONARY
  5
F6C
330
F6B
100
AcDbDictionary
280
     1
281
     1
  3
ACAD_XREC_ROUNDTRIP
360
F6E
  3
ADSK_XREC_MENTALRAYSETTINGSINFO
360
F6D
  0
RAPIDRTRENDERSETTINGS
  5
DE2
102
{ACAD_REACTORS
330
DE1
102
}
330
DE1
100
AcDbRenderSettings
 90
        2
  1
Bas
290
     1
290
     0
290
     1
290
     1
  1

  1
Applique 1 niveau de rendu
 90
        0
100
AcDbRapidRTRenderSettings
 90
        3
 70
     0
 90
        1
 90
        1
 70
     0
 70
     2
 40
3.0
 40
3.0
290
     1
  0
RAPIDRTRENDERSETTINGS
  5
DE4
102
{ACAD_REACTORS
330
DE1
102
}
330
DE1
100
AcDbRenderSettings
 90
        2
  1
Elevé
290
     1
290
     0
290
     1
290
     1
  1

  1
Applique 10 niveaux de rendu
 90
        2
100
AcDbRapidRTRenderSettings
 90
        3
 70
     0
 90
       10
 90
        1
 70
     2
 70
     2
 40
3.0
 40
3.0
290
     1
  0
RAPIDRTRENDERSETTINGS
  5
DE3
102
{ACAD_REACTORS
330
DE1
102
}
330
DE1
100
AcDbRenderSettings
 90
        2
  1
Moyenne
290
     1
290
     0
290
     1
290
     1
  1

  1
Applique 5 niveaux de rendu
 90
        1
100
AcDbRapidRTRenderSettings
 90
        3
 70
     0
 90
        5
 90
        1
 70
     1
 70
     2
 40
3.0
 40
3.0
290
     1
  0
RAPIDRTRENDERSETTINGS
  5
DE6
102
{ACAD_REACTORS
330
DE1
102
}
330
DE1
100
AcDbRenderSettings
 90
        2
  1
Temps d'un déjeuner
290
     1
290
     0
290
     1
290
     1
  1

  1
Effectue un rendu pendant 60 minutes
 90
        4
100
AcDbRapidRTRenderSettings
 90
        3
 70
     1
 90
        1
 90
       60
 70
     2
 70
     2
 40
3.0
 40
3.0
290
     1
  0
RAPIDRTRENDERSETTINGS
  5
DE7
102
{ACAD_REACTORS
330
DE1
102
}
330
DE1
100
AcDbRenderSettings
 90
        2
  1
Temps d'une nuit
290
     1
290
     0
290
     1
290
     1
  1

  1
Effectue un rendu pendant 12 heures
 90
        5
100
AcDbRapidRTRenderSettings
 90
        3
 70
     1
 90
        1
 90
      720
 70
     2
 70
     2
 40
3.0
 40
3.0
290
     1
  0
RAPIDRTRENDERSETTINGS
  5
DE5
102
{ACAD_REACTORS
330
DE1
102
}
330
DE1
100
AcDbRenderSettings
 90
        2
  1
Temps d'une pause café
290
     1
290
     0
290
     1
290
     1
  1

  1
Effectue un rendu pendant 10 minutes
 90
        3
100
AcDbRapidRTRenderSettings
 90
        3
 70
     1
 90
        1
 90
       10
 70
     1
 70
     2
 40
3.0
 40
3.0
290
     1
  0
SCALE
  5
43
102
{ACAD_REACTORS
330
42
102
}
330
42
100
AcDbScale
 70
     0
300
1:1
140
1.0
141
1.0
290
     1
  0
SCALE
  5
44
102
{ACAD_REACTORS
330
42
102
}
330
42
100
AcDbScale
 70
     0
300
1/128" = 1'-0"
140
0.0078125
141
12.0
290
     0
  0
SCALE
  5
45
102
{ACAD_REACTORS
330
42
102
}
330
42
100
AcDbScale
 70
     0
300
1/64" = 1'-0"
140
0.015625
141
12.0
290
     0
  0
SCALE
  5
46
102
{ACAD_REACTORS
330
42
102
}
330
42
100
AcDbScale
 70
     0
300
1/32" = 1'-0"
140
0.03125
141
12.0
290
     0
  0
SCALE
  5
47
102
{ACAD_REACTORS
330
42
102
}
330
42
100
AcDbScale
 70
     0
300
1/16" = 1'-0"
140
0.0625
141
12.0
290
     0
  0
SCALE
  5
48
102
{ACAD_REACTORS
330
42
102
}
330
42
100
AcDbScale
 70
     0
300
3/32" = 1'-0"
140
0.09375
141
12.0
290
     0
  0
SCALE
  5
49
102
{ACAD_REACTORS
330
42
102
}
330
42
100
AcDbScale
 70
     0
300
1/8" = 1'-0"
140
0.125
141
12.0
290
     0
  0
SCALE
  5
4A
102
{ACAD_REACTORS
330
42
102
}
330
42
100
AcDbScale
 70
     0
300
3/16" = 1'-0"
140
0.1875
141
12.0
290
     0
  0
SCALE
  5
4B
102
{ACAD_REACTORS
330
42
102
}
330
42
100
AcDbScale
 70
     0
300
1/4" = 1'-0"
140
0.25
141
12.0
290
     0
  0
SCALE
  5
4C
102
{ACAD_REACTORS
330
42
102
}
330
42
100
AcDbScale
 70
     0
300
3/8" = 1'-0"
140
0.375
141
12.0
290
     0
  0
SCALE
  5
4D
102
{ACAD_REACTORS
330
42
102
}
330
42
100
AcDbScale
 70
     0
300
1/2" = 1'-0"
140
0.5
141
12.0
290
     0
  0
SCALE
  5
4E
102
{ACAD_REACTORS
330
42
102
}
330
42
100
AcDbScale
 70
     0
300
3/4" = 1'-0"
140
0.75
141
12.0
290
     0
  0
SCALE
  5
4F
102
{ACAD_REACTORS
330
42
102
}
330
42
100
AcDbScale
 70
     0
300
1" = 1'-0"
140
1.0
141
12.0
290
     0
  0
SCALE
  5
50
102
{ACAD_REACTORS
330
42
102
}
330
42
100
AcDbScale
 70
     0
300
1-1/2" = 1'-0"
140
1.5
141
12.0
290
     0
  0
SCALE
  5
51
102
{ACAD_REACTORS
330
42
102
}
330
42
100
AcDbScale
 70
     0
300
3" = 1'-0"
140
3.0
141
12.0
290
     0
  0
SCALE
  5
52
102
{ACAD_REACTORS
330
42
102
}
330
42
100
AcDbScale
 70
     0
300
6" = 1'-0"
140
6.0
141
12.0
290
     0
  0
SCALE
  5
53
102
{ACAD_REACTORS
330
42
102
}
330
42
100
AcDbScale
 70
     0
300
1'-0" = 1'-0"
140
12.0
141
12.0
290
     0
  0
ACDBSECTIONVIEWSTYLE
  5
68
102
{ACAD_XDICTIONARY
360
F67
102
}
102
{ACAD_REACTORS
330
67
102
}
330
67
100
AcDbModelDocViewStyle
 70
     0
  3
Imperial24
290
     0
100
AcDbSectionViewStyle
 70
     0
 71
     0
 90
       78
 71
     1
340
55
 62
   256
 40
0.24
340
0
340
0
 62
   256
 40
0.24
300
I, O, Q, S, X, Z
 40
0.48
 90
        3
 40
0.18
 90
        1
 71
     2
340
5C
 90
       25
 62
   256
340
5C
 90
       50
 62
   256
 40
0.24
 40
0.0
 40
0.24
 71
     3
340
55
 62
   256
 40
0.24
 90
        1
 40
0.75
 90
        1
300
%<\AcVar ViewType \f "%tc1">% %<\AcVar ViewSectionStartId>%-%<\AcVar ViewSectionEndId>%\PECHELLE %<\AcVar ViewScale \f "%sn">%
 71
     4
 62
   256
 62
   257
300
ANSI31
 40
1.0
 90
        0
290
     0
290
     0
 90
        6
 40
0.0
 40
1.570796326794896
 40
0.2617993877991494
 40
1.308996938995747
 40
-0.2617993877991494
 40
1.832595714594046
  0
TABLESTYLE
  5
64
102
{ACAD_XDICTIONARY
360
F5C
102
}
102
{ACAD_REACTORS
330
63
102
}
330
63
100
AcDbTableStyle
280
     0
  3
Standard
 70
     0
 71
     0
 40
0.06
 41
0.06
280
     0
281
     0
  7
Standard
140
0.18
170
     2
 62
     0
 63
     7
283
     0
 90
      512
 91
        0
  1

274
    -2
284
     1
 64
     0
275
    -2
285
     1
 65
     0
276
    -2
286
     1
 66
     0
277
    -2
287
     1
 67
     0
278
    -2
288
     1
 68
     0
279
    -2
289
     1
 69
     0
  7
Standard
140
0.25
170
     5
 62
     0
 63
     7
283
     0
 90
      512
 91
        0
  1

274
    -2
284
     1
 64
     0
275
    -2
285
     1
 65
     0
276
    -2
286
     1
 66
     0
277
    -2
287
     1
 67
     0
278
    -2
288
     1
 68
     0
279
    -2
289
     1
 69
     0
  7
Standard
140
0.18
170
     5
 62
     0
 63
     7
283
     0
 90
      512
 91
        0
  1

274
    -2
284
     1
 64
     0
275
    -2
285
     1
 65
     0
276
    -2
286
     1
 66
     0
277
    -2
287
     1
 67
     0
278
    -2
288
     1
 68
     0
279
    -2
289
     1
 69
     0
  0
VISUALSTYLE
  5
2F
102
{ACAD_REACTORS
330
29
102
}
330
29
100
AcDbVisualStyle
  2
2dWireframe
 70
     4
177
     3
291
     0
 70
    58
 90
        0
176
     1
 90
        2
176
     1
 90
        0
176
     1
 90
        0
176
     1
 40
0.6
176
     1
 40
30.0
176
     1
 62
     7
420
 16777215
176
     1
 90
        1
176
     1
 90
        4
176
     1
 62
     7
176
     1
 62
   257
176
     1
 90
        1
176
     1
 90
        1
176
     1
 40
1.0
176
     1
 90
        0
176
     1
 62
   257
176
     1
 40
1.0
176
     1
 90
        1
176
     1
 90
        6
176
     1
 90
        2
176
     1
 62
     7
176
     1
 90
        5
176
     1
 90
        0
176
     1
 90
        0
176
     1
290
     0
176
     1
 90
        1
176
     1
 40
0.0
176
     1
 90
        0
176
     1
290
     1
176
     1
290
     1
176
     1
290
     0
176
     1
290
     0
176
     1
290
     0
176
     1
290
     0
176
     1
290
     0
176
     1
290
     0
176
     1
290
     0
176
     1
 90
       50
176
     1
 40
0.0
176
     1
 40
1.0
176
     1
 90
        0
176
     1
 62
    18
420
        0
176
     1
 90
       50
176
     1
 90
        3
176
     1
 62
     5
420
      255
176
     1
290
     0
176
     1
 90
       50
176
     1
 90
       50
176
     1
 90
       50
176
     1
290
     0
176
     1
 90
       50
176
     1
 62
   256
176
     0
 40
1.0
176
     0
 90
        2
176
     1
  1
strokes_ogs.tif
176
     1
290
     0
176
     1
 40
1.0
176
     1
 40
1.0
176
     1
1001
ACAD
1000
AcDbSavedByObjectVersion
1070
     0
  0
VISUALSTYLE
  5
2E
102
{ACAD_REACTORS
330
29
102
}
330
29
100
AcDbVisualStyle
  2
Basic
 70
     7
177
     3
291
     1
 70
    58
 90
        1
176
     1
 90
        0
176
     1
 90
        1
176
     1
 90
        0
176
     1
 40
0.6
176
     1
 40
30.0
176
     1
 62
     7
420
 16777215
176
     1
 90
        0
176
     1
 90
        4
176
     1
 62
     7
176
     1
 62
   257
176
     1
 90
        1
176
     1
 90
        1
176
     1
 40
1.0
176
     1
 90
        8
176
     1
 62
     7
176
     1
 40
1.0
176
     1
 90
        1
176
     1
 90
        6
176
     1
 90
        2
176
     1
 62
     7
176
     1
 90
        5
176
     1
 90
        0
176
     1
 90
        0
176
     1
290
     0
176
     1
 90
        1
176
     1
 40
0.0
176
     1
 90
        0
176
     1
290
     0
176
     1
290
     1
176
     1
290
     1
176
     1
290
     0
176
     1
290
     0
176
     1
290
     0
176
     1
290
     0
176
     1
290
     0
176
     1
290
     0
176
     1
 90
       50
176
     1
 40
0.0
176
     1
 40
1.0
176
     1
 90
        0
176
     1
 62
    18
420
        0
176
     1
 90
       50
176
     1
 90
        3
176
     1
 62
     5
420
      255
176
     1
290
     0
176
     1
 90
       50
176
     1
 90
       50
176
     1
 90
       50
176
     1
290
     0
176
     1
 90
       50
176
     1
 62
   256
176
     0
 40
1.0
176
     0
 90
        2
176
     1
  1
strokes_ogs.tif
176
     1
290
     0
176
     1
 40
1.0
176
     1
 40
1.0
176
     1
1001
ACAD
1000
AcDbSavedByObjectVersion
1070
     0
  0
VISUALSTYLE
  5
35
102
{ACAD_REACTORS
330
29
102
}
330
29
100
AcDbVisualStyle
  2
Brighten
 70
    12
177
     3
291
     1
 70
    58
 90
        2
176
     1
 90
        2
176
     1
 90
        0
176
     1
 90
        0
176
     1
 40
0.6
176
     1
 40
30.0
176
     1
 62
     7
420
 16777215
176
     1
 90
        1
176
     1
 90
        4
176
     1
 62
     7
176
     1
 62
   257
176
     1
 90
        1
176
     1
 90
        1
176
     1
 40
1.0
176
     1
 90
        8
176
     1
 62
     7
176
     1
 40
1.0
176
     1
 90
        1
176
     1
 90
        6
176
     1
 90
        2
176
     1
 62
     7
176
     1
 90
        5
176
     1
 90
        0
176
     1
 90
        0
176
     1
290
     0
176
     1
 90
        1
176
     1
 40
50.0
176
     1
 90
        0
176
     1
290
     0
176
     1
290
     1
176
     1
290
     1
176
     1
290
     0
176
     1
290
     0
176
     1
290
     0
176
     1
290
     0
176
     1
290
     0
176
     1
290
     0
176
     1
 90
       50
176
     1
 40
0.0
176
     1
 40
1.0
176
     1
 90
        0
176
     1
 62
    18
420
        0
176
     1
 90
       50
176
     1
 90
        3
176
     1
 62
     5
420
      255
176
     1
290
     0
176
     1
 90
       50
176
     1
 90
       50
176
     1
 90
       50
176
     1
290
     0
176
     1
 90
       50
176
     1
 62
   256
176
     0
 40
1.0
176
     0
 90
        2
176
     1
  1
strokes_ogs.tif
176
     1
290
     0
176
     1
 40
1.0
176
     1
 40
1.0
176
     1
1001
ACAD
1000
AcDbSavedByObjectVersion
1070
     0
  0
VISUALSTYLE
  5
39
102
{ACAD_REACTORS
330
29
102
}
330
29
100
AcDbVisualStyle
  2
ColorChange
 70
    16
177
     3
291
     1
 70
    58
 90
        2
176
     1
 90
        2
176
     1
 90
        3
176
     1
 90
        0
176
     1
 40
0.6
176
     1
 40
30.0
176
     1
 62
     8
420
  8421504
176
     1
 90
        1
176
     1
 90
        4
176
     1
 62
     7
176
     1
 62
   257
176
     1
 90
        1
176
     1
 90
        1
176
     1
 40
1.0
176
     1
 90
        8
176
     1
 62
     8
420
  8421504
176
     1
 40
1.0
176
     1
 90
        1
176
     1
 90
        6
176
     1
 90
        2
176
     1
 62
     7
176
     1
 90
        5
176
     1
 90
        0
176
     1
 90
        0
176
     1
290
     0
176
     1
 90
        1
176
     1
 40
0.0
176
     1
 90
        0
176
     1
290
     0
176
     1
290
     1
176
     1
290
     1
176
     1
290
     0
176
     1
290
     0
176
     1
290
     0
176
     1
290
     0
176
     1
290
     0
176
     1
290
     0
176
     1
 90
       50
176
     1
 40
0.0
176
     1
 40
1.0
176
     1
 90
        0
176
     1
 62
    18
420
        0
176
     1
 90
       50
176
     1
 90
        3
176
     1
 62
     5
420
      255
176
     1
290
     0
176
     1
 90
       50
176
     1
 90
       50
176
     1
 90
       50
176
     1
290
     0
176
     1
 90
       50
176
     1
 62
   256
176
     0
 40
1.0
176
     0
 90
        2
176
     1
  1
strokes_ogs.tif
176
     1
290
     0
176
     1
 40
1.0
176
     1
 40
1.0
176
     1
1001
ACAD
1000
AcDbSavedByObjectVersion
1070
     0
  0
VISUALSTYLE
  5
32
102
{ACAD_REACTORS
330
29
102
}
330
29
100
AcDbVisualStyle
  2
Conceptual
 70
     9
177
     3
291
     0
 70
    58
 90
        3
176
     1
 90
        2
176
     1
 90
        0
176
     1
 90
        0
176
     1
 40
0.6
176
     1
 40
30.0
176
     1
 62
     7
420
 16777215
176
     1
 90
        2
176
     1
 90
        2
176
     1
 62
     7
176
     1
 62
   257
176
     1
 90
        1
176
     1
 90
        1
176
     1
 40
179.0
176
     1
 90
        8
176
     1
 62
     7
176
     1
 40
1.0
176
     1
 90
        1
176
     1
 90
        6
176
     1
 90
        2
176
     1
 62
     7
176
     1
 90
        3
176
     1
 90
        0
176
     1
 90
        0
176
     1
290
     0
176
     1
 90
        1
176
     1
 40
0.0
176
     1
 90
        0
176
     1
290
     0
176
     1
290
     1
176
     1
290
     1
176
     1
290
     0
176
     1
290
     0
176
     1
290
     0
176
     1
290
     0
176
     1
290
     0
176
     1
290
     0
176
     1
 90
       50
176
     1
 40
0.0
176
     1
 40
1.0
176
     1
 90
        0
176
     1
 62
    18
420
        0
176
     1
 90
       50
176
     1
 90
        3
176
     1
 62
     5
420
      255
176
     1
290
     0
176
     1
 90
       50
176
     1
 90
       50
176
     1
 90
       50
176
     1
290
     0
176
     1
 90
       50
176
     1
 62
   256
176
     0
 40
1.0
176
     0
 90
        2
176
     1
  1
strokes_ogs.tif
176
     1
290
     0
176
     1
 40
1.0
176
     1
 40
1.0
176
     1
1001
ACAD
1000
AcDbSavedByObjectVersion
1070
     0
  0
VISUALSTYLE
  5
34
102
{ACAD_REACTORS
330
29
102
}
330
29
100
AcDbVisualStyle
  2
Dim
 70
    11
177
     3
291
     1
 70
    58
 90
        2
176
     1
 90
        2
176
     1
 90
        0
176
     1
 90
        0
176
     1
 40
0.6
176
     1
 40
30.0
176
     1
 62
     7
420
 16777215
176
     1
 90
        1
176
     1
 90
        4
176
     1
 62
     7
176
     1
 62
   257
176
     1
 90
        1
176
     1
 90
        1
176
     1
 40
1.0
176
     1
 90
        8
176
     1
 62
     7
176
     1
 40
1.0
176
     1
 90
        1
176
     1
 90
        6
176
     1
 90
        2
176
     1
 62
     7
176
     1
 90
        5
176
     1
 90
        0
176
     1
 90
        0
176
     1
290
     0
176
     1
 90
        1
176
     1
 40
-50.0
176
     1
 90
        0
176
     1
290
     0
176
     1
290
     1
176
     1
290
     1
176
     1
290
     0
176
     1
290
     0
176
     1
290
     0
176
     1
290
     0
176
     1
290
     0
176
     1
290
     0
176
     1
 90
       50
176
     1
 40
0.0
176
     1
 40
1.0
176
     1
 90
        0
176
     1
 62
    18
420
        0
176
     1
 90
       50
176
     1
 90
        3
176
     1
 62
     5
420
      255
176
     1
290
     0
176
     1
 90
       50
176
     1
 90
       50
176
     1
 90
       50
176
     1
290
     0
176
     1
 90
       50
176
     1
 62
   256
176
     0
 40
1.0
176
     0
 90
        2
176
     1
  1
strokes_ogs.tif
176
     1
290
     0
176
     1
 40
1.0
176
     1
 40
1.0
176
     1
1001
ACAD
1000
AcDbSavedByObjectVersion
1070
     0
  0
VISUALSTYLE
  5
41
102
{ACAD_REACTORS
330
29
102
}
330
29
100
AcDbVisualStyle
  2
EdgeColorOff
 70
    22
177
     3
291
     1
 70
    58
 90
        2
176
     0
 90
        2
176
     0
 90
        0
176
     0
 90
        0
176
     0
 40
0.6
176
     0
 40
30.0
176
     0
 62
     7
420
 16777215
176
     0
 90
        1
176
     0
 90
        4
176
     0
 62
     7
176
     0
 62
   257
176
     0
 90
        1
176
     0
 90
        1
176
     0
 40
1.0
176
     0
 90
        8
176
     2
 62
     7
176
     0
 40
1.0
176
     0
 90
        1
176
     0
 90
        6
176
     0
 90
        2
176
     0
 62
     7
176
     0
 90
        5
176
     0
 90
        0
176
     0
 90
        0
176
     0
290
     0
176
     0
 90
        1
176
     0
 40
0.0
176
     0
 90
        0
176
     0
290
     0
176
     1
290
     1
176
     1
290
     1
176
     1
290
     0
176
     1
290
     0
176
     1
290
     0
176
     1
290
     0
176
     1
290
     0
176
     1
290
     0
176
     1
 90
       50
176
     0
 40
0.0
176
     0
 40
1.0
176
     0
 90
        0
176
     0
 62
    18
420
        0
176
     0
 90
       50
176
     0
 90
        3
176
     0
 62
     5
420
      255
176
     0
290
     0
176
     1
 90
       50
176
     0
 90
       50
176
     0
 90
       50
176
     0
290
     0
176
     1
 90
       50
176
     0
 62
   256
176
     0
 40
1.0
176
     0
 90
        2
176
     0
  1
strokes_ogs.tif
176
     0
290
     0
176
     1
 40
1.0
176
     0
 40
1.0
176
     0
1001
ACAD
1000
AcDbSavedByObjectVersion
1070
     0
  0
VISUALSTYLE
  5
38
102
{ACAD_REACTORS
330
29
102
}
330
29
100
AcDbVisualStyle
  2
Facepattern
 70
    15
177
     3
291
     1
 70
    58
 90
        2
176
     1
 90
        2
176
     1
 90
        0
176
     1
 90
        0
176
     1
 40
0.6
176
     1
 40
30.0
176
     1
 62
     7
420
 16777215
176
     1
 90
        1
176
     1
 90
        4
176
     1
 62
     7
176
     1
 62
   257
176
     1
 90
        1
176
     1
 90
        1
176
     1
 40
1.0
176
     1
 90
        8
176
     1
 62
     7
176
     1
 40
1.0
176
     1
 90
        1
176
     1
 90
        6
176
     1
 90
        2
176
     1
 62
     7
176
     1
 90
        5
176
     1
 90
        0
176
     1
 90
        0
176
     1
290
     0
176
     1
 90
        1
176
     1
 40
0.0
176
     1
 90
        0
176
     1
290
     0
176
     1
290
     1
176
     1
290
     1
176
     1
290
     0
176
     1
290
     0
176
     1
290
     0
176
     1
290
     0
176
     1
290
     0
176
     1
290
     0
176
     1
 90
       50
176
     1
 40
0.0
176
     1
 40
1.0
176
     1
 90
        0
176
     1
 62
    18
420
        0
176
     1
 90
       50
176
     1
 90
        3
176
     1
 62
     5
420
      255
176
     1
290
     0
176
     1
 90
       50
176
     1
 90
       50
176
     1
 90
       50
176
     1
290
     0
176
     1
 90
       50
176
     1
 62
   256
176
     0
 40
1.0
176
     0
 90
        2
176
     1
  1
strokes_ogs.tif
176
     1
290
     0
176
     1
 40
1.0
176
     1
 40
1.0
176
     1
1001
ACAD
1000
AcDbSavedByObjectVersion
1070
     0
  0
VISUALSTYLE
  5
2A
102
{ACAD_REACTORS
330
29
102
}
330
29
100
AcDbVisualStyle
  2
Flat
 70
     0
177
     3
291
     1
 70
    58
 90
        2
176
     1
 90
        1
176
     1
 90
        1
176
     1
 90
        2
176
     1
 40
0.6
176
     1
 40
30.0
176
     1
 62
     7
420
 16777215
176
     1
 90
        0
176
     1
 90
        0
176
     1
 62
     7
176
     1
 62
   257
176
     1
 90
        1
176
     1
 90
        1
176
     1
 40
1.0
176
     1
 90
        8
176
     1
 62
     7
176
     1
 40
1.0
176
     1
 90
        1
176
     1
 90
        6
176
     1
 90
        2
176
     1
 62
     7
176
     1
 90
        5
176
     1
 90
        0
176
     1
 90
        0
176
     1
290
     0
176
     1
 90
       13
176
     1
 40
0.0
176
     1
 90
        0
176
     1
290
     0
176
     1
290
     1
176
     1
290
     1
176
     1
290
     0
176
     1
290
     0
176
     1
290
     0
176
     1
290
     0
176
     1
290
     0
176
     1
290
     0
176
     1
 90
       50
176
     1
 40
0.0
176
     1
 40
1.0
176
     1
 90
        0
176
     1
 62
    18
420
        0
176
     1
 90
       50
176
     1
 90
        3
176
     1
 62
     5
420
      255
176
     1
290
     0
176
     1
 90
       50
176
     1
 90
       50
176
     1
 90
       50
176
     1
290
     0
176
     1
 90
       50
176
     1
 62
   256
176
     0
 40
1.0
176
     0
 90
        2
176
     1
  1
strokes_ogs.tif
176
     1
290
     0
176
     1
 40
1.0
176
     1
 40
1.0
176
     1
1001
ACAD
1000
AcDbSavedByObjectVersion
1070
     0
  0
VISUALSTYLE
  5
2B
102
{ACAD_REACTORS
330
29
102
}
330
29
100
AcDbVisualStyle
  2
FlatWithEdges
 70
     1
177
     3
291
     1
 70
    58
 90
        2
176
     1
 90
        1
176
     1
 90
        1
176
     1
 90
        2
176
     1
 40
0.6
176
     1
 40
30.0
176
     1
 62
     7
420
 16777215
176
     1
 90
        1
176
     1
 90
        0
176
     1
 62
     7
176
     1
 62
   257
176
     1
 90
        1
176
     1
 90
        1
176
     1
 40
1.0
176
     1
 90
        0
176
     1
 62
   257
176
     1
 40
1.0
176
     1
 90
        1
176
     1
 90
        6
176
     1
 90
        2
176
     1
 62
     7
176
     1
 90
        5
176
     1
 90
        0
176
     1
 90
        0
176
     1
290
     0
176
     1
 90
       13
176
     1
 40
0.0
176
     1
 90
        0
176
     1
290
     0
176
     1
290
     1
176
     1
290
     1
176
     1
290
     0
176
     1
290
     0
176
     1
290
     0
176
     1
290
     0
176
     1
290
     0
176
     1
290
     0
176
     1
 90
       50
176
     1
 40
0.0
176
     1
 40
1.0
176
     1
 90
        0
176
     1
 62
    18
420
        0
176
     1
 90
       50
176
     1
 90
        3
176
     1
 62
     5
420
      255
176
     1
290
     0
176
     1
 90
       50
176
     1
 90
       50
176
     1
 90
       50
176
     1
290
     0
176
     1
 90
       50
176
     1
 62
   256
176
     0
 40
1.0
176
     0
 90
        2
176
     1
  1
strokes_ogs.tif
176
     1
290
     0
176
     1
 40
1.0
176
     1
 40
1.0
176
     1
1001
ACAD
1000
AcDbSavedByObjectVersion
1070
     0
  0
VISUALSTYLE
  5
2C
102
{ACAD_REACTORS
330
29
102
}
330
29
100
AcDbVisualStyle
  2
Gouraud
 70
     2
177
     3
291
     1
 70
    58
 90
        2
176
     1
 90
        2
176
     1
 90
        1
176
     1
 90
        2
176
     1
 40
0.6
176
     1
 40
30.0
176
     1
 62
     7
420
 16777215
176
     1
 90
        0
176
     1
 90
        0
176
     1
 62
     7
176
     1
 62
   257
176
     1
 90
        1
176
     1
 90
        1
176
     1
 40
1.0
176
     1
 90
        0
176
     1
 62
     7
176
     1
 40
1.0
176
     1
 90
        1
176
     1
 90
        6
176
     1
 90
        2
176
     1
 62
     7
176
     1
 90
        5
176
     1
 90
        0
176
     1
 90
        0
176
     1
290
     0
176
     1
 90
       13
176
     1
 40
0.0
176
     1
 90
        0
176
     1
290
     0
176
     1
290
     1
176
     1
290
     1
176
     1
290
     0
176
     1
290
     0
176
     1
290
     0
176
     1
290
     0
176
     1
290
     0
176
     1
290
     0
176
     1
 90
       50
176
     1
 40
0.0
176
     1
 40
1.0
176
     1
 90
        0
176
     1
 62
    18
420
        0
176
     1
 90
       50
176
     1
 90
        3
176
     1
 62
     5
420
      255
176
     1
290
     0
176
     1
 90
       50
176
     1
 90
       50
176
     1
 90
       50
176
     1
290
     0
176
     1
 90
       50
176
     1
 62
   256
176
     0
 40
1.0
176
     0
 90
        2
176
     1
  1
strokes_ogs.tif
176
     1
290
     0
176
     1
 40
1.0
176
     1
 40
1.0
176
     1
1001
ACAD
1000
AcDbSavedByObjectVersion
1070
     0
  0
VISUALSTYLE
  5
2D
102
{ACAD_REACTORS
330
29
102
}
330
29
100
AcDbVisualStyle
  2
GouraudWithEdges
 70
     3
177
     3
291
     1
 70
    58
 90
        2
176
     1
 90
        2
176
     1
 90
        1
176
     1
 90
        2
176
     1
 40
0.6
176
     1
 40
30.0
176
     1
 62
     7
420
 16777215
176
     1
 90
        1
176
     1
 90
        0
176
     1
 62
     7
176
     1
 62
   257
176
     1
 90
        1
176
     1
 90
        1
176
     1
 40
1.0
176
     1
 90
        0
176
     1
 62
   257
176
     1
 40
1.0
176
     1
 90
        1
176
     1
 90
        6
176
     1
 90
        2
176
     1
 62
     7
176
     1
 90
        5
176
     1
 90
        0
176
     1
 90
        0
176
     1
290
     0
176
     1
 90
       13
176
     1
 40
0.0
176
     1
 90
        0
176
     1
290
     0
176
     1
290
     1
176
     1
290
     1
176
     1
290
     0
176
     1
290
     0
176
     1
290
     0
176
     1
290
     0
176
     1
290
     0
176
     1
290
     0
176
     1
 90
       50
176
     1
 40
0.0
176
     1
 40
1.0
176
     1
 90
        0
176
     1
 62
    18
420
        0
176
     1
 90
       50
176
     1
 90
        3
176
     1
 62
     5
420
      255
176
     1
290
     0
176
     1
 90
       50
176
     1
 90
       50
176
     1
 90
       50
176
     1
290
     0
176
     1
 90
       50
176
     1
 62
   256
176
     0
 40
1.0
176
     0
 90
        2
176
     1
  1
strokes_ogs.tif
176
     1
290
     0
176
     1
 40
1.0
176
     1
 40
1.0
176
     1
1001
ACAD
1000
AcDbSavedByObjectVersion
1070
     0
  0
VISUALSTYLE
  5
31
102
{ACAD_REACTORS
330
29
102
}
330
29
100
AcDbVisualStyle
  2
Hidden
 70
     6
177
     3
291
     0
 70
    58
 90
        1
176
     1
 90
        2
176
     1
 90
        2
176
     1
 90
        0
176
     1
 40
0.6
176
     1
 40
30.0
176
     1
 62
     7
420
 16777215
176
     1
 90
        2
176
     1
 90
        2
176
     1
 62
     7
176
     1
 62
   257
176
     1
 90
        2
176
     1
 90
        1
176
     1
 40
40.0
176
     1
 90
        0
176
     1
 62
   257
176
     1
 40
1.0
176
     1
 90
        1
176
     1
 90
        6
176
     1
 90
        2
176
     1
 62
     7
176
     1
 90
        3
176
     1
 90
        0
176
     1
 90
        0
176
     1
290
     0
176
     1
 90
        1
176
     1
 40
0.0
176
     1
 90
        0
176
     1
290
     0
176
     1
290
     1
176
     1
290
     1
176
     1
290
     0
176
     1
290
     0
176
     1
290
     0
176
     1
290
     0
176
     1
290
     0
176
     1
290
     0
176
     1
 90
       50
176
     1
 40
0.0
176
     1
 40
1.0
176
     1
 90
        0
176
     1
 62
    18
420
        0
176
     1
 90
       50
176
     1
 90
        3
176
     1
 62
     5
420
      255
176
     1
290
     0
176
     1
 90
       50
176
     1
 90
       50
176
     1
 90
       50
176
     1
290
     0
176
     1
 90
       50
176
     1
 62
   256
176
     0
 40
1.0
176
     0
 90
        2
176
     1
  1
strokes_ogs.tif
176
     1
290
     0
176
     1
 40
1.0
176
     1
 40
1.0
176
     1
1001
ACAD
1000
AcDbSavedByObjectVersion
1070
     0
  0
VISUALSTYLE
  5
3F
102
{ACAD_REACTORS
330
29
102
}
330
29
100
AcDbVisualStyle
  2
JitterOff
 70
    20
177
     3
291
     1
 70
    58
 90
        2
176
     0
 90
        2
176
     0
 90
        0
176
     0
 90
        0
176
     0
 40
0.6
176
     0
 40
30.0
176
     0
 62
     7
420
 16777215
176
     0
 90
        1
176
     0
 90
        4
176
     0
 62
     7
176
     0
 62
   257
176
     0
 90
        1
176
     0
 90
        1
176
     0
 40
1.0
176
     0
 90
       10
176
     2
 62
     7
176
     0
 40
1.0
176
     0
 90
        1
176
     0
 90
        6
176
     0
 90
        2
176
     0
 62
     7
176
     0
 90
        5
176
     0
 90
        0
176
     0
 90
        0
176
     0
290
     0
176
     0
 90
        1
176
     0
 40
0.0
176
     0
 90
        0
176
     0
290
     0
176
     1
290
     1
176
     1
290
     1
176
     1
290
     0
176
     1
290
     0
176
     1
290
     0
176
     1
290
     0
176
     1
290
     0
176
     1
290
     0
176
     1
 90
       50
176
     0
 40
0.0
176
     0
 40
1.0
176
     0
 90
        0
176
     0
 62
    18
420
        0
176
     0
 90
       50
176
     0
 90
        3
176
     0
 62
     5
420
      255
176
     0
290
     0
176
     1
 90
       50
176
     0
 90
       50
176
     0
 90
       50
176
     0
290
     0
176
     1
 90
       50
176
     0
 62
   256
176
     0
 40
1.0
176
     0
 90
        2
176
     0
  1
strokes_ogs.tif
176
     0
290
     0
176
     1
 40
1.0
176
     0
 40
1.0
176
     0
1001
ACAD
1000
AcDbSavedByObjectVersion
1070
     0
  0
VISUALSTYLE
  5
37
102
{ACAD_REACTORS
330
29
102
}
330
29
100
AcDbVisualStyle
  2
Linepattern
 70
    14
177
     3
291
     1
 70
    58
 90
        2
176
     1
 90
        2
176
     1
 90
        0
176
     1
 90
        0
176
     1
 40
0.6
176
     1
 40
30.0
176
     1
 62
     7
420
 16777215
176
     1
 90
        1
176
     1
 90
        4
176
     1
 62
     7
176
     1
 62
   257
176
     1
 90
        7
176
     1
 90
        7
176
     1
 40
1.0
176
     1
 90
        8
176
     1
 62
     7
176
     1
 40
1.0
176
     1
 90
        1
176
     1
 90
        6
176
     1
 90
        2
176
     1
 62
     7
176
     1
 90
        5
176
     1
 90
        0
176
     1
 90
        0
176
     1
290
     0
176
     1
 90
        1
176
     1
 40
0.0
176
     1
 90
        0
176
     1
290
     0
176
     1
290
     1
176
     1
290
     1
176
     1
290
     0
176
     1
290
     0
176
     1
290
     0
176
     1
290
     0
176
     1
290
     0
176
     1
290
     0
176
     1
 90
       50
176
     1
 40
0.0
176
     1
 40
1.0
176
     1
 90
        0
176
     1
 62
    18
420
        0
176
     1
 90
       50
176
     1
 90
        3
176
     1
 62
     5
420
      255
176
     1
290
     0
176
     1
 90
       50
176
     1
 90
       50
176
     1
 90
       50
176
     1
290
     0
176
     1
 90
       50
176
     1
 62
   256
176
     0
 40
1.0
176
     0
 90
        2
176
     1
  1
strokes_ogs.tif
176
     1
290
     0
176
     1
 40
1.0
176
     1
 40
1.0
176
     1
1001
ACAD
1000
AcDbSavedByObjectVersion
1070
     0
  0
VISUALSTYLE
  5
40
102
{ACAD_REACTORS
330
29
102
}
330
29
100
AcDbVisualStyle
  2
OverhangOff
 70
    21
177
     3
291
     1
 70
    58
 90
        2
176
     0
 90
        2
176
     0
 90
        0
176
     0
 90
        0
176
     0
 40
0.6
176
     0
 40
30.0
176
     0
 62
     7
420
 16777215
176
     0
 90
        1
176
     0
 90
        4
176
     0
 62
     7
176
     0
 62
   257
176
     0
 90
        1
176
     0
 90
        1
176
     0
 40
1.0
176
     0
 90
        9
176
     2
 62
     7
176
     0
 40
1.0
176
     0
 90
        1
176
     0
 90
        6
176
     0
 90
        2
176
     0
 62
     7
176
     0
 90
        5
176
     0
 90
        0
176
     0
 90
        0
176
     0
290
     0
176
     0
 90
        1
176
     0
 40
0.0
176
     0
 90
        0
176
     0
290
     0
176
     1
290
     1
176
     1
290
     1
176
     1
290
     0
176
     1
290
     0
176
     1
290
     0
176
     1
290
     0
176
     1
290
     0
176
     1
290
     0
176
     1
 90
       50
176
     0
 40
0.0
176
     0
 40
1.0
176
     0
 90
        0
176
     0
 62
    18
420
        0
176
     0
 90
       50
176
     0
 90
        3
176
     0
 62
     5
420
      255
176
     0
290
     0
176
     1
 90
       50
176
     0
 90
       50
176
     0
 90
       50
176
     0
290
     0
176
     1
 90
       50
176
     0
 62
   256
176
     0
 40
1.0
176
     0
 90
        2
176
     0
  1
strokes_ogs.tif
176
     0
290
     0
176
     1
 40
1.0
176
     0
 40
1.0
176
     0
1001
ACAD
1000
AcDbSavedByObjectVersion
1070
     0
  0
VISUALSTYLE
  5
33
102
{ACAD_REACTORS
330
29
102
}
330
29
100
AcDbVisualStyle
  2
Realistic
 70
     8
177
     3
291
     0
 70
    58
 90
        2
176
     1
 90
        3
176
     1
 90
        0
176
     1
 90
        2
176
     1
 40
0.6
176
     1
 40
30.0
176
     1
 62
     7
420
 16777215
176
     1
 90
        0
176
     1
 90
        0
176
     1
 62
     7
176
     1
 62
   257
176
     1
 90
        1
176
     1
 90
        1
176
     1
 40
1.0
176
     1
 90
        8
176
     1
 62
   257
176
     1
 40
1.0
176
     1
 90
        1
176
     1
 90
        6
176
     1
 90
        2
176
     1
 62
     7
176
     1
 90
        3
176
     1
 90
        0
176
     1
 90
        0
176
     1
290
     0
176
     1
 90
       13
176
     1
 40
0.0
176
     1
 90
        0
176
     1
290
     0
176
     1
290
     1
176
     1
290
     1
176
     1
290
     0
176
     1
290
     0
176
     1
290
     0
176
     1
290
     0
176
     1
290
     0
176
     1
290
     0
176
     1
 90
       50
176
     1
 40
0.0
176
     1
 40
1.0
176
     1
 90
        0
176
     1
 62
    18
420
        0
176
     1
 90
       50
176
     1
 90
        3
176
     1
 62
     5
420
      255
176
     1
290
     0
176
     1
 90
       50
176
     1
 90
       50
176
     1
 90
       50
176
     1
290
     0
176
     1
 90
       50
176
     1
 62
   256
176
     0
 40
1.0
176
     0
 90
        2
176
     1
  1
strokes_ogs.tif
176
     1
290
     0
176
     1
 40
1.0
176
     1
 40
1.0
176
     1
1001
ACAD
1000
AcDbSavedByObjectVersion
1070
     0
  0
VISUALSTYLE
  5
3E
102
{ACAD_REACTORS
330
29
102
}
330
29
100
AcDbVisualStyle
  2
Shaded
 70
    27
177
     3
291
     0
 70
    58
 90
        2
176
     1
 90
        2
176
     1
 90
        1
176
     1
 90
        2
176
     1
 40
0.6
176
     1
 40
30.0
176
     1
 62
     7
420
 16777215
176
     1
 90
        0
176
     1
 90
        4
176
     1
 62
     7
176
     1
 62
   257
176
     1
 90
        1
176
     1
 90
        1
176
     1
 40
1.0
176
     1
 90
        8
176
     1
 62
   257
176
     1
 40
1.0
176
     1
 90
        1
176
     1
 90
        6
176
     1
 90
        2
176
     1
 62
     8
420
  7895160
176
     1
 90
        3
176
     1
 90
        0
176
     1
 90
        0
176
     1
290
     0
176
     1
 90
        5
176
     1
 40
0.0
176
     1
 90
        0
176
     1
290
     0
176
     1
290
     1
176
     1
290
     1
176
     1
290
     0
176
     1
290
     0
176
     1
290
     0
176
     1
290
     0
176
     1
290
     0
176
     1
290
     0
176
     1
 90
       50
176
     1
 40
0.0
176
     1
 40
1.0
176
     1
 90
        0
176
     1
 62
    18
420
        0
176
     1
 90
       50
176
     1
 90
        3
176
     1
 62
     5
420
      255
176
     1
290
     0
176
     1
 90
       50
176
     1
 90
       50
176
     1
 90
       50
176
     1
290
     0
176
     1
 90
       50
176
     1
 62
   256
176
     0
 40
1.0
176
     0
 90
        2
176
     1
  1
strokes_ogs.tif
176
     1
290
     0
176
     1
 40
1.0
176
     1
 40
1.0
176
     1
1001
ACAD
1000
AcDbSavedByObjectVersion
1070
     0
  0
VISUALSTYLE
  5
3D
102
{ACAD_REACTORS
330
29
102
}
330
29
100
AcDbVisualStyle
  2
Shaded with edges
 70
    26
177
     3
291
     0
 70
    58
 90
        2
176
     1
 90
        2
176
     1
 90
        1
176
     1
 90
        2
176
     1
 40
0.6
176
     1
 40
30.0
176
     1
 62
     7
420
 16777215
176
     1
 90
        1
176
     1
 90
        2
176
     1
 62
     7
176
     1
 62
   257
176
     1
 90
        2
176
     1
 90
        1
176
     1
 40
1.0
176
     1
 90
        8
176
     1
 62
   257
176
     1
 40
1.0
176
     1
 90
        1
176
     1
 90
        6
176
     1
 90
        2
176
     1
 62
     7
176
     1
 90
        3
176
     1
 90
        0
176
     1
 90
        0
176
     1
290
     0
176
     1
 90
        5
176
     1
 40
0.0
176
     1
 90
        0
176
     1
290
     0
176
     1
290
     1
176
     1
290
     1
176
     1
290
     0
176
     1
290
     0
176
     1
290
     0
176
     1
290
     0
176
     1
290
     0
176
     1
290
     0
176
     1
 90
       50
176
     1
 40
0.0
176
     1
 40
1.0
176
     1
 90
        0
176
     1
 62
    18
420
        0
176
     1
 90
       50
176
     1
 90
        3
176
     1
 62
     5
420
      255
176
     1
290
     0
176
     1
 90
       50
176
     1
 90
       50
176
     1
 90
       50
176
     1
290
     0
176
     1
 90
       50
176
     1
 62
   256
176
     0
 40
1.0
176
     0
 90
        2
176
     1
  1
strokes_ogs.tif
176
     1
290
     0
176
     1
 40
1.0
176
     1
 40
1.0
176
     1
1001
ACAD
1000
AcDbSavedByObjectVersion
1070
     0
  0
VISUALSTYLE
  5
3A
102
{ACAD_REACTORS
330
29
102
}
330
29
100
AcDbVisualStyle
  2
Shades of Gray
 70
    23
177
     3
291
     0
 70
    58
 90
        2
176
     1
 90
        2
176
     1
 90
        3
176
     1
 90
        0
176
     1
 40
0.6
176
     1
 40
30.0
176
     1
 62
     7
420
 16777215
176
     1
 90
        2
176
     1
 90
        2
176
     1
 62
     7
176
     1
 62
     7
176
     1
 90
        1
176
     1
 90
        1
176
     1
 40
40.0
176
     1
 90
        8
176
     1
 62
     7
176
     1
 40
1.0
176
     1
 90
        1
176
     1
 90
        6
176
     1
 90
        2
176
     1
 62
     7
176
     1
 90
        3
176
     1
 90
        0
176
     1
 90
        0
176
     1
290
     0
176
     1
 90
        1
176
     1
 40
0.0
176
     1
 90
        0
176
     1
290
     0
176
     1
290
     1
176
     1
290
     1
176
     1
290
     0
176
     1
290
     0
176
     1
290
     0
176
     1
290
     0
176
     1
290
     0
176
     1
290
     0
176
     1
 90
       50
176
     1
 40
0.0
176
     1
 40
1.0
176
     1
 90
        0
176
     1
 62
    18
420
        0
176
     1
 90
       50
176
     1
 90
        3
176
     1
 62
     5
420
      255
176
     1
290
     0
176
     1
 90
       50
176
     1
 90
       50
176
     1
 90
       50
176
     1
290
     0
176
     1
 90
       50
176
     1
 62
   256
176
     0
 40
1.0
176
     0
 90
        2
176
     1
  1
strokes_ogs.tif
176
     1
290
     0
176
     1
 40
1.0
176
     1
 40
1.0
176
     1
1001
ACAD
1000
AcDbSavedByObjectVersion
1070
     0
  0
VISUALSTYLE
  5
3B
102
{ACAD_REACTORS
330
29
102
}
330
29
100
AcDbVisualStyle
  2
Sketchy
 70
    24
177
     3
291
     0
 70
    58
 90
        1
176
     1
 90
        2
176
     1
 90
        2
176
     1
 90
        0
176
     1
 40
0.6
176
     1
 40
30.0
176
     1
 62
     7
420
 16777215
176
     1
 90
        2
176
     1
 90
        2
176
     1
 62
     7
176
     1
 62
     7
176
     1
 90
        1
176
     1
 90
        1
176
     1
 40
40.0
176
     1
 90
       11
176
     1
 62
     7
176
     1
 40
1.0
176
     1
 90
        1
176
     1
 90
        6
176
     1
 90
        2
176
     1
 62
     7
176
     1
 90
        6
176
     1
 90
        0
176
     1
 90
        0
176
     1
290
     0
176
     1
 90
        1
176
     1
 40
0.0
176
     1
 90
        0
176
     1
290
     0
176
     1
290
     1
176
     1
290
     1
176
     1
290
     0
176
     1
290
     0
176
     1
290
     0
176
     1
290
     0
176
     1
290
     0
176
     1
290
     0
176
     1
 90
       50
176
     1
 40
0.0
176
     1
 40
1.0
176
     1
 90
        0
176
     1
 62
    18
420
        0
176
     1
 90
       50
176
     1
 90
        3
176
     1
 62
     5
420
      255
176
     1
290
     0
176
     1
 90
       50
176
     1
 90
       50
176
     1
 90
       50
176
     1
290
     0
176
     1
 90
       50
176
     1
 62
   256
176
     0
 40
1.0
176
     0
 90
        2
176
     1
  1
strokes_ogs.tif
176
     1
290
     0
176
     1
 40
1.0
176
     1
 40
1.0
176
     1
1001
ACAD
1000
AcDbSavedByObjectVersion
1070
     0
  0
VISUALSTYLE
  5
36
102
{ACAD_REACTORS
330
29
102
}
330
29
100
AcDbVisualStyle
  2
Thicken
 70
    13
177
     3
291
     1
 70
    58
 90
        2
176
     1
 90
        2
176
     1
 90
        0
176
     1
 90
        0
176
     1
 40
0.6
176
     1
 40
30.0
176
     1
 62
     7
420
 16777215
176
     1
 90
        1
176
     1
 90
        4
176
     1
 62
     7
176
     1
 62
   257
176
     1
 90
        1
176
     1
 90
        1
176
     1
 40
1.0
176
     1
 90
       12
176
     1
 62
     7
176
     1
 40
1.0
176
     1
 90
        1
176
     1
 90
        6
176
     1
 90
        2
176
     1
 62
     7
176
     1
 90
        5
176
     1
 90
        0
176
     1
 90
        0
176
     1
290
     0
176
     1
 90
        1
176
     1
 40
0.0
176
     1
 90
        0
176
     1
290
     0
176
     1
290
     1
176
     1
290
     1
176
     1
290
     0
176
     1
290
     0
176
     1
290
     0
176
     1
290
     0
176
     1
290
     0
176
     1
290
     0
176
     1
 90
       50
176
     1
 40
0.0
176
     1
 40
1.0
176
     1
 90
        0
176
     1
 62
    18
420
        0
176
     1
 90
       50
176
     1
 90
        3
176
     1
 62
     5
420
      255
176
     1
290
     0
176
     1
 90
       50
176
     1
 90
       50
176
     1
 90
       50
176
     1
290
     0
176
     1
 90
       50
176
     1
 62
   256
176
     0
 40
1.0
176
     0
 90
        2
176
     1
  1
strokes_ogs.tif
176
     1
290
     0
176
     1
 40
1.0
176
     1
 40
1.0
176
     1
1001
ACAD
1000
AcDbSavedByObjectVersion
1070
     0
  0
VISUALSTYLE
  5
30
102
{ACAD_REACTORS
330
29
102
}
330
29
100
AcDbVisualStyle
  2
Wireframe
 70
     5
177
     3
291
     0
 70
    58
 90
        0
176
     1
 90
        2
176
     1
 90
        0
176
     1
 90
        0
176
     1
 40
0.6
176
     1
 40
30.0
176
     1
 62
     7
420
 16777215
176
     1
 90
        1
176
     1
 90
        4
176
     1
 62
     7
176
     1
 62
   257
176
     1
 90
        1
176
     1
 90
        1
176
     1
 40
1.0
176
     1
 90
        0
176
     1
 62
   257
176
     1
 40
1.0
176
     1
 90
        1
176
     1
 90
        6
176
     1
 90
        2
176
     1
 62
     7
176
     1
 90
        3
176
     1
 90
        0
176
     1
 90
        0
176
     1
290
     0
176
     1
 90
        1
176
     1
 40
0.0
176
     1
 90
        0
176
     1
290
     0
176
     1
290
     1
176
     1
290
     1
176
     1
290
     0
176
     1
290
     0
176
     1
290
     0
176
     1
290
     0
176
     1
290
     0
176
     1
290
     0
176
     1
 90
       50
176
     1
 40
0.0
176
     1
 40
1.0
176
     1
 90
        0
176
     1
 62
    18
420
        0
176
     1
 90
       50
176
     1
 90
        3
176
     1
 62
     5
420
      255
176
     1
290
     0
176
     1
 90
       50
176
     1
 90
       50
176
     1
 90
       50
176
     1
290
     0
176
     1
 90
       50
176
     1
 62
   256
176
     0
 40
1.0
176
     0
 90
        2
176
     1
  1
strokes_ogs.tif
176
     1
290
     0
176
     1
 40
1.0
176
     1
 40
1.0
176
     1
1001
ACAD
1000
AcDbSavedByObjectVersion
1070
     0
  0
VISUALSTYLE
  5
3C
102
{ACAD_REACTORS
330
29
102
}
330
29
100
AcDbVisualStyle
  2
X-Ray
 70
    25
177
     3
291
     0
 70
    58
 90
        2
176
     1
 90
        2
176
     1
 90
        1
176
     1
 90
        1
176
     1
 40
0.5
176
     1
 40
30.0
176
     1
 62
     7
420
 16777215
176
     1
 90
        1
176
     1
 90
        0
176
     1
 62
     7
176
     1
 62
   257
176
     1
 90
        1
176
     1
 90
        1
176
     1
 40
1.0
176
     1
 90
        8
176
     1
 62
     7
176
     1
 40
1.0
176
     1
 90
        1
176
     1
 90
        6
176
     1
 90
        2
176
     1
 62
     7
176
     1
 90
        3
176
     1
 90
        0
176
     1
 90
        0
176
     1
290
     0
176
     1
 90
       13
176
     1
 40
0.0
176
     1
 90
        0
176
     1
290
     0
176
     1
290
     1
176
     1
290
     1
176
     1
290
     0
176
     1
290
     0
176
     1
290
     0
176
     1
290
     0
176
     1
290
     0
176
     1
290
     0
176
     1
 90
       50
176
     1
 40
0.0
176
     1
 40
1.0
176
     1
 90
        0
176
     1
 62
    18
420
        0
176
     1
 90
       50
176
     1
 90
        3
176
     1
 62
     5
420
      255
176
     1
290
     0
176
     1
 90
       50
176
     1
 90
       50
176
     1
 90
       50
176
     1
290
     0
176
     1
 90
       50
176
     1
 62
   256
176
     0
 40
1.0
176
     0
 90
        2
176
     1
  1
strokes_ogs.tif
176
     1
290
     0
176
     1
 40
1.0
176
     1
 40
1.0
176
     1
1001
ACAD
1000
AcDbSavedByObjectVersion
1070
     0
  0
DICTIONARYVAR
  5
F58
102
{ACAD_REACTORS
330
F52
102
}
330
F52
100
DictionaryVariables
280
     0
  1
1:1
  0
DICTIONARYVAR
  5
F54
102
{ACAD_REACTORS
330
F52
102
}
330
F52
100
DictionaryVariables
280
     0
  1
STANDARD
  0
DICTIONARYVAR
  5
F53
102
{ACAD_REACTORS
330
F52
102
}
330
F52
100
DictionaryVariables
280
     0
  1
STANDARD
  0
DICTIONARYVAR
  5
F55
102
{ACAD_REACTORS
330
F52
102
}
330
F52
100
DictionaryVariables
280
     0
  1
Imperial24
  0
DICTIONARYVAR
  5
F56
102
{ACAD_REACTORS
330
F52
102
}
330
F52
100
DictionaryVariables
280
     0
  1
Imperial24
  0
DICTIONARYVAR
  5
F5A
102
{ACAD_REACTORS
330
F52
102
}
330
F52
100
DictionaryVariables
280
     0
  1
1
  0
DICTIONARYVAR
  5
F5B
102
{ACAD_REACTORS
330
F52
102
}
330
F52
100
DictionaryVariables
280
     0
  1
15
  0
DICTIONARYVAR
  5
F59
102
{ACAD_REACTORS
330
F52
102
}
330
F52
100
DictionaryVariables
280
     0
  1
0
  0
DICTIONARYVAR
  5
F57
102
{ACAD_REACTORS
330
F52
102
}
330
F52
100
DictionaryVariables
280
     0
  1
0
  0
DICTIONARY
  5
F66
102
{ACAD_REACTORS
330
F64
102
}
330
F64
100
AcDbDictionary
281
     1
  0
DICTIONARY
  5
F65
102
{ACAD_REACTORS
330
F64
102
}
330
F64
100
AcDbDictionary
281
     1
  3
2294823335408
350
F5F
  3
2294823335424
350
F60
  3
2294823335440
350
F61
  3
2294823335456
350
F62
  3
2294823335472
350
F63
  0
DICTIONARY
  5
F69
330
6A
100
AcDbDictionary
280
     1
281
     1
  3
ACAD_XREC_ROUNDTRIP
360
F6A
  0
DICTIONARY
  5
1A
330
19
100
AcDbDictionary
280
     1
281
     1
  3
BUMPTILE
360
1C
  3
DIFFUSETILE
360
1B
  3
OPACITYTILE
360
1F
  3
REFLECTIONTILE
360
1E
  3
REFRACTIONTILE
360
20
  3
SPECULARTILE
360
1D
  0
DICTIONARY
  5
12
330
11
100
AcDbDictionary
280
     1
281
     1
  3
BUMPTILE
360
14
  3
DIFFUSETILE
360
13
  3
OPACITYTILE
360
17
  3
REFLECTIONTILE
360
16
  3
REFRACTIONTILE
360
18
  3
SPECULARTILE
360
15
  0
DICTIONARY
  5
22
330
21
100
AcDbDictionary
280
     1
281
     1
  3
BUMPTILE
360
24
  3
DIFFUSETILE
360
23
  3
OPACITYTILE
360
27
  3
REFLECTIONTILE
360
26
  3
REFRACTIONTILE
360
28
  3
SPECULARTILE
360
25
  0
XRECORD
  5
F6E
102
{ACAD_REACTORS
330
F6C
102
}
330
F6C
100
AcDbXrecord
280
     1
102
ACAD_MENTALRAY_SETTING_RT
330
DE8
 70
     1
  0
XRECORD
  5
F6D
102
{ACAD_REACTORS
330
F6C
102
}
330
F6C
100
AcDbXrecord
280
     1
 70
     2
 71
     3
 72
     0
  0
DICTIONARY
  5
F67
330
68
100
AcDbDictionary
280
     1
281
     1
  3
ACAD_XREC_ROUNDTRIP
360
F68
  0
DICTIONARY
  5
F5C
330
64
100
AcDbDictionary
280
     1
281
     1
  3
ACAD_ROUNDTRIP_2008_TABLESTYLE_CELLSTYLEMAP
360
F5D
  0
XRECORD
  5
F5F
102
{ACAD_REACTORS
330
F65
102
}
330
F65
100
AcDbXrecord
280
     1
  1
AcDb_Thumbnail_Schema
102
{ATTRRECORD
341
F60
  2
AcDbDs::TreatedAsObjectData
280
     1
291
     1
102
ATTRRECORD}
102
{ATTRRECORD
341
F61
  2
AcDbDs::Legacy
280
     1
291
     1
102
ATTRRECORD}
  2
AcDbDs::ID
280
    10
 91
        8
102
{ATTRRECORD
341
F62
  2
AcDs:Indexable
280
     1
291
     1
102
ATTRRECORD}
102
{ATTRRECORD
341
F63
  2
AcDbDs::HandleAttribute
280
     7
282
     1
102
ATTRRECORD}
  2
Thumbnail_Data
280
    15
 91
        0
  0
XRECORD
  5
F60
102
{ACAD_REACTORS
330
F65
102
}
330
F65
100
AcDbXrecord
280
     1
  1
AcDbDs::TreatedAsObjectDataSchema
  2
AcDbDs::TreatedAsObjectData
280
     1
 91
        0
  0
XRECORD
  5
F61
102
{ACAD_REACTORS
330
F65
102
}
330
F65
100
AcDbXrecord
280
     1
  1
AcDbDs::LegacySchema
  2
AcDbDs::Legacy
280
     1
 91
        0
  0
XRECORD
  5
F62
102
{ACAD_REACTORS
330
F65
102
}
330
F65
100
AcDbXrecord
280
     1
  1
AcDbDs::IndexedPropertySchema
  2
AcDs:Indexable
280
     1
 91
        0
  0
XRECORD
  5
F63
102
{ACAD_REACTORS
330
F65
102
}
330
F65
100
AcDbXrecord
280
     1
  1
AcDbDs::HandleAttributeSchema
  2
AcDbDs::HandleAttribute
280
     7
 91
        1
284
     1
  0
XRECORD
  5
F6A
102
{ACAD_REACTORS
330
F69
102
}
330
F69
100
AcDbXrecord
280
     1
102
DISPLAYNAME
  1
Imperial24
102
FLAGS
 90
        0
  0
XRECORD
  5
1C
102
{ACAD_REACTORS
330
1A
102
}
330
1A
100
AcDbXrecord
280
     1
270
     1
271
     1
  0
XRECORD
  5
1B
102
{ACAD_REACTORS
330
1A
102
}
330
1A
100
AcDbXrecord
280
     1
270
     1
271
     1
  0
XRECORD
  5
1F
102
{ACAD_REACTORS
330
1A
102
}
330
1A
100
AcDbXrecord
280
     1
270
     1
271
     1
  0
XRECORD
  5
1E
102
{ACAD_REACTORS
330
1A
102
}
330
1A
100
AcDbXrecord
280
     1
270
     1
271
     1
  0
XRECORD
  5
20
102
{ACAD_REACTORS
330
1A
102
}
330
1A
100
AcDbXrecord
280
     1
270
     1
271
     1
  0
XRECORD
  5
1D
102
{ACAD_REACTORS
330
1A
102
}
330
1A
100
AcDbXrecord
280
     1
270
     1
271
     1
  0
XRECORD
  5
14
102
{ACAD_REACTORS
330
12
102
}
330
12
100
AcDbXrecord
280
     1
270
     1
271
     1
  0
XRECORD
  5
13
102
{ACAD_REACTORS
330
12
102
}
330
12
100
AcDbXrecord
280
     1
270
     1
271
     1
  0
XRECORD
  5
17
102
{ACAD_REACTORS
330
12
102
}
330
12
100
AcDbXrecord
280
     1
270
     1
271
     1
  0
XRECORD
  5
16
102
{ACAD_REACTORS
330
12
102
}
330
12
100
AcDbXrecord
280
     1
270
     1
271
     1
  0
XRECORD
  5
18
102
{ACAD_REACTORS
330
12
102
}
330
12
100
AcDbXrecord
280
     1
270
     1
271
     1
  0
XRECORD
  5
15
102
{ACAD_REACTORS
330
12
102
}
330
12
100
AcDbXrecord
280
     1
270
     1
271
     1
  0
XRECORD
  5
24
102
{ACAD_REACTORS
330
22
102
}
330
22
100
AcDbXrecord
280
     1
270
     1
271
     1
  0
XRECORD
  5
23
102
{ACAD_REACTORS
330
22
102
}
330
22
100
AcDbXrecord
280
     1
270
     1
271
     1
  0
XRECORD
  5
27
102
{ACAD_REACTORS
330
22
102
}
330
22
100
AcDbXrecord
280
     1
270
     1
271
     1
  0
XRECORD
  5
26
102
{ACAD_REACTORS
330
22
102
}
330
22
100
AcDbXrecord
280
     1
270
     1
271
     1
  0
XRECORD
  5
28
102
{ACAD_REACTORS
330
22
102
}
330
22
100
AcDbXrecord
280
     1
270
     1
271
     1
  0
XRECORD
  5
25
102
{ACAD_REACTORS
330
22
102
}
330
22
100
AcDbXrecord
280
     1
270
     1
271
     1
  0
XRECORD
  5
F68
102
{ACAD_REACTORS
330
F67
102
}
330
F67
100
AcDbXrecord
280
     1
102
DISPLAYNAME
  1
Imperial24
102
FLAGS
 90
        0
  0
CELLSTYLEMAP
  5
F5D
102
{ACAD_REACTORS
330
F5C
102
}
330
F5C
100
AcDbCellStyleMap
 90
        3
300
CELLSTYLE
  1
TABLEFORMAT_BEGIN
 90
        5
170
     1
 91
        0
 92
    32768
 62
   257
 93
        1
300
CONTENTFORMAT
  1
CONTENTFORMAT_BEGIN
 90
        0
 91
        0
 92
      512
 93
        0
300

 40
0.0
140
1.0
 94
        5
 62
     0
340
55
144
0.25
309
CONTENTFORMAT_END
171
     0
 94
        0
309
TABLEFORMAT_END
  1
CELLSTYLE_BEGIN
 90
        1
 91
        1
300
_TITLE
309
CELLSTYLE_END
300
CELLSTYLE
  1
TABLEFORMAT_BEGIN
 90
        5
170
     1
 91
        0
 92
        0
 62
   257
 93
        1
300
CONTENTFORMAT
  1
CONTENTFORMAT_BEGIN
 90
        0
 91
        0
 92
      512
 93
        0
300

 40
0.0
140
1.0
 94
        5
 62
     0
340
55
144
0.18
309
CONTENTFORMAT_END
171
     0
 94
        0
309
TABLEFORMAT_END
  1
CELLSTYLE_BEGIN
 90
        2
 91
        1
300
_HEADER
309
CELLSTYLE_END
300
CELLSTYLE
  1
TABLEFORMAT_BEGIN
 90
        5
170
     1
 91
        0
 92
        0
 62
   257
 93
        1
300
CONTENTFORMAT
  1
CONTENTFORMAT_BEGIN
 90
        0
 91
        0
 92
      512
 93
        0
300

 40
0.0
140
1.0
 94
        2
 62
     0
340
55
144
0.18
309
CONTENTFORMAT_END
171
     0
 94
        0
309
TABLEFORMAT_END
  1
CELLSTYLE_BEGIN
 90
        3
 91
        2
300
_DATA
309
CELLSTYLE_END
  0
ENDSEC
  0
SECTION
  2
ACDSDATA
 70
     2
 71
     8
  0
ACDSSCHEMA
 90
        0
  1
AcDb_Thumbnail_Schema
  2
AcDbDs::ID
280
    10
 91
        8
  2
Thumbnail_Data
280
    15
 91
        0
101
ACDSRECORD
 95
        0
 90
        1
  2
AcDbDs::TreatedAsObjectData
280
     1
291
     1
101
ACDSRECORD
 95
        0
 90
        2
  2
AcDbDs::Legacy
280
     1
291
     1
101
ACDSRECORD
  1
AcDbDs::ID
 90
        3
  2
AcDs:Indexable
280
     1
291
     1
101
ACDSRECORD
  1
AcDbDs::ID
 90
        4
  2
AcDbDs::HandleAttribute
280
     7
282
     1
  0
ACDSSCHEMA
 90
        1
  1
AcDbDs::TreatedAsObjectDataSchema
  2
AcDbDs::TreatedAsObjectData
280
     1
 91
        0
  0
ACDSSCHEMA
 90
        2
  1
AcDbDs::LegacySchema
  2
AcDbDs::Legacy
280
     1
 91
        0
  0
ACDSSCHEMA
 90
        3
  1
AcDbDs::IndexedPropertySchema
  2
AcDs:Indexable
280
     1
 91
        0
  0
ACDSSCHEMA
 90
        4
  1
AcDbDs::HandleAttributeSchema
  2
AcDbDs::HandleAttribute
280
     7
 91
        1
284
     1
  0
ACDSRECORD
 90
        0
  2
AcDbDs::ID
280
    10
320
72
  2
Thumbnail_Data
280
    15
 94
     2335
310
89504E470D0A1A0A0000000D49484452000001000000005F08030000003003E9C200000300504C5445D6D6D6FFFFFFD6D6D60000000000000000000000000000000000000000000000000000330000660000990000CC0000FF0033000033330033660033990033CC0033FF0066000066330066660066990066CC0066FF0099
310
000099330099660099990099CC0099FF00CC0000CC3300CC6600CC9900CCCC00CCFF00FF0000FF3300FF6600FF9900FFCC00FFFF3300003300333300663300993300CC3300FF3333003333333333663333993333CC3333FF3366003366333366663366993366CC3366FF3399003399333399663399993399CC3399FF33CC00
310
33CC3333CC6633CC9933CCCC33CCFF33FF0033FF3333FF6633FF9933FFCC33FFFF6600006600336600666600996600CC6600FF6633006633336633666633996633CC6633FF6666006666336666666666996666CC6666FF6699006699336699666699996699CC6699FF66CC0066CC3366CC6666CC9966CCCC66CCFF66FF0066
310
FF3366FF6666FF9966FFCC66FFFF9900009900339900669900999900CC9900FF9933009933339933669933999933CC9933FF9966009966339966669966999966CC9966FF9999009999339999669999999999CC9999FF99CC0099CC3399CC6699CC9999CCCC99CCFF99FF0099FF3399FF6699FF9999FFCC99FFFFCC0000CC00
310
33CC0066CC0099CC00CCCC00FFCC3300CC3333CC3366CC3399CC33CCCC33FFCC6600CC6633CC6666CC6699CC66CCCC66FFCC9900CC9933CC9966CC9999CC99CCCC99FFCCCC00CCCC33CCCC66CCCC99CCCCCCCCCCFFCCFF00CCFF33CCFF66CCFF99CCFFCCCCFFFFFF0000FF0033FF0066FF0099FF00CCFF00FFFF3300FF3333
310
FF3366FF3399FF33CCFF33FFFF6600FF6633FF6666FF6699FF66CCFF66FFFF9900FF9933FF9966FF9999FF99CCFF99FFFFCC00FFCC33FFCC66FFCC99FFCCCCFFCCFFFFFF00FFFF33FFFF66FFFF99FFFFCCFFFFFF0000000D0D0D1A1A1A2828283535354343435050505D5D5D6B6B6B787878868686939393A1A1A1AEAEAEBB
310
BBBBC9C9C9D6D6D6E4E4E4F1F1F1FFFFFF0000000000000000000000000000000000000000000000000000000000008A60A2FA000005DA4944415478DADD5C8DD2DC2008E4FD1F739FA4D35EA280A0688CD1DE74E6EBE5923B59F95910250ABE00F72AD867F8FB06F90AECE7ACEBBF2BFF9EA6EB1F213E94375FBFD18202A2
310
E087C075B3FBA0960109CC80FC44EB01F80D2BA01AFF44BE6EBE15014D217E0F5D1F5CC27BCAF3D6FCA3F969E497AF7B90458239FF4AB89FD8BF29C70DC53AF1B3D2A2D3055475C6730185F897BAE336185F7EA07C78CEDC67C545C5D6D18B80E9EA6028409EF99AFCBE4F7D6CE26A32EADEF041D44861A2F41BC47510B4D0
310
FC4B2F8E1A0208FA9360DC946F5135D47700B014526252F9AC065214452EFF1700D83FCC3CB837DA7EF5B7032731D6D4E2222F86FAE27D26748ACDF40C05CD6B6017F0C8F09E9A8131D02B98298DEE188E19043B691D16305FC7F3A599E78C061D6C146D71D03F31CBDC40464032B43000F04875C8EBAF07C0F2C550F49C9A
310
94B1AD6810FCA737462DB00494341199AE5D7F31F6EDDC905AA221BF96E67D2EA979A403902115395D08CDC37A33D0082818306405BC4CE251AAEFA4CF2ECAF5658CC78E0C323144B410FC520510A80C8DBB401155766000BEE3B1CB3DE349594AF952B9ACE1F83E510121613984A743027CD7F755B9AFE20A307B80404BAD
310
3FF37E7EC9629626DEC5E239D59685AE40C58561D34C1542EC2F3D4B830579639E6978B4658CFD34EE8782D065B9298A3D19AFAD00BB22C0185B06038F62C1D362E357F2E7F59E67B6EA2D126CAB0004498D8606AA92EBBDDD5FC51B2605C0D05754220DEDFB2AABE5BD63AEDFBC3D00D6603B17C8DA358F63E41FB1D78A80
310
274D7EAD58D1E2F6D505E7E30060F5A158D25A5D6AC69108889A50730DCC8A7CE7CA4EDD34707193CB5A563C25CF38CCFD4D1DFD6918C8251D3C17FE3C0E3471BCC0519E70FE404F02E0A5A102009D217E2C531A211400D1EE20A0ABB8D18FC0DE36D04865690200B4B3255412B9190020A7149B07FD17263F7F47BD31F5DB
310
DC3F02C094C5C2DD94A03D1ACC32867B6BC45E6B62F3016B960BF63084F5AA084DB7FE27B6FB8EF1ADFEE1464977B690DFA8417573807709189D30B47E7F390468BA286B7892C763EE047CD92717D0D6760778973940B4A4BF9E86761828C8DBDB09055763F92B0600E145DED92B3F93D35C05613B9B4081C5916A4ED10260
310
1502D0F2DB8A299219A4ED0411F2EC6F8483D62479016B663F75AFC20140AE8D22AF13D496C0A915352400D0CFAD2A9A147B5DC14DDCCD659B4D03AC3D98748F31500040628F8A6AB17FD3F543AF7EF36D8C307BE853224391E63FAE5F1A00D995C63BC9B10481A289994F4405B3625F9997EF0993B13EBFCD2F6DBDBF6566
310
802CC981EE7190E86AAFE4B1818A96ECB274D82F5F76E37F728BDE12FA236DB2BA7520EDB30E4C0E2ACC02E68B90B72DFA3B2BDEE302EC280B6B931B3A01A8510236E732F4307FB4B8780E450BCA0D03AC65B0D123801025521B1492BFC0F3BECC878EC19A7D0500D5B67E58F3ED27C1282680063A126656476046CBE4B8D9
310
A127C1C345D4A629B140E87EC746051215A9F879210427509A45274021B05BCF08FA01208F2C5A10941590CD1606E4887882C20EF8819946591448A713BCEB7ED375F2060046EDC272F8925F09DDD77E60272D80BBBFDD9E7E4F05544B0DDB6FE09E2CB389FC6E91E4E6A620045CB5A24872DEB715BF02005C009CE8CEEEE3
310
5A2E80D9CE0D18B34390CC28702884C81779EE6473CB9D1028433288A5A58EBABB2AC0B440506648B5DAC7047852C2931F044E5A33B154C75288ED2746C175133328CB82F18C5FE78D3AA08A449F3AFAEED7CA8F7CA62105DA25E09D1654C43CE5080421D88604B1D69DF1C3724A15C84B6A10E5576CB67B0A52531FE40EDC
310
8A643C259E026D1808B307EBAEA29804428024CF2D04C363AB74A0B70A05270A2A26C16A0DC807877E745ECE2B7534A3B4C85541AE8CA02C1A1C0B016A9C92FF271791B22ED0D1DB882C00A0989F38390C72498DF499CCFF0500F278507D4A19E4B2A3581AC5A9F2A3560D2BEA2B826280CEF702E631C16E8E5DAC11AB9AD9
310
891B6AA95122528D252AC3C09C6EAB8DE4375440D6FE51B8067C86C01FAA740A62A3979ABF0000000049454E44AE426082
  0
ENDSEC
  0
EOF
