  0
SECTION
  2
HEADER
  9
$ACADVER
  1
AC1027
  9
$ACADMAINTVER
 70
   125
  9
$DWGCODEPAGE
  3
ANSI_1252
  9
$LASTSAVEDBY
  1
Lebatard
  9
$REQUIREDVERSIONS
160
                 0
  9
$INSBASE
 10
0.0
 20
0.0
 30
0.0
  9
$EXTMIN
 10
-1872.85489811392
 20
107.9784399999997
 30
0.0
  9
$EXTMAX
 10
2178.538401851109
 20
4615.067617411395
 30
0.0
  9
$LIMMIN
 10
0.0
 20
0.0
  9
$LIMMAX
 10
12.0
 20
9.0
  9
$ORTHOMODE
 70
     0
  9
$REGENMODE
 70
     1
  9
$FILLMODE
 70
     1
  9
$QTEXTMODE
 70
     0
  9
$MIRRTEXT
 70
     0
  9
$LTSCALE
 40
1.0
  9
$ATTMODE
 70
     1
  9
$TEXTSIZE
 40
0.2
  9
$TRACEWID
 40
0.05
  9
$TEXTSTYLE
  7
Standard
  9
$CLAYER
  8
0
  9
$CELTYPE
  6
Continuous
  9
$CECOLOR
 62
   256
  9
$CELTSCALE
 40
1.0
  9
$DISPSILH
 70
     0
  9
$DIMSCALE
 40
1.0
  9
$DIMASZ
 40
0.18
  9
$DIMEXO
 40
0.0625
  9
$DIMDLI
 40
0.38
  9
$DIMRND
 40
0.0
  9
$DIMDLE
 40
0.0
  9
$DIMEXE
 40
0.18
  9
$DIMTP
 40
0.0
  9
$DIMTM
 40
0.0
  9
$DIMTXT
 40
0.18
  9
$DIMCEN
 40
0.09
  9
$DIMTSZ
 40
0.0
  9
$DIMTOL
 70
     0
  9
$DIMLIM
 70
     0
  9
$DIMTIH
 70
     1
  9
$DIMTOH
 70
     1
  9
$DIMSE1
 70
     0
  9
$DIMSE2
 70
     0
  9
$DIMTAD
 70
     0
  9
$DIMZIN
 70
     0
  9
$DIMBLK
  1

  9
$DIMASO
 70
     1
  9
$DIMSHO
 70
     1
  9
$DIMPOST
  1

  9
$DIMAPOST
  1

  9
$DIMALT
 70
     0
  9
$DIMALTD
 70
     2
  9
$DIMALTF
 40
25.4
  9
$DIMLFAC
 40
1.0
  9
$DIMTOFL
 70
     0
  9
$DIMTVP
 40
0.0
  9
$DIMTIX
 70
     0
  9
$DIMSOXD
 70
     0
  9
$DIMSAH
 70
     0
  9
$DIMBLK1
  1

  9
$DIMBLK2
  1

  9
$DIMSTYLE
  2
Standard
  9
$DIMCLRD
 70
     0
  9
$DIMCLRE
 70
     0
  9
$DIMCLRT
 70
     0
  9
$DIMTFAC
 40
1.0
  9
$DIMGAP
 40
0.09
  9
$DIMJUST
 70
     0
  9
$DIMSD1
 70
     0
  9
$DIMSD2
 70
     0
  9
$DIMTOLJ
 70
     1
  9
$DIMTZIN
 70
     0
  9
$DIMALTZ
 70
     0
  9
$DIMALTTZ
 70
     0
  9
$DIMUPT
 70
     0
  9
$DIMDEC
 70
     4
  9
$DIMTDEC
 70
     4
  9
$DIMALTU
 70
     2
  9
$DIMALTTD
 70
     2
  9
$DIMTXSTY
  7
Standard
  9
$DIMAUNIT
 70
     0
  9
$DIMADEC
 70
     0
  9
$DIMALTRND
 40
0.0
  9
$DIMAZIN
 70
     0
  9
$DIMDSEP
 70
    46
  9
$DIMATFIT
 70
     3
  9
$DIMFRAC
 70
     0
  9
$DIMLDRBLK
  1

  9
$DIMLUNIT
 70
     2
  9
$DIMLWD
 70
    -2
  9
$DIMLWE
 70
    -2
  9
$DIMTMOVE
 70
     0
  9
$DIMFXL
 40
1.0
  9
$DIMFXLON
 70
     0
  9
$DIMJOGANG
 40
0.7853981633974483
  9
$DIMTFILL
 70
     0
  9
$DIMTFILLCLR
 70
     0
  9
$DIMARCSYM
 70
     0
  9
$DIMLTYPE
  6

  9
$DIMLTEX1
  6

  9
$DIMLTEX2
  6

  9
$DIMTXTDIRECTION
 70
     0
  9
$LUNITS
 70
     2
  9
$LUPREC
 70
     4
  9
$SKETCHINC
 40
0.1
  9
$FILLETRAD
 40
0.0
  9
$AUNITS
 70
     0
  9
$AUPREC
 70
     0
  9
$MENU
  1
.
  9
$ELEVATION
 40
0.0
  9
$PELEVATION
 40
0.0
  9
$THICKNESS
 40
0.0
  9
$LIMCHECK
 70
     0
  9
$CHAMFERA
 40
0.0
  9
$CHAMFERB
 40
0.0
  9
$CHAMFERC
 40
0.0
  9
$CHAMFERD
 40
0.0
  9
$SKPOLY
 70
     0
  9
$TDCREATE
 40
2460984.336921296
  9
$TDUCREATE
 40
2460984.295254629
  9
$TDUPDATE
 40
2460984.363541667
  9
$TDUUPDATE
 40
2460984.321875000
  9
$TDINDWG
 40
0.0073379630
  9
$TDUSRTIMER
 40
0.0073379630
  9
$USRTIMER
 70
     1
  9
$ANGBASE
 50
0.0
  9
$ANGDIR
 70
     0
  9
$PDMODE
 70
     0
  9
$PDSIZE
 40
0.0
  9
$PLINEWID
 40
0.0
  9
$SPLFRAME
 70
     0
  9
$SPLINETYPE
 70
     6
  9
$SPLINESEGS
 70
     8
  9
$HANDSEED
  5
1895
  9
$SURFTAB1
 70
     6
  9
$SURFTAB2
 70
     6
  9
$SURFTYPE
 70
     6
  9
$SURFU
 70
     6
  9
$SURFV
 70
     6
  9
$UCSBASE
  2

  9
$UCSNAME
  2

  9
$UCSORG
 10
0.0
 20
0.0
 30
0.0
  9
$UCSXDIR
 10
1.0
 20
0.0
 30
0.0
  9
$UCSYDIR
 10
0.0
 20
1.0
 30
0.0
  9
$UCSORTHOREF
  2

  9
$UCSORTHOVIEW
 70
     0
  9
$UCSORGTOP
 10
0.0
 20
0.0
 30
0.0
  9
$UCSORGBOTTOM
 10
0.0
 20
0.0
 30
0.0
  9
$UCSORGLEFT
 10
0.0
 20
0.0
 30
0.0
  9
$UCSORGRIGHT
 10
0.0
 20
0.0
 30
0.0
  9
$UCSORGFRONT
 10
0.0
 20
0.0
 30
0.0
  9
$UCSORGBACK
 10
0.0
 20
0.0
 30
0.0
  9
$PUCSBASE
  2

  9
$PUCSNAME
  2

  9
$PUCSORG
 10
0.0
 20
0.0
 30
0.0
  9
$PUCSXDIR
 10
1.0
 20
0.0
 30
0.0
  9
$PUCSYDIR
 10
0.0
 20
1.0
 30
0.0
  9
$PUCSORTHOREF
  2

  9
$PUCSORTHOVIEW
 70
     0
  9
$PUCSORGTOP
 10
0.0
 20
0.0
 30
0.0
  9
$PUCSORGBOTTOM
 10
0.0
 20
0.0
 30
0.0
  9
$PUCSORGLEFT
 10
0.0
 20
0.0
 30
0.0
  9
$PUCSORGRIGHT
 10
0.0
 20
0.0
 30
0.0
  9
$PUCSORGFRONT
 10
0.0
 20
0.0
 30
0.0
  9
$PUCSORGBACK
 10
0.0
 20
0.0
 30
0.0
  9
$USERI1
 70
     0
  9
$USERI2
 70
     0
  9
$USERI3
 70
     0
  9
$USERI4
 70
     0
  9
$USERI5
 70
     0
  9
$USERR1
 40
0.0
  9
$USERR2
 40
0.0
  9
$USERR3
 40
0.0
  9
$USERR4
 40
0.0
  9
$USERR5
 40
0.0
  9
$WORLDVIEW
 70
     1
  9
$SHADEDGE
 70
     3
  9
$SHADEDIF
 70
    70
  9
$TILEMODE
 70
     1
  9
$MAXACTVP
 70
    64
  9
$PINSBASE
 10
0.0
 20
0.0
 30
0.0
  9
$PLIMCHECK
 70
     0
  9
$PEXTMIN
 10
1.000000000000000E+20
 20
1.000000000000000E+20
 30
1.000000000000000E+20
  9
$PEXTMAX
 10
-1.000000000000000E+20
 20
-1.000000000000000E+20
 30
-1.000000000000000E+20
  9
$PLIMMIN
 10
0.0
 20
0.0
  9
$PLIMMAX
 10
12.0
 20
9.0
  9
$UNITMODE
 70
     0
  9
$VISRETAIN
 70
     1
  9
$PLINEGEN
 70
     0
  9
$PSLTSCALE
 70
     1
  9
$TREEDEPTH
 70
  3020
  9
$CMLSTYLE
  2
Standard
  9
$CMLJUST
 70
     0
  9
$CMLSCALE
 40
1.0
  9
$PROXYGRAPHICS
 70
     1
  9
$MEASUREMENT
 70
     0
  9
$CELWEIGHT
370
    -1
  9
$ENDCAPS
280
     0
  9
$JOINSTYLE
280
     0
  9
$LWDISPLAY
290
     0
  9
$INSUNITS
 70
     0
  9
$HYPERLINKBASE
  1

  9
$STYLESHEET
  1

  9
$XEDIT
290
     1
  9
$CEPSNTYPE
380
     0
  9
$PSTYLEMODE
290
     1
  9
$FINGERPRINTGUID
  2
{5CBDFCB1-0899-7040-842C-F52B23659DA5}
  9
$VERSIONGUID
  2
{9FC33774-0BEC-464B-A756-BAF70A484A34}
  9
$EXTNAMES
290
     1
  9
$PSVPSCALE
 40
0.0
  9
$OLESTARTUP
290
     0
  9
$SORTENTS
280
   127
  9
$INDEXCTL
280
     0
  9
$HIDETEXT
280
     0
  9
$XCLIPFRAME
280
     2
  9
$HALOGAP
280
     0
  9
$OBSCOLOR
 70
   257
  9
$OBSLTYPE
280
     0
  9
$INTERSECTIONDISPLAY
280
     0
  9
$INTERSECTIONCOLOR
 70
   257
  9
$DIMASSOC
280
     1
  9
$PROJECTNAME
  1

  9
$CAMERADISPLAY
290
     0
  9
$LENSLENGTH
 40
50.0
  9
$CAMERAHEIGHT
 40
0.0
  9
$STEPSPERSEC
 40
2.0
  9
$STEPSIZE
 40
6.0
  9
$3DDWFPREC
 40
2.0
  9
$PSOLWIDTH
 40
0.25
  9
$PSOLHEIGHT
 40
4.0
  9
$LOFTANG1
 40
1.570796326794896
  9
$LOFTANG2
 40
1.570796326794896
  9
$LOFTMAG1
 40
0.0
  9
$LOFTMAG2
 40
0.0
  9
$LOFTPARAM
 70
     7
  9
$LOFTNORMALS
280
     1
  9
$LATITUDE
 40
37.795
  9
$LONGITUDE
 40
-122.394
  9
$NORTHDIRECTION
 40
0.0
  9
$TIMEZONE
 70
 -8000
  9
$LIGHTGLYPHDISPLAY
280
     1
  9
$TILEMODELIGHTSYNCH
280
     1
  9
$CMATERIAL
347
11
  9
$SOLIDHIST
280
     0
  9
$SHOWHIST
280
     1
  9
$DWFFRAME
280
     2
  9
$DGNFRAME
280
     0
  9
$REALWORLDSCALE
290
     1
  9
$INTERFERECOLOR
 62
     1
  9
$INTERFEREOBJVS
345
33
  9
$INTERFEREVPVS
346
30
  9
$CSHADOW
280
     0
  9
$SHADOWPLANELOCATION
 40
0.0
  0
ENDSEC
  0
SECTION
  2
CLASSES
  0
CLASS
  1
ACDBDICTIONARYWDFLT
  2
AcDbDictionaryWithDefault
  3
ObjectDBX Classes
 90
        0
 91
        1
280
     0
281
     0
  0
CLASS
  1
MATERIAL
  2
AcDbMaterial
  3
ObjectDBX Classes
 90
     1153
 91
        3
280
     0
281
     0
  0
CLASS
  1
VISUALSTYLE
  2
AcDbVisualStyle
  3
ObjectDBX Classes
 90
     4095
 91
       24
280
     0
281
     0
  0
CLASS
  1
SCALE
  2
AcDbScale
  3
ObjectDBX Classes
 90
     1153
 91
       17
280
     0
281
     0
  0
CLASS
  1
TABLESTYLE
  2
AcDbTableStyle
  3
ObjectDBX Classes
 90
     4095
 91
        1
280
     0
281
     0
  0
CLASS
  1
MLEADERSTYLE
  2
AcDbMLeaderStyle
  3
ACDB_MLEADERSTYLE_CLASS
 90
     4095
 91
        1
280
     0
281
     0
  0
CLASS
  1
ACDBSECTIONVIEWSTYLE
  2
AcDbSectionViewStyle
  3
ObjectDBX Classes
 90
     1025
 91
        1
280
     0
281
     0
  0
CLASS
  1
ACDBDETAILVIEWSTYLE
  2
AcDbDetailViewStyle
  3
ObjectDBX Classes
 90
     1025
 91
        1
280
     0
281
     0
  0
CLASS
  1
RAPIDRTRENDERSETTINGS
  2
AcDbRapidRTRenderSettings
  3
ObjectDBX Classes
 90
     1024
 91
        7
280
     0
281
     0
  0
CLASS
  1
SPIFILEHEADER
  2
CSPIFileHeader
  3
SPIKERNELAPP|Product Desc: CSPIFileHeader|Company: 2020 Technologies|WEB Address: www.2020spaces.com
 90
     3071
 91
        1
280
     0
281
     0
  0
CLASS
  1
SPIFILEHEADER
  2
CSPIFHVersion
  3
SPIKERNELAPP|Product Desc: CSPIFHVersion|Company: 2020 Technologies|WEB Address: www.2020spaces.com
 90
     3071
 91
        1
280
     0
281
     0
  0
CLASS
  1
DICTIONARYVAR
  2
AcDbDictionaryVar
  3
ObjectDBX Classes
 90
        0
 91
        9
280
     0
281
     0
  0
CLASS
  1
SORTENTSTABLE
  2
AcDbSortentsTable
  3
ObjectDBX Classes
 90
        0
 91
        1
280
     0
281
     0
  0
CLASS
  1
ACAD_EVALUATION_GRAPH
  2
AcDbEvalGraph
  3
ObjectDBX Classes
 90
     1153
 91
        0
280
     0
281
     0
  0
CLASS
  1
ACAECUSTOBJ
  2
AcAeEditorObj
  3
AcAeEditorObj
 90
     1024
 91
        0
280
     0
281
     0
  0
CLASS
  1
ACDB_DYNAMICBLOCKPURGEPREVENTER_VERSION
  2
AcDbDynamicBlockPurgePreventer
  3
ObjectDBX Classes
 90
     1153
 91
        0
280
     0
281
     0
  0
CLASS
  1
CELLSTYLEMAP
  2
AcDbCellStyleMap
  3
ObjectDBX Classes
 90
     1152
 91
        1
280
     0
281
     0
  0
CLASS
  1
MENTALRAYRENDERSETTINGS
  2
AcDbMentalRayRenderSettings
  3
SCENEOE
 90
     1024
 91
        1
280
     0
281
     0
  0
ENDSEC
  0
SECTION
  2
TABLES
  0
TABLE
  2
VPORT
  5
8
330
0
100
AcDbSymbolTable
 70
     1
1001
ACAD
1000
DbSaveVer
1071
      123
  0
VPORT
  5
17AF
330
8
100
AcDbSymbolTableRecord
100
AcDbViewportTableRecord
  2
*Active
 70
     0
 10
0.0
 20
0.0
 11
1.0
 21
1.0
 12
29.99576270983926
 22
5979.139187965486
 13
0.0
 23
0.0
 14
1.0
 24
1.0
 15
0.0
 25
0.0
 16
0.0
 26
0.0
 36
1.0
 17
0.0
 27
0.0
 37
0.0
 40
14714.59690538455
 41
1.135693215339232
 42
50.0
 43
0.0
 44
0.0
 50
0.0
 51
0.0
 71
     0
 72
  1000
 73
     1
 74
     3
 75
     0
 76
     0
 77
     0
 78
     0
281
     0
 65
     1
110
0.0
120
0.0
130
0.0
111
1.0
121
0.0
131
0.0
112
0.0
122
1.0
132
0.0
 79
     0
146
0.0
348
2F
 60
     3
 61
     5
292
     1
282
     1
141
0.0
142
0.0
 63
   250
421
  3355443
1001
ACAD_NAV_VCDISPLAY
1070
     0
  0
ENDTAB
  0
TABLE
  2
LTYPE
  5
5
330
0
100
AcDbSymbolTable
 70
     1
  0
LTYPE
  5
5A
330
5
100
AcDbSymbolTableRecord
100
AcDbLinetypeTableRecord
  2
ByBlock
 70
     0
  3

 72
    65
 73
     0
 40
0.0
  0
LTYPE
  5
5B
330
5
100
AcDbSymbolTableRecord
100
AcDbLinetypeTableRecord
  2
ByLayer
 70
     0
  3

 72
    65
 73
     0
 40
0.0
  0
LTYPE
  5
5C
330
5
100
AcDbSymbolTableRecord
100
AcDbLinetypeTableRecord
  2
Continuous
 70
     0
  3
Solid line
 72
    65
 73
     0
 40
0.0
  0
ENDTAB
  0
TABLE
  2
LAYER
  5
2
102
{ACAD_XDICTIONARY
360
17D5
102
}
330
0
100
AcDbSymbolTable
 70
     1
  0
LAYER
  5
54
102
{ACAD_XDICTIONARY
360
17BC
102
}
330
2
100
AcDbSymbolTableRecord
100
AcDbLayerTableRecord
  2
0
 70
     0
 62
     7
  6
Continuous
370
    -3
390
F
347
21
348
0
  0
ENDTAB
  0
TABLE
  2
STYLE
  5
3
330
0
100
AcDbSymbolTable
 70
     1
  0
STYLE
  5
55
330
3
100
AcDbSymbolTableRecord
100
AcDbTextStyleTableRecord
  2
Standard
 70
     0
 40
0.0
 41
1.0
 50
0.0
 71
     0
 42
0.2
  3
txt
  4

  0
ENDTAB
  0
TABLE
  2
VIEW
  5
6
330
0
100
AcDbSymbolTable
 70
     0
  0
ENDTAB
  0
TABLE
  2
UCS
  5
7
330
0
100
AcDbSymbolTable
 70
     0
  0
ENDTAB
  0
TABLE
  2
APPID
  5
9
330
0
100
AcDbSymbolTable
 70
     6
  0
APPID
  5
56
330
9
100
AcDbSymbolTableRecord
100
AcDbRegAppTableRecord
  2
ACAD
 70
     0
  0
APPID
  5
5D
330
9
100
AcDbSymbolTableRecord
100
AcDbRegAppTableRecord
  2
AcadAnnotative
 70
     0
  0
APPID
  5
17AE
330
9
100
AcDbSymbolTableRecord
100
AcDbRegAppTableRecord
  2
ACAD_NAV_VCDISPLAY
 70
     0
  0
APPID
  5
1870
330
9
100
AcDbSymbolTableRecord
100
AcDbRegAppTableRecord
  2
ACAUTHENVIRON
 70
     0
  0
APPID
  5
1874
330
9
100
AcDbSymbolTableRecord
100
AcDbRegAppTableRecord
  2
AcDbDynamicBlockTrueName
 70
     0
  0
APPID
  5
1875
330
9
100
AcDbSymbolTableRecord
100
AcDbRegAppTableRecord
  2
AcDbDynamicBlockGUID
 70
     0
  0
ENDTAB
  0
TABLE
  2
DIMSTYLE
  5
A
330
0
100
AcDbSymbolTable
 70
     1
100
AcDbDimStyleTable
 71
     0
  0
DIMSTYLE
105
57
330
A
100
AcDbSymbolTableRecord
100
AcDbDimStyleTableRecord
  2
Standard
 70
     0
340
55
  0
ENDTAB
  0
TABLE
  2
BLOCK_RECORD
  5
1
330
0
100
AcDbSymbolTable
 70
     1
  0
BLOCK_RECORD
  5
6F
102
{ACAD_XDICTIONARY
360
17D0
102
}
330
1
100
AcDbSymbolTableRecord
100
AcDbBlockTableRecord
  2
*Model_Space
340
72
 70
     0
280
     1
281
     0
  0
BLOCK_RECORD
  5
6B
330
1
100
AcDbSymbolTableRecord
100
AcDbBlockTableRecord
  2
*Paper_Space
340
6E
 70
     0
280
     1
281
     0
  0
BLOCK_RECORD
  5
17E9
102
{ACAD_XDICTIONARY
360
1871
102
}
330
1
100
AcDbSymbolTableRecord
100
AcDbBlockTableRecord
  2
Gingko
340
0
310
2800000020000000200000000100200000000000001000000100000001000000000000000000000000AB3D7CD6D6D6FFD6D6D6FFD6D6D6FFD6D6D6FFD6D6D6FFD6D6D6FFD6D6D6FFD6D6D6FFD6D6D6FFD6D6D6FFD6D6D6FFD6D6D6FFD6D6D6FFD6D6D6FFD6D6D6FFD6D6D6FFD6D6D6FFD6D6D6FFD6D6D6FFD6D6D6FFD6D6D6
310
FFD6D6D6FFD6D6D6FFD6D6D6FFD6D6D6FFD6D6D6FFD6D6D6FFD6D6D6FFD6D6D6FFD6D6D6FFD6D6D6FFD6D6D6FFD6D6D6FFD6D6D6FFD6D6D6FFD6D6D6FFD6D6D6FFD6D6D6FFD6D6D6FFD6D6D6FFD6D6D6FFD6D6D6FFD6D6D6FFD6D6D6FFD6D6D6FFD6D6D6FF000000FF000000FF000000FF000000FF000000FFD6D6D6FFD6D6
310
D6FFD6D6D6FFD6D6D6FFD6D6D6FFD6D6D6FFD6D6D6FFD6D6D6FFD6D6D6FFD6D6D6FFD6D6D6FFD6D6D6FFD6D6D6FFD6D6D6FFD6D6D6FFD6D6D6FFD6D6D6FFD6D6D6FFD6D6D6FFD6D6D6FFD6D6D6FFD6D6D6FFD6D6D6FFD6D6D6FFD6D6D6FFD6D6D6FFD6D6D6FFD6D6D6FF000000FFD6D6D6FF000000FF000000FFD6D6D6FFD6
310
D6D6FFD6D6D6FFD6D6D6FFD6D6D6FFD6D6D6FFD6D6D6FFD6D6D6FFD6D6D6FFD6D6D6FFD6D6D6FFD6D6D6FFD6D6D6FFD6D6D6FFD6D6D6FFD6D6D6FFD6D6D6FFD6D6D6FFD6D6D6FFD6D6D6FFD6D6D6FFD6D6D6FFD6D6D6FFD6D6D6FFD6D6D6FFD6D6D6FFD6D6D6FFD6D6D6FF000000FFD6D6D6FF000000FFD6D6D6FFD6D6D6FF
310
D6D6D6FFD6D6D6FFD6D6D6FFD6D6D6FFD6D6D6FFD6D6D6FFD6D6D6FFD6D6D6FFD6D6D6FFD6D6D6FFD6D6D6FFD6D6D6FFD6D6D6FFD6D6D6FFD6D6D6FFD6D6D6FFD6D6D6FFD6D6D6FFD6D6D6FFD6D6D6FFD6D6D6FFD6D6D6FFD6D6D6FFD6D6D6FFD6D6D6FFD6D6D6FFD6D6D6FF000000FFD6D6D6FF000000FFD6D6D6FFD6D6D6
310
FFD6D6D6FFD6D6D6FFD6D6D6FFD6D6D6FFD6D6D6FFD6D6D6FFD6D6D6FFD6D6D6FFD6D6D6FFD6D6D6FFD6D6D6FFD6D6D6FFD6D6D6FFD6D6D6FFD6D6D6FFD6D6D6FFD6D6D6FFD6D6D6FFD6D6D6FFD6D6D6FFD6D6D6FFD6D6D6FFD6D6D6FFD6D6D6FFD6D6D6FFD6D6D6FFD6D6D6FF000000FFD6D6D6FF000000FFD6D6D6FFD6D6
310
D6FFD6D6D6FFD6D6D6FFD6D6D6FFD6D6D6FFD6D6D6FFD6D6D6FFD6D6D6FFD6D6D6FFD6D6D6FFD6D6D6FFD6D6D6FFD6D6D6FFD6D6D6FFD6D6D6FFD6D6D6FFD6D6D6FFD6D6D6FFD6D6D6FFD6D6D6FFD6D6D6FFD6D6D6FFD6D6D6FFD6D6D6FFD6D6D6FFD6D6D6FFD6D6D6FFD6D6D6FF000000FFD6D6D6FF000000FFD6D6D6FFD6
310
D6D6FFD6D6D6FFD6D6D6FFD6D6D6FFD6D6D6FFD6D6D6FFD6D6D6FFD6D6D6FFD6D6D6FFD6D6D6FFD6D6D6FFD6D6D6FFD6D6D6FFD6D6D6FFD6D6D6FFD6D6D6FFD6D6D6FFD6D6D6FFD6D6D6FFD6D6D6FFD6D6D6FFD6D6D6FFD6D6D6FFD6D6D6FFD6D6D6FFD6D6D6FFD6D6D6FFD6D6D6FF000000FFD6D6D6FF000000FFD6D6D6FF
310
D6D6D6FFD6D6D6FFD6D6D6FFD6D6D6FFD6D6D6FFD6D6D6FFD6D6D6FFD6D6D6FFD6D6D6FFD6D6D6FFD6D6D6FFD6D6D6FFD6D6D6FFD6D6D6FFD6D6D6FFD6D6D6FFD6D6D6FFD6D6D6FFD6D6D6FFD6D6D6FFD6D6D6FFD6D6D6FFD6D6D6FFD6D6D6FFD6D6D6FFD6D6D6FFD6D6D6FFD6D6D6FF000000FFD6D6D6FF000000FFD6D6D6
310
FFD6D6D6FFD6D6D6FFD6D6D6FFD6D6D6FFD6D6D6FFD6D6D6FFD6D6D6FFD6D6D6FFD6D6D6FFD6D6D6FFD6D6D6FFD6D6D6FFD6D6D6FFD6D6D6FFD6D6D6FFD6D6D6FFD6D6D6FFD6D6D6FFD6D6D6FFD6D6D6FFD6D6D6FFD6D6D6FFD6D6D6FFD6D6D6FFD6D6D6FFD6D6D6FFD6D6D6FFD6D6D6FF000000FFD6D6D6FF000000FFD6D6
310
D6FFD6D6D6FFD6D6D6FFD6D6D6FFD6D6D6FFD6D6D6FFD6D6D6FFD6D6D6FFD6D6D6FFD6D6D6FFD6D6D6FFD6D6D6FFD6D6D6FFD6D6D6FFD6D6D6FFD6D6D6FFD6D6D6FFD6D6D6FFD6D6D6FFD6D6D6FFD6D6D6FFD6D6D6FFD6D6D6FFD6D6D6FFD6D6D6FFD6D6D6FFD6D6D6FFD6D6D6FFD6D6D6FF000000FF000000FFD6D6D6FFD6
310
D6D6FFD6D6D6FFD6D6D6FFD6D6D6FFD6D6D6FFD6D6D6FFD6D6D6FFD6D6D6FFD6D6D6FFD6D6D6FFD6D6D6FFD6D6D6FFD6D6D6FFD6D6D6FFD6D6D6FFD6D6D6FFD6D6D6FFD6D6D6FFD6D6D6FFD6D6D6FFD6D6D6FFD6D6D6FFD6D6D6FFD6D6D6FFD6D6D6FFD6D6D6FFD6D6D6FFD6D6D6FFD6D6D6FF000000FF000000FFD6D6D6FF
310
D6D6D6FFD6D6D6FFD6D6D6FFD6D6D6FFD6D6D6FFD6D6D6FFD6D6D6FFD6D6D6FFD6D6D6FFD6D6D6FFD6D6D6FFD6D6D6FFD6D6D6FFD6D6D6FFD6D6D6FFD6D6D6FFD6D6D6FFD6D6D6FFD6D6D6FFD6D6D6FFD6D6D6FFD6D6D6FFD6D6D6FFD6D6D6FFD6D6D6FFD6D6D6FFD6D6D6FFD6D6D6FFD6D6D6FF000000FF000000FFD6D6D6
310
FFD6D6D6FFD6D6D6FFD6D6D6FFD6D6D6FFD6D6D6FFD6D6D6FFD6D6D6FFD6D6D6FFD6D6D6FFD6D6D6FFD6D6D6FFD6D6D6FFD6D6D6FFD6D6D6FFD6D6D6FFD6D6D6FFD6D6D6FFD6D6D6FFD6D6D6FFD6D6D6FFD6D6D6FFD6D6D6FFD6D6D6FFD6D6D6FFD6D6D6FFD6D6D6FFD6D6D6FFD6D6D6FFD6D6D6FF000000FF000000FFD6D6
310
D6FFD6D6D6FFD6D6D6FFD6D6D6FFD6D6D6FFD6D6D6FFD6D6D6FFD6D6D6FFD6D6D6FFD6D6D6FFD6D6D6FFD6D6D6FFD6D6D6FFD6D6D6FFD6D6D6FFD6D6D6FFD6D6D6FFD6D6D6FFD6D6D6FFD6D6D6FFD6D6D6FFD6D6D6FFD6D6D6FFD6D6D6FFD6D6D6FF000000FF000000FFD6D6D6FFD6D6D6FF000000FF000000FF000000FF00
310
0000FF000000FF000000FF000000FFD6D6D6FFD6D6D6FFD6D6D6FFD6D6D6FFD6D6D6FFD6D6D6FFD6D6D6FFD6D6D6FFD6D6D6FFD6D6D6FFD6D6D6FFD6D6D6FFD6D6D6FFD6D6D6FFD6D6D6FFD6D6D6FFD6D6D6FFD6D6D6FFD6D6D6FF000000FF000000FF000000FF000000FF000000FF000000FF000000FF000000FF000000FF
310
000000FF000000FF000000FF000000FF000000FF000000FF000000FF000000FFD6D6D6FFD6D6D6FFD6D6D6FFD6D6D6FFD6D6D6FFD6D6D6FFD6D6D6FFD6D6D6FFD6D6D6FFD6D6D6FFD6D6D6FFD6D6D6FFD6D6D6FF000000FF000000FF000000FFD6D6D6FFD6D6D6FFD6D6D6FFD6D6D6FF000000FFD6D6D6FFD6D6D6FF000000
310
FF000000FFD6D6D6FFD6D6D6FF000000FF000000FF000000FF000000FF000000FF000000FF000000FFD6D6D6FFD6D6D6FFD6D6D6FFD6D6D6FFD6D6D6FFD6D6D6FFD6D6D6FFD6D6D6FFD6D6D6FFD6D6D6FFD6D6D6FF000000FF000000FF000000FFD6D6D6FFD6D6D6FFD6D6D6FFD6D6D6FF000000FF000000FFD6D6D6FF0000
310
00FF000000FF000000FFD6D6D6FFD6D6D6FFD6D6D6FFD6D6D6FFD6D6D6FF000000FFD6D6D6FF000000FFD6D6D6FFD6D6D6FFD6D6D6FFD6D6D6FFD6D6D6FFD6D6D6FFD6D6D6FFD6D6D6FFD6D6D6FF000000FF000000FF000000FFD6D6D6FFD6D6D6FFD6D6D6FFD6D6D6FFD6D6D6FFD6D6D6FF000000FF000000FFD6D6D6FFD6
310
D6D6FFD6D6D6FFD6D6D6FFD6D6D6FFD6D6D6FFD6D6D6FFD6D6D6FFD6D6D6FFD6D6D6FF000000FF000000FF000000FF000000FFD6D6D6FFD6D6D6FFD6D6D6FFD6D6D6FFD6D6D6FFD6D6D6FF000000FF000000FF000000FF000000FFD6D6D6FFD6D6D6FFD6D6D6FFD6D6D6FFD6D6D6FFD6D6D6FFD6D6D6FFD6D6D6FF000000FF
310
000000FFD6D6D6FFD6D6D6FFD6D6D6FFD6D6D6FFD6D6D6FFD6D6D6FFD6D6D6FF000000FF000000FF000000FF000000FF000000FFD6D6D6FFD6D6D6FFD6D6D6FFD6D6D6FFD6D6D6FFD6D6D6FF000000FF000000FF000000FF000000FFD6D6D6FFD6D6D6FF000000FF000000FF000000FFD6D6D6FFD6D6D6FFD6D6D6FFD6D6D6
310
FFD6D6D6FFD6D6D6FFD6D6D6FFD6D6D6FFD6D6D6FFD6D6D6FFD6D6D6FFD6D6D6FFD6D6D6FF000000FF000000FF000000FFD6D6D6FFD6D6D6FFD6D6D6FFD6D6D6FFD6D6D6FFD6D6D6FFD6D6D6FF000000FF000000FF000000FF000000FF000000FF000000FF000000FF000000FF000000FFD6D6D6FFD6D6D6FFD6D6D6FFD6D6
310
D6FFD6D6D6FFD6D6D6FFD6D6D6FFD6D6D6FFD6D6D6FFD6D6D6FFD6D6D6FFD6D6D6FFD6D6D6FF000000FF000000FFD6D6D6FFD6D6D6FFD6D6D6FFD6D6D6FFD6D6D6FFD6D6D6FFD6D6D6FFD6D6D6FFD6D6D6FFD6D6D6FF000000FF000000FF000000FF000000FF000000FF000000FF000000FFD6D6D6FFD6D6D6FFD6D6D6FFD6
310
D6D6FFD6D6D6FFD6D6D6FFD6D6D6FFD6D6D6FFD6D6D6FFD6D6D6FFD6D6D6FF000000FFD6D6D6FF000000FF000000FFD6D6D6FFD6D6D6FFD6D6D6FFD6D6D6FFD6D6D6FFD6D6D6FFD6D6D6FFD6D6D6FFD6D6D6FFD6D6D6FF000000FF000000FF000000FF000000FF000000FF000000FFD6D6D6FFD6D6D6FFD6D6D6FFD6D6D6FF
310
D6D6D6FFD6D6D6FFD6D6D6FFD6D6D6FFD6D6D6FFD6D6D6FF000000FF000000FF000000FF000000FF000000FF000000FFD6D6D6FFD6D6D6FFD6D6D6FFD6D6D6FFD6D6D6FFD6D6D6FFD6D6D6FFD6D6D6FFD6D6D6FFD6D6D6FFD6D6D6FFD6D6D6FFD6D6D6FF000000FF000000FF000000FF000000FFD6D6D6FFD6D6D6FFD6D6D6
310
FFD6D6D6FFD6D6D6FFD6D6D6FFD6D6D6FFD6D6D6FFD6D6D6FF000000FF000000FF000000FF000000FF000000FFD6D6D6FFD6D6D6FFD6D6D6FFD6D6D6FFD6D6D6FFD6D6D6FFD6D6D6FFD6D6D6FFD6D6D6FFD6D6D6FFD6D6D6FFD6D6D6FFD6D6D6FFD6D6D6FFD6D6D6FF000000FF000000FF000000FFD6D6D6FFD6D6D6FFD6D6
310
D6FFD6D6D6FFD6D6D6FFD6D6D6FFD6D6D6FFD6D6D6FFD6D6D6FF000000FF000000FFD6D6D6FFD6D6D6FFD6D6D6FFD6D6D6FFD6D6D6FFD6D6D6FFD6D6D6FFD6D6D6FFD6D6D6FFD6D6D6FFD6D6D6FFD6D6D6FFD6D6D6FFD6D6D6FFD6D6D6FFD6D6D6FFD6D6D6FFD6D6D6FF000000FF000000FF000000FFD6D6D6FFD6D6D6FFD6
310
D6D6FFD6D6D6FFD6D6D6FFD6D6D6FFD6D6D6FFD6D6D6FF000000FF000000FFD6D6D6FFD6D6D6FFD6D6D6FFD6D6D6FFD6D6D6FFD6D6D6FFD6D6D6FFD6D6D6FFD6D6D6FFD6D6D6FFD6D6D6FFD6D6D6FFD6D6D6FFD6D6D6FFD6D6D6FFD6D6D6FFD6D6D6FFD6D6D6FFD6D6D6FFD6D6D6FF000000FF000000FF000000FF000000FF
310
000000FF000000FFD6D6D6FFD6D6D6FF000000FF000000FF000000FF000000FFD6D6D6FFD6D6D6FFD6D6D6FFD6D6D6FFD6D6D6FFD6D6D6FFD6D6D6FFD6D6D6FFD6D6D6FFD6D6D6FFD6D6D6FFD6D6D6FFD6D6D6FFD6D6D6FFD6D6D6FFD6D6D6FFD6D6D6FFD6D6D6FFD6D6D6FFD6D6D6FFD6D6D6FFD6D6D6FF000000FF000000
310
FF000000FF000000FF000000FF000000FF000000FF000000FF000000FFD6D6D6FFD6D6D6FFD6D6D6FFD6D6D6FFD6D6D6FFD6D6D6FFD6D6D6FFD6D6D6FFD6D6D6FFD6D6D6FFD6D6D6FFD6D6D6FFD6D6D6FFD6D6D6FFD6D6D6FFD6D6D6FFD6D6D6FFD6D6D6FFD6D6D6FFD6D6D6FFD6D6D6FFD6D6D6FFD6D6D6FFD6D6D6FF0000
310
00FF000000FF000000FF000000FF000000FF000000FFD6D6D6FFD6D6D6FFD6D6D6FFD6D6D6FFD6D6D6FFD6D6D6FFD6D6D6FFD6D6D6FFD6D6D6FFD6D6D6FFD6D6D6FFD6D6D6FFD6D6D6FFD6D6D6FFD6D6D6FFD6D6D6FFD6D6D6FFD6D6D6FFD6D6D6FFD6D6D6FFD6D6D6FFD6D6D6FFD6D6D6FFD6D6D6FFD6D6D6FFD6D6D6FFD6
310
D6D6FF000000FF000000FFD6D6D6FFD6D6D6FFD6D6D6FFD6D6D6FFD6D6D6FFD6D6D6FFD6D6D6FFD6D6D6FFD6D6D6FFD6D6D6FFD6D6D6FFD6D6D6FFD6D6D6FFD6D6D6FFD6D6D6FFD6D6D6FFD6D6D6FFD6D6D6FFD6D6D6FFD6D6D6FFD6D6D6FFD6D6D6FFD6D6D6FFD6D6D6FFD6D6D6FFD6D6D6FFD6D6D6FFD6D6D6FFD6D6D6FF
310
D6D6D6FFD6D6D6FFD6D6D6FFD6D6D6FFD6D6D6FFD6D6D6FFD6D6D6FFD6D6D6FFD6D6D6FFD6D6D6FFD6D6D6FFD6D6D6FFD6D6D6FFD6D6D6FFD6D6D6FFD6D6D6FFD6D6D6FFD6D6D6FF
102
{BLKREFS
331
182C
102
}
 70
     0
280
     1
281
     0
1001
AcDbDynamicBlockGUID
1000
{7C44CC41-EA5A-3A40-8068-13291E0494A3}
  0
ENDTAB
  0
ENDSEC
  0
SECTION
  2
BLOCKS
  0
BLOCK
  5
70
330
6F
100
AcDbEntity
  8
0
100
AcDbBlockBegin
  2
*Model_Space
 70
     0
 10
0.0
 20
0.0
 30
0.0
  3
*Model_Space
  1

  0
ENDBLK
  5
71
330
6F
100
AcDbEntity
  8
0
100
AcDbBlockEnd
  0
BLOCK
  5
6C
330
6B
100
AcDbEntity
 67
     1
  8
0
100
AcDbBlockBegin
  2
*Paper_Space
 70
     0
 10
0.0
 20
0.0
 30
0.0
  3
*Paper_Space
  1

  0
ENDBLK
  5
6D
330
6B
100
AcDbEntity
 67
     1
  8
0
100
AcDbBlockEnd
  0
BLOCK
  5
17EA
330
17E9
100
AcDbEntity
  8
0
100
AcDbBlockBegin
  2
Gingko
 70
     0
 10
0.0
 20
0.0
 30
0.0
  3
Gingko
  1

  0
LWPOLYLINE
  5
1830
330
17E9
100
AcDbEntity
  8
0
  6
ByBlock
 62
     0
370
    -2
100
AcDbPolyline
 90
       72
 70
     0
 43
0.0
 10
-320.346186796078
 20
4450.534513577479
 10
-317.1830528431192
 20
4440.920326049691
 10
-313.8566186311209
 20
4425.792131699282
 10
-309.8660261624234
 20
4409.876067503403
 10
-307.3853338751299
 20
4406.933801298829
 10
-303.8098012411924
 20
4405.800294067112
 10
-300.2083223578807
 20
4404.874709513423
 10
-298.3138052997406
 20
4402.571408775377
 10
-297.9055586599043
 20
4388.834092098813
 10
-297.8384046045258
 20
4360.87908842594
 10
-295.9634614546255
 20
4355.771067865545
 10
-292.5244492159154
 20
4354.42663213451
 10
-287.3423331568428
 20
4352.771370435523
 10
-282.2089915579018
 20
4348.793851285557
 10
-279.6167873085137
 20
4345.03747241177
 10
-278.3272659285635
 20
4339.986626580071
 10
-278.9288630248152
 20
4319.487566624631
 10
-279.4353719665005
 20
4299.743152169999
 10
-277.6366003358489
 20
4286.887006031744
 10
-276.3044043091054
 20
4279.897814259737
 10
-277.4895635738692
 20
4274.430281442021
 10
-280.9927320621919
 20
4270.868262980602
 10
-286.6145556906017
 20
4269.595622293016
 10
-289.1600534849063
 20
4270.148837689786
 10
-290.8797840389175
 20
4272.07233086516
 10
-292.6318973076259
 20
4281.613344679466
 10
-294.5345901996745
 20
4291.538927277367
 10
-296.6031803803569
 20
4293.604343310769
 10
-299.8623322886012
 20
4294.535939507038
 10
-303.0724291933941
 20
4295.412132405289
 10
-305.0479751779871
 20
4297.259365890658
 10
-306.4480386416956
 20
4305.846740819236
 10
-307.3504342860729
 20
4313.341912508381
 10
-310.2739201192282
 20
4302.821097139839
 10
-312.3787885589995
 20
4297.328644059748
 10
-315.0329367735303
 20
4295.044925245464
 10
-326.6038899144917
 20
4288.973855574823
 10
-331.7421770913952
 20
4285.603720729032
 10
-336.0194287248707
 20
4284.342430022637
 10
-341.5235443915674
 20
4285.077325273692
 10
-350.3424316836567
 20
4287.695732269205
 10
-362.0176587690469
 20
4292.698284572178
 10
-368.5075796170354
 20
4298.00835243192
 10
-371.4018248206826
 20
4302.076270655242
 10
-374.0230132028287
 20
4303.280603052074
 10
-376.116130885237
 20
4301.645219851219
 10
-377.4261479586225
 20
4297.193975250436
 10
-379.5182957626948
 20
4292.443791702964
 10
-383.279491966068
 20
4289.918300655166
 10
-387.2057037504971
 20
4290.906494462443
 10
-388.1116743183286
 20
4295.435858354671
 10
-386.0713548888186
 20
4302.729640017393
 10
-381.1587127122691
 20
4312.011127213764
 10
-375.7611634297048
 20
4323.944814852469
 10
-373.8257752175455
 20
4336.091114250417
 10
-375.3801294919467
 20
4346.80270709235
 10
-377.4745697357225
 20
4351.105704587114
 10
-380.4517916380187
 20
4354.432291094057
 10
-383.5850116575
 20
4357.55230153091
 10
-385.4550493070549
 20
4361.168577070491
 10
-386.3164375335141
 20
4372.735995365617
 10
-385.1151991287304
 20
4382.383928247086
 10
-381.9320904913593
 20
4391.019195928217
 10
-376.2019290481366
 20
4399.742474056716
 10
-367.3595322257981
 20
4409.654446295816
 10
-352.5749072565897
 20
4426.185894288262
 10
-342.4814315047186
 20
4441.635735563265
 10
-335.4376299715154
 20
4454.103064690499
 10
-332.4242660740292
 20
4456.115858812518
 10
-328.0509644231745
 20
4455.989854784045
 10
-323.59813274875
 20
4454.0283119189
 10
-320.346186796078
 20
4450.534513577479
  0
LWPOLYLINE
  5
1831
330
17E9
100
AcDbEntity
  8
0
  6
ByBlock
 62
     0
370
    -2
100
AcDbPolyline
 90
       99
 70
     0
 43
0.0
 10
-1025.851767700459
 20
3298.72733686895
 10
-1025.217651625612
 20
3295.733506802086
 10
-1023.722508022861
 20
3295.721491532449
 10
-1020.364612881361
 20
3295.53274198649
 10
-1015.259197366084
 20
3292.11617321341
 10
-1003.252784883208
 20
3284.263645442747
 10
-999.2579522026115
 20
3282.009263444253
 10
-1004.081301448041
 20
3279.114409060826
 10
-1007.548456189549
 20
3276.99424700233
 10
-1009.393493421495
 20
3273.825902959136
 10
-1009.73670210414
 20
3258.913318173735
 10
-1008.908185539308
 20
3241.726553046943
 10
-999.0112343911341
 20
3241.893388151819
 10
-983.4588825868605
 20
3243.307238315844
 10
-979.983327576788
 20
3243.306180266749
 10
-978.3467500629413
 20
3241.334914571674
 10
-978.5388180356058
 20
3237.348923013432
 10
-980.5491754384982
 20
3231.303647297219
 10
-980.8786936071086
 20
3228.689440435989
 10
-979.5396924009649
 20
3225.990397274671
 10
-971.0226536905713
 20
3219.285924910769
 10
-962.2327906088573
 20
3214.654547451723
 10
-954.4675278418838
 20
3212.407187051763
 10
-948.0272230839878
 20
3212.587584422298
 10
-943.2122260139822
 20
3215.239480274743
 10
-939.0472398018046
 20
3217.455163326069
 10
-935.1529217851428
 20
3216.359256914808
 10
-932.2718060088901
 20
3212.495734539202
 10
-931.1464265179406
 20
3206.408577713018
 10
-932.7695299368853
 20
3198.864976231248
 10
-938.9226064278391
 20
3194.362568544349
 10
-945.0785043830437
 20
3190.893690465302
 10
-948.9609353784445
 20
3187.35270473739
 10
-951.7214816511154
 20
3184.814485038369
 10
-955.1818793063633
 20
3183.758696321924
 10
-958.6422769616108
 20
3182.700783491767
 10
-961.4028232342818
 20
3180.156207482659
 10
-966.1429312687895
 20
3175.163329916477
 10
-973.0960692163646
 20
3170.892306344713
 10
-981.0894457649114
 20
3167.912311071308
 10
-988.9502776178579
 20
3166.792494353625
 10
-996.6394089432
 20
3165.452739688278
 10
-1002.523235986287
 20
3160.964960331656
 10
-1007.179132931536
 20
3152.626379235127
 10
-1011.184481978886
 20
3139.734227365581
 10
-1013.327127580629
 20
3132.651991397485
 10
-1015.961533560927
 20
3127.73346582673
 10
-1019.791518986462
 20
3124.040754255626
 10
-1025.520926970481
 20
3120.635944255433
 10
-1035.354603576621
 20
3116.753865943064
 10
-1038.678609085017
 20
3116.888927513025
 10
-1041.780199849005
 20
3118.286121419342
 10
-1046.052505904518
 20
3120.10893160479
 10
-1047.082139967979
 20
3117.242700655564
 10
-1048.776196800413
 20
3112.427743663176
 10
-1054.000819180286
 20
3112.10406079563
 10
-1062.969660884888
 20
3116.33050202602
 10
-1075.8964077536
 20
3125.165917327443
 10
-1100.650452218402
 20
3145.474111638736
 10
-1107.811817433896
 20
3152.665879734638
 10
-1109.076642986128
 20
3155.659838049876
 10
-1090.91149505275
 20
3156.674980046958
 10
-1077.418723980812
 20
3157.77822867769
 10
-1068.326298935815
 20
3159.679414651332
 10
-1062.893801971054
 20
3162.626145502463
 10
-1060.380815139822
 20
3166.866012734616
 10
-1056.592758917401
 20
3171.254255321162
 10
-1048.102940924609
 20
3174.054029565547
 10
-1037.905543911341
 20
3176.710301893789
 10
-1028.721878163029
 20
3180.323042587535
 10
-1022.427071186612
 20
3184.293484030304
 10
-1023.042310703758
 20
3185.501575707629
 10
-1025.894177834979
 20
3186.815440232266
 10
-1039.085404915111
 20
3189.2161616422
 10
-1043.183493568659
 20
3190.062969631523
 10
-1047.580873851928
 20
3192.504065233024
 10
-1058.220455231277
 20
3202.845669528498
 10
-1065.570746334248
 20
3212.701669367417
 10
-1068.590690976478
 20
3220.390496102869
 10
-1067.326129936519
 20
3226.260223840226
 10
-1061.822944070542
 20
3230.658934700385
 10
-1049.098292594318
 20
3239.498325701433
 10
-1038.285167116974
 20
3246.720272243087
 10
-1034.59748929459
 20
3249.64517682389
 10
-1032.129261146246
 20
3254.434235660045
 10
-1031.787463195725
 20
3258.859942803149
 10
-1034.654399511013
 20
3258.969867691603
 10
-1037.162769400744
 20
3258.679922162214
 10
-1039.233900502357
 20
3259.729154180485
 10
-1041.851954814838
 20
3264.889307705332
 10
-1042.083603442249
 20
3272.538722112031
 10
-1039.503903409427
 20
3280.765783230942
 10
-1036.327335439183
 20
3289.493125229825
 10
-1035.333041818568
 20
3297.794193676657
 10
-1034.75053769915
 20
3303.94727016761
 10
-1033.302669653647
 20
3304.923977729798
 10
-1030.885075566871
 20
3304.815375402713
 10
-1027.339841611537
 20
3302.626031361409
 10
-1025.851767700459
 20
3298.72733686895
  0
LWPOLYLINE
  5
1832
330
17E9
100
AcDbEntity
  8
0
  6
ByBlock
 62
     0
370
    -2
100
AcDbPolyline
 90
      111
 70
     0
 43
0.0
 10
180.1398024056011
 20
2518.191559083113
 10
181.3857594156552
 20
2509.917711353883
 10
184.3813528976757
 20
2499.45521693389
 10
187.3769463796957
 20
2488.577406182387
 10
188.6229033897507
 20
2479.305024620643
 10
188.9001924076269
 20
2474.992031768149
 10
190.0968459330033
 20
2472.536572348645
 10
192.7600035958808
 20
2471.433636323326
 10
197.4368451038772
 20
2471.178213653393
 10
204.3594118450533
 20
2470.133734840521
 10
205.1921205286453
 20
2468.402253529147
 10
204.7605887932159
 20
2465.486053806799
 10
205.0076592877244
 20
2460.500462351424
 10
208.6712985553127
 20
2456.903985154738
 10
213.0780008923407
 20
2453.750389674673
 10
213.440919747125
 20
2451.1778875819
 10
209.7648243561121
 20
2449.192843202031
 10
202.0544759402246
 20
2447.801612845152
 10
191.5145836258966
 20
2447.852864102026
 10
188.1142302567364
 20
2449.31226648576
 10
185.2098694625083
 20
2451.910265958595
 10
180.1942358252809
 20
2455.679942585768
 10
174.6059892245598
 20
2454.277049642286
 10
170.3487122754968
 20
2450.659090842781
 10
169.1824616305275
 20
2445.747995662256
 10
171.1337526411917
 20
2439.156189495824
 10
176.2290926435053
 20
2430.496089723077
 10
182.5051753571656
 20
2422.868718005839
 10
184.4889853464251
 20
2422.186492759306
 10
185.9733480701507
 20
2423.395730656483
 10
188.239392655249
 20
2425.458894327797
 10
190.4015239944742
 20
2425.098011415966
 10
190.9525751999144
 20
2422.703654331643
 10
189.3467933271231
 20
2419.872419157755
 10
187.6392143066464
 20
2415.746099830652
 10
188.9452636959295
 20
2409.537171172369
 10
190.3730769017866
 20
2403.930023967378
 10
190.2622622902308
 20
2399.242225238838
 10
188.7273536756943
 20
2396.025186890748
 10
185.8828608260382
 20
2394.83030479605
 10
183.8239453821475
 20
2396.906894469126
 10
182.9675027336507
 20
2401.899555616175
 10
181.7088250878973
 20
2407.355602188803
 10
177.4534878955064
 20
2408.968806436299
 10
172.8005086007897
 20
2410.321506172001
 10
169.360606638977
 20
2413.572305904822
 10
166.930909111808
 20
2416.279116108352
 10
164.810835224072
 20
2414.986156068847
 10
160.9552722632411
 20
2412.733890168541
 10
154.4529754470618
 20
2411.796506764349
 10
147.3003070744994
 20
2413.325940776376
 10
143.379698140955
 20
2418.865757584474
 10
140.0754428823143
 20
2423.271273624033
 10
135.3370100922056
 20
2425.852648901253
 10
131.0852959164094
 20
2426.022177222006
 10
129.742238855405
 20
2425.01884209095
 10
129.2411965007063
 20
2423.192136361111
 10
126.2233358945705
 20
2421.437193612629
 10
118.9681650082598
 20
2421.071365122836
 10
110.8392299272987
 20
2420.891096000675
 10
111.0947808456067
 20
2419.445792922672
 10
113.6492560261636
 20
2416.609251472268
 10
116.3870462277882
 20
2412.907041505888
 10
116.6596942575943
 20
2410.076207108173
 10
114.5236774937361
 20
2408.25750888625
 10
110.0354572833244
 20
2407.591715462769
 10
109.4676616494184
 20
2406.74910760773
 10
111.3761417493906
 20
2404.481596181842
 10
121.1596251477508
 20
2397.055702661786
 10
129.6544368116451
 20
2391.080330325493
 10
134.6332711807608
 20
2386.313274101181
 10
137.2256918492817
 20
2381.293841105843
 10
138.5612944734875
 20
2374.561346471995
 10
138.7790281522061
 20
2360.31822621981
 10
136.1340657275373
 20
2358.391671114481
 10
132.1000050752254
 20
2358.340948882154
 10
127.1646068276309
 20
2360.074866912654
 10
121.8156556636822
 20
2363.502216564759
 10
114.4823654859274
 20
2367.344353523828
 10
105.83631692577
 20
2366.329916892809
 10
96.03551198125661
 20
2363.725601187504
 10
95.30879256410935
 20
2358.070200531404
 10
94.52162808470257
 20
2354.345234493979
 10
91.84486006302449
 20
2352.718780586236
 10
86.80554055403263
 20
2353.115540980983
 10
78.93075367477741
 20
2355.460233882074
 10
72.54408078421739
 20
2358.75618505843
 10
69.54031146828857
 20
2363.283769504454
 10
69.80519245588038
 20
2369.48995685372
 10
73.22445444483538
 20
2377.821684677709
 10
76.83860587070558
 20
2386.210410888878
 10
78.34259059581109
 20
2392.539868973124
 10
80.74755221764508
 20
2401.203944445498
 10
86.52878056070267
 20
2415.203881732042
 10
106.4584177309803
 20
2462.96657440158
 10
115.3661571004009
 20
2484.703062850137
 10
121.9206349741735
 20
2497.506579061484
 10
127.5403825820126
 20
2503.576101736102
 10
133.6439231381087
 20
2505.11061758999
 10
138.5231245508666
 20
2505.941258268534
 10
140.551997812905
 20
2507.93831791804
 10
142.1446983514424
 20
2509.935377567545
 10
145.9726959271638
 20
2510.766018246089
 10
150.0763954471203
 20
2511.388463718807
 10
152.3350256730368
 20
2512.886789484365
 10
155.8172495986114
 20
2516.220742257349
 10
162.3570991421065
 20
2520.142673752262
 10
169.5999902465073
 20
2523.422008748528
 10
175.1913308392759
 20
2524.828172025574
 10
178.9200000485307
 20
2523.229812527488
 10
180.1398024056011
 20
2518.191559083113
  0
LWPOLYLINE
  5
1833
330
17E9
100
AcDbEntity
  8
0
  6
ByBlock
 62
     0
370
    -2
100
AcDbPolyline
 90
       78
 70
     0
 43
0.0
 10
1517.545919384984
 20
2840.24117555795
 10
1537.102289659716
 20
2830.392293503845
 10
1542.624792937184
 20
2837.413475229901
 10
1547.176944962551
 20
2842.1838098033
 10
1550.924795319398
 20
2844.161079125433
 10
1553.511524966276
 20
2843.282722035852
 10
1554.580306846217
 20
2839.486177374108
 10
1555.277689447575
 20
2836.988965093006
 10
1557.342969217076
 20
2840.970724454871
 10
1558.962048843253
 20
2844.131654138886
 10
1560.934500835799
 20
2845.811747929487
 10
1567.768704446574
 20
2845.528976293577
 10
1577.730685536416
 20
2842.463751959436
 10
1579.414009582963
 20
2838.10948717675
 10
1579.789608995829
 20
2830.109882566491
 10
1578.959016410427
 20
2822.064148618835
 10
1577.023764462165
 20
2817.571503839484
 10
1575.02670481266
 20
2811.034211247966
 10
1574.196064134115
 20
2797.771942583588
 10
1573.084423250341
 20
2782.241505220398
 10
1571.236388212629
 20
2778.319132871698
 10
1568.119335503926
 20
2775.461390361796
 10
1561.743579756291
 20
2772.63651951352
 10
1554.23532673289
 20
2775.240827203302
 10
1548.295391025725
 20
2779.149068184179
 10
1544.974607757752
 20
2782.872791815472
 10
1542.977107254458
 20
2784.650666976515
 10
1540.58672586976
 20
2782.254586554653
 10
1538.22497593479
 20
2776.413842950054
 10
1536.313361765153
 20
2767.857704516322
 10
1534.391455663419
 20
2760.365578726083
 10
1531.947041635214
 20
2755.727219746121
 10
1529.845659948139
 20
2754.970418069504
 10
1528.952858885319
 20
2759.122940142733
 10
1527.395146106597
 20
2764.938811578098
 10
1523.650918766345
 20
2771.183080679226
 10
1518.34615718312
 20
2777.732035857348
 10
1516.731534187975
 20
2769.373351828032
 10
1513.304368892909
 20
2748.999774892041
 10
1511.247305034932
 20
2741.294684659529
 10
1508.23641793419
 20
2737.383934819816
 10
1504.698526198326
 20
2737.513786299541
 10
1501.060424388418
 20
2741.930516056392
 10
1498.582649751657
 20
2750.349997831
 10
1496.329678485287
 20
2763.647262270717
 10
1493.106059392452
 20
2778.966498606791
 10
1487.837744394308
 20
2793.983533678136
 10
1481.695136176966
 20
2805.932867618597
 10
1475.848645442062
 20
2812.04900857754
 10
1457.553421594302
 20
2816.053027047999
 10
1447.008575686488
 20
2816.757126657999
 10
1444.784636646019
 20
2815.924193539752
 10
1444.121849043829
 20
2814.237647252781
 10
1442.875892033773
 20
2811.599049153723
 10
1439.880298551753
 20
2810.502253019361
 10
1436.884705069733
 20
2811.236394811212
 10
1435.638748059679
 20
2812.999112617431
 10
1434.014939274672
 20
2815.188809341766
 10
1430.11342331796
 20
2816.943752090248
 10
1425.117451759731
 20
2820.409544192772
 10
1422.478981909048
 20
2826.344446151217
 10
1422.595936411559
 20
2832.794690158178
 10
1425.866213866338
 20
2837.806524437295
 10
1432.114899520882
 20
2840.883948398113
 10
1438.30314812869
 20
2841.53414361298
 10
1443.338756450329
 20
2839.856783115871
 10
1446.129513230844
 20
2835.951555971808
 10
1447.945341895375
 20
2831.84573233814
 10
1450.081935776921
 20
2830.456626094973
 10
1451.86117357695
 20
2831.793775715203
 10
1452.604950027977
 20
2835.866727687244
 10
1453.286029054658
 20
2838.709537276978
 10
1455.540459146292
 20
2841.121296062689
 10
1466.036522578451
 20
2845.565735484072
 10
1479.849137082208
 20
2848.938876151154
 10
1491.583382466685
 20
2849.326226321382
 10
1503.421549112559
 20
2846.502189087545
 10
1517.545919384984
 20
2840.24117555795
  0
LWPOLYLINE
  5
1834
330
17E9
100
AcDbEntity
  8
0
  6
ByBlock
 62
     0
370
    -2
100
AcDbPolyline
 90
       98
 70
     0
 43
0.0
 10
-405.1941655006917
 20
2597.194682219605
 10
-404.3814234859885
 20
2587.636611371419
 10
-402.1448439650546
 20
2579.95277830707
 10
-398.7869087459383
 20
2574.835083009884
 10
-394.6100836056398
 20
2572.975425463183
 10
-387.974176029242
 20
2570.898835790108
 10
-379.1369091419051
 20
2565.906174643059
 10
-370.5000463716101
 20
2560.91351349601
 10
-364.342376985725
 20
2558.836923822934
 10
-361.2071691164303
 20
2557.219126680507
 10
-359.9509602518963
 20
2553.181523166835
 10
-361.5578001737815
 20
2548.788687685358
 10
-367.1474575066274
 20
2547.526122510736
 10
-374.7845440382751
 20
2545.460441965062
 10
-381.6401250500642
 20
2540.200607390718
 10
-386.3887215238944
 20
2533.15243739724
 10
-387.7048384106176
 20
2525.721726547598
 10
-386.8383282646803
 20
2521.961195632669
 10
-385.0715465880774
 20
2519.252301393045
 10
-377.6240913099689
 20
2515.796496632727
 10
-371.133104397363
 20
2512.947234546624
 10
-368.4340612360456
 20
2509.417206039255
 10
-368.0641207827278
 20
2507.537710072041
 10
-366.7045677744843
 20
2506.785677631871
 10
-359.5183223742324
 20
2508.512341613659
 10
-351.5208819553016
 20
2510.125545861155
 10
-349.0833131841141
 20
2508.989513739554
 10
-346.7936708980087
 20
2506.411360702756
 10
-344.1034688590453
 20
2499.338222353763
 10
-342.984758283598
 20
2489.645923550054
 10
-341.8628655453449
 20
2479.84758738676
 10
-339.1673652453881
 20
2472.515715956654
 10
-335.6726371032473
 20
2464.965004705594
 10
-333.6346101134409
 20
2456.13096005868
 10
-333.4368992122747
 20
2448.792588039063
 10
-334.1480204208076
 20
2446.552730169043
 10
-335.4630792584369
 20
2445.728910700946
 10
-340.7915667910436
 20
2447.21425131853
 10
-346.0376146650717
 20
2451.119919316383
 10
-350.3616529088654
 20
2456.620419982008
 10
-352.9241275818153
 20
2462.890226540816
 10
-355.3725573872636
 20
2469.435999556133
 10
-358.5823497021658
 20
2473.002081887934
 10
-362.7073464679018
 20
2472.998058095168
 10
-368.2262267287747
 20
2471.216030892982
 10
-373.5584735418745
 20
2468.334915116729
 10
-377.1235859953399
 20
2465.033617586239
 10
-379.8703455676946
 20
2462.970109247417
 10
-384.1928368154645
 20
2461.479197841042
 10
-397.1097726834855
 20
2458.490321367664
 10
-403.0627897249058
 20
2457.981335629237
 10
-406.5429777075257
 20
2459.762785713734
 10
-407.1216824688333
 20
2463.901304667513
 10
-404.2016433107571
 20
2467.563709544491
 10
-398.5606465502792
 20
2470.179503479363
 10
-390.9764865199049
 20
2471.178213653393
 10
-382.1699671804827
 20
2472.136100766544
 10
-381.9042125008359
 20
2474.244063198363
 10
-383.545294738856
 20
2478.247464473517
 10
-386.9381776401699
 20
2482.851669308103
 10
-390.507089451746
 20
2483.931143896312
 10
-395.8669978362366
 20
2484.102924579151
 10
-403.5682406174965
 20
2486.45910372533
 10
-408.3182879010691
 20
2488.870517843534
 10
-411.4896858586946
 20
2491.744788362769
 10
-413.5407861672315
 20
2495.680498542474
 10
-414.9299405035383
 20
2501.276255688658
 10
-418.3776095075634
 20
2512.488442015977
 10
-423.8654696927239
 20
2524.135382319147
 10
-429.6629615328408
 20
2537.032880542827
 10
-433.8529080850102
 20
2551.255857784608
 10
-437.483675690971
 20
2563.835235914009
 10
-439.9146156242736
 20
2565.408458730587
 10
-443.6678524128713
 20
2565.125727172295
 10
-448.9697925318455
 20
2565.21691978247
 10
-450.4373707494874
 20
2568.926159362906
 10
-448.603427001982
 20
2576.768699791363
 10
-444.3443866377615
 20
2586.436695528002
 10
-439.5243878811299
 20
2594.325357278332
 10
-437.4865933415033
 20
2596.475946263803
 10
-436.0076170495299
 20
2596.829903763382
 10
-434.8433141767566
 20
2594.466302242498
 10
-435.7531241803157
 20
2591.01897790598
 10
-437.0008446055272
 20
2585.395743545444
 10
-436.7003987404325
 20
2577.776860267528
 10
-435.2483786537875
 20
2571.005931198787
 10
-433.5503461217274
 20
2575.797466831684
 10
-430.2578416204503
 20
2581.560323595018
 10
-423.4469711984081
 20
2584.371055059945
 10
-417.2564301508964
 20
2586.664673045678
 10
-416.0189535646414
 20
2588.433803270648
 10
-415.9139742541499
 20
2590.707935518898
 10
-415.6209106861438
 20
2595.676333676494
 10
-413.726401643527
 20
2600.974250002702
 10
-410.9279018673682
 20
2605.18898856887
 10
-407.9228981608302
 20
2606.90782939978
 10
-405.9954613479228
 20
2604.054327101777
 10
-405.1941655006917
 20
2597.194682219605
  0
LWPOLYLINE
  5
1835
330
17E9
100
AcDbEntity
  8
0
  6
ByBlock
 62
     0
370
    -2
100
AcDbPolyline
 90
       73
 70
     0
 43
0.0
 10
-1300.526089769128
 20
3295.93356625162
 10
-1295.577265519772
 20
3291.859203547453
 10
-1291.10985360821
 20
3290.679703242239
 10
-1286.176571458804
 20
3289.981615274819
 10
-1280.112924162867
 20
3287.063075019625
 10
-1275.136173829846
 20
3284.542529549788
 10
-1274.081443162496
 20
3284.778602746138
 10
-1273.976816535035
 20
3286.011165816525
 10
-1272.901229475694
 20
3289.023463649394
 10
-1269.301914783711
 20
3290.539022790346
 10
-1264.961396623725
 20
3290.276314009606
 10
-1261.662183129329
 20
3287.953800061874
 10
-1259.846971660102
 20
3281.962124150905
 10
-1259.273476989031
 20
3273.634676616432
 10
-1259.926854366703
 20
3265.888851493801
 10
-1261.792251028186
 20
3261.64204281835
 10
-1264.33117609327
 20
3261.543780516501
 10
-1266.740730610035
 20
3263.595986967272
 10
-1268.476580381684
 20
3264.507568401511
 10
-1269.056615719883
 20
3260.106605179267
 10
-1270.347155071309
 20
3254.94123354866
 10
-1273.281550031866
 20
3253.063861695157
 10
-1276.454014054109
 20
3254.562235553855
 10
-1278.458720512976
 20
3259.524101059848
 10
-1280.355754445476
 20
3264.277466770125
 10
-1284.956777117256
 20
3264.237878099855
 10
-1290.1314627861
 20
3264.012369363401
 10
-1294.737791734397
 20
3265.954290227164
 10
-1296.922278368495
 20
3266.728549713832
 10
-1298.082958224674
 20
3263.338664618284
 10
-1298.136686278291
 20
3237.30119858687
 10
-1297.33361900038
 20
3205.161562653869
 10
-1288.901416590073
 20
3205.062586970433
 10
-1282.599884589491
 20
3203.735777375442
 10
-1279.606767904214
 20
3199.811553440826
 10
-1279.873276043064
 20
3193.100620565032
 10
-1283.350642561434
 20
3183.413716208598
 10
-1287.390362173294
 20
3176.28804411898
 10
-1291.194681892774
 20
3172.938148469874
 10
-1294.424272550572
 20
3173.498433558317
 10
-1296.739804977388
 20
3178.103295665824
 10
-1299.554423971184
 20
3182.29076542125
 10
-1304.843988121967
 20
3183.761525801698
 10
-1312.790537982579
 20
3186.668756153317
 10
-1322.59063756103
 20
3193.658476949873
 10
-1334.492431431969
 20
3203.552598618272
 10
-1342.288401669241
 20
3195.994152387092
 10
-1348.908045748579
 20
3190.404855752801
 10
-1351.312566516624
 20
3190.54760420974
 10
-1354.034662323354
 20
3192.363384781132
 10
-1356.38079000314
 20
3195.496717017941
 10
-1357.681998016265
 20
3199.874242849649
 10
-1357.388669935985
 20
3210.997577099636
 10
-1353.63264374523
 20
3223.004743041717
 10
-1346.89189312224
 20
3233.16710420203
 10
-1341.128731769016
 20
3240.223987069486
 10
-1338.710296052279
 20
3245.976583962817
 10
-1339.655943461138
 20
3250.291300152849
 10
-1343.985015453652
 20
3253.034524879368
 10
-1347.564619973496
 20
3255.097287774511
 10
-1350.147991116054
 20
3258.98577850563
 10
-1353.197665334722
 20
3274.245106819516
 10
-1353.287799895803
 20
3278.188864584754
 10
-1351.846729014176
 20
3280.195294381161
 10
-1340.057344843957
 20
3280.42363259739
 10
-1326.224234646765
 20
3279.532907555142
 10
-1327.80774939544
 20
3289.279992461562
 10
-1328.02830453841
 20
3297.194015328055
 10
-1326.145057306227
 20
3302.270446710573
 10
-1321.082765307056
 20
3304.256284627262
 10
-1313.971809718474
 20
3303.576840767363
 10
-1306.542734035613
 20
3300.659983772092
 10
-1300.526089769128
 20
3295.93356625162
  0
LWPOLYLINE
  5
1836
330
17E9
100
AcDbEntity
  8
0
  6
ByBlock
 62
     0
370
    -2
100
AcDbPolyline
 90
       80
 70
     0
 43
0.0
 10
-1095.500855137925
 20
3388.328673268316
 10
-1081.006063480776
 20
3391.620119720501
 10
-1073.726501356638
 20
3392.009986765089
 10
-1066.160632750754
 20
3390.446623042341
 10
-1062.196018593525
 20
3388.543401125745
 10
-1059.831535365062
 20
3386.121654997828
 10
-1058.68967595792
 20
3382.533481883426
 10
-1058.392941280178
 20
3377.130987022899
 10
-1059.709234508417
 20
3368.466911550527
 10
-1063.341420862027
 20
3362.78889108728
 10
-1065.97117783873
 20
3359.752642870374
 10
-1059.099870369952
 20
3360.580454069143
 10
-1051.588082500716
 20
3361.033234957211
 10
-1050.098766183505
 20
3359.721141863256
 10
-1049.547891319581
 20
3357.178730045476
 10
-1045.987820630359
 20
3332.159235490918
 10
-1045.618096596174
 20
3324.351955350073
 10
-1048.323504083103
 20
3318.020733850668
 10
-1051.341012006207
 20
3312.120386813771
 10
-1052.647053379966
 20
3305.802238633098
 10
-1054.579788453868
 20
3299.617003862104
 10
-1059.099870369952
 20
3294.036179636088
 10
-1062.900342638181
 20
3289.869959033301
 10
-1065.337422462438
 20
3284.187658280539
 10
-1066.643600100096
 20
3276.136970739397
 10
-1067.051357793003
 20
3264.865621833569
 10
-1068.52384151099
 20
3258.945123770744
 10
-1071.885664258975
 20
3257.573691756763
 10
-1075.62339902524
 20
3260.434263746439
 10
-1078.223602767021
 20
3267.209785710112
 10
-1079.295566809768
 20
3271.592898361657
 10
-1080.939606775937
 20
3274.089581618213
 10
-1083.70553948036
 20
3275.14201984586
 10
-1088.143173722342
 20
3275.192389395155
 10
-1104.212999704366
 20
3272.7662186983
 10
-1108.315280476674
 20
3271.991830963255
 10
-1110.892736162933
 20
3272.507132934154
 10
-1112.525378054771
 20
3274.682473856008
 10
-1113.79324950591
 20
3278.888186942784
 10
-1118.509848010169
 20
3290.504379698039
 10
-1119.789734730944
 20
3293.060626309276
 10
-1118.645582884098
 20
3294.039009115863
 10
-1115.348838170921
 20
3297.025769491052
 10
-1111.146515650561
 20
3304.207421996373
 10
-1108.260366125588
 20
3309.89900472528
 10
-1106.024491970717
 20
3312.410228141356
 10
-1103.415895975895
 20
3312.233894641202
 10
-1099.411564900021
 20
3309.862822652473
 10
-1092.577986500074
 20
3306.458934437475
 10
-1086.551891931454
 20
3305.608190826145
 10
-1081.585120925115
 20
3307.291250360418
 10
-1077.929521227538
 20
3311.488747535668
 10
-1076.216643946067
 20
3317.14662498851
 10
-1079.597864260777
 20
3321.249971825436
 10
-1082.760292847673
 20
3325.222890064948
 10
-1082.64612774732
 20
3329.840520901296
 10
-1082.77407954799
 20
3334.761427082511
 10
-1087.071474191869
 20
3339.584776327941
 10
-1093.405525171047
 20
3344.363591325139
 10
-1083.675409127749
 20
3350.539287623241
 10
-1073.945293084451
 20
3356.71216245709
 10
-1083.842244232625
 20
3355.431209671698
 10
-1093.362577996457
 20
3355.140622900435
 10
-1100.638076250211
 20
3356.771188771701
 10
-1104.973119807687
 20
3360.029979981391
 10
-1105.672089482686
 20
3364.624061209872
 10
-1105.872501615251
 20
3368.991094721398
 10
-1109.710045679389
 20
3370.938321861677
 10
-1113.59247667479
 20
3372.378326678687
 10
-1115.260819708028
 20
3374.62846846528
 10
-1119.853009272978
 20
3382.43291912635
 10
-1122.155508458681
 20
3385.282181212455
 10
-1122.814673044277
 20
3387.454917089189
 10
-1118.945315367607
 20
3392.672020908076
 10
-1115.771224194105
 20
3395.553497382883
 10
-1113.547237060495
 20
3396.481999587105
 10
-1111.342334888196
 20
3395.431284696998
 10
-1108.225506614148
 20
3392.375117904343
 10
-1102.409274480229
 20
3388.518488878894
 10
-1095.500855137925
 20
3388.328673268316
  0
LWPOLYLINE
  5
1837
330
17E9
100
AcDbEntity
  8
0
  6
ByBlock
 62
     0
370
    -2
100
AcDbPolyline
 90
       34
 70
     0
 43
0.0
 10
1360.942213372452
 20
2796.852946790166
 10
1364.694576468996
 20
2777.983699246788
 10
1366.360090022461
 20
2763.845197606539
 10
1377.72744886805
 20
2763.845197606539
 10
1384.004100683876
 20
2763.391751430027
 10
1389.242902524715
 20
2761.636407905371
 10
1394.606297661902
 20
2757.986691601999
 10
1401.256737382296
 20
2751.850095027237
 10
1410.324819282606
 20
2741.184006311872
 10
1412.221813137489
 20
2737.050529122337
 10
1412.510989176627
 20
2733.470042894914
 10
1411.692099255445
 20
2730.224725780127
 10
1410.03604401964
 20
2728.418355433254
 10
1402.093742386451
 20
2728.015407054412
 10
1392.96062252895
 20
2727.140584810667
 10
1384.813660535774
 20
2721.500381587009
 10
1378.227906089539
 20
2717.039646606474
 10
1371.33648767245
 20
2715.590135378665
 10
1364.745691461972
 20
2717.147359210458
 10
1359.061795620043
 20
2721.706805362155
 10
1355.43032264802
 20
2724.506587622064
 10
1351.319553436389
 20
2725.671243177869
 10
1343.470167750915
 20
2728.246927433447
 10
1333.953585252054
 20
2735.178679964485
 10
1324.125776009071
 20
2745.273566448481
 10
1315.342718106758
 20
2757.338660578461
 10
1304.750155787906
 20
2774.497146938557
 10
1316.931891814981
 20
2785.742910293565
 10
1326.861089413954
 20
2793.26870128225
 10
1337.923321328761
 20
2799.190393658067
 10
1348.141478547739
 20
2802.637669901444
 10
1355.538484121316
 20
2802.740212492809
 10
1358.493783567005
 20
2800.533546905353
 10
1360.942213372452
 20
2796.852946790166
  0
LWPOLYLINE
  5
1838
330
17E9
100
AcDbEntity
  8
0
  6
ByBlock
 62
     0
370
    -2
100
AcDbPolyline
 90
       64
 70
     0
 43
0.0
 10
960.8169660093917
 20
3636.19074880988
 10
962.6765273698106
 20
3634.736604609523
 10
963.5032805194864
 20
3631.242277243553
 10
964.6488511139809
 20
3626.409597928841
 10
967.2407908510958
 20
3621.614311030974
 10
970.2473415536578
 20
3618.342262145514
 10
972.6367530600187
 20
3618.079328930118
 10
976.0117853906326
 20
3617.756527770149
 10
981.4959343884401
 20
3614.860695492862
 10
986.6068245062269
 20
3610.979771415868
 10
988.8620962278222
 20
3607.701670810212
 10
985.5798435810243
 20
3605.030201049527
 10
977.6870217740297
 20
3601.9642633338
 10
968.8611529610239
 20
3597.453864170031
 10
964.3600758510151
 20
3590.836199924981
 10
964.3507938748721
 20
3582.658185793999
 10
969.0003264945094
 20
3573.466696894809
 10
972.5777668230257
 20
3567.16463586968
 10
973.5299548990111
 20
3561.924030536067
 10
971.9027395165417
 20
3558.341861048722
 10
967.7420015317871
 20
3557.015139624487
 10
964.6357697797276
 20
3555.339021533512
 10
963.4127932753749
 20
3551.079796812252
 10
962.0516051003491
 20
3543.83072573928
 10
958.7732399824199
 20
3535.547235335352
 10
954.7854769934966
 20
3528.737695490201
 10
951.2960952054905
 20
3525.910436015941
 10
947.6451845891251
 20
3524.518500293
 10
943.067487090555
 20
3521.171209689011
 10
938.1943053359
 20
3518.107043403964
 10
934.3751408670099
 20
3519.884605959593
 10
932.978604233615
 20
3522.081684981017
 10
932.9414923600884
 20
3524.921095988811
 10
937.3527074368139
 20
3534.523612914471
 10
942.0233609607153
 20
3544.004534349549
 10
941.2822376479466
 20
3545.416308493003
 10
938.6138618793102
 20
3545.704338312289
 10
934.0598502525049
 20
3546.603191095305
 10
930.3795948048264
 20
3548.763911702405
 10
926.4815255231948
 20
3549.855185141118
 10
921.4843596519726
 20
3548.255984013071
 10
917.1753825767224
 20
3544.91509781231
 10
915.3418876985293
 20
3540.781316032885
 10
914.5112470199851
 20
3538.267487571691
 10
912.5141873704802
 20
3537.221237328139
 10
910.5171277209743
 20
3538.051878006684
 10
909.6864870424296
 20
3540.048937656189
 10
908.510160884497
 20
3542.045997305694
 10
905.6796390921963
 20
3542.876637984238
 10
902.3756483458296
 20
3543.791401581284
 10
900.6314864763735
 20
3546.981748236321
 10
901.2288353452026
 20
3562.865654152159
 10
902.7901230473789
 20
3570.712474870133
 10
906.1543344213488
 20
3577.59832249843
 10
912.834912509877
 20
3585.7974655492
 10
924.3452843246805
 20
3597.584156503544
 10
941.6479859825054
 20
3616.385889292989
 10
944.2712904628402
 20
3621.724805021591
 10
944.291882342557
 20
3626.40125376894
 10
944.2932129194472
 20
3631.891935418351
 10
946.3002599111591
 20
3635.927775516866
 10
949.8438106065718
 20
3637.993407969399
 10
954.4546362635182
 20
3637.573490727435
 10
960.8169660093917
 20
3636.19074880988
  0
LWPOLYLINE
  5
1839
330
17E9
100
AcDbEntity
  8
0
  6
ByBlock
 62
     0
370
    -2
100
AcDbPolyline
 90
       69
 70
     0
 43
0.0
 10
982.2763818592047
 20
3593.353915915044
 10
981.6316692623699
 20
3586.681954514213
 10
982.3103115699254
 20
3579.1701746605
 10
984.3724171921449
 20
3573.380105195089
 10
985.7849367792791
 20
3573.037289273092
 10
987.6857700698897
 20
3574.179276928609
 10
991.4986583839263
 20
3576.158718457594
 10
994.5358764791695
 20
3574.537338376189
 10
997.2125643456129
 20
3568.778858088653
 10
999.9438539577285
 20
3558.346982968199
 10
1003.758064833133
 20
3545.275587963493
 10
1005.796003652182
 20
3544.903787908737
 10
1008.952909543427
 20
3547.386820728875
 10
1017.148645996736
 20
3551.474970133358
 10
1029.202069524586
 20
3554.379723688235
 10
1051.752975232246
 20
3558.443129171859
 10
1058.651150735594
 20
3558.634708197596
 10
1061.854939423439
 20
3555.560290058068
 10
1061.016523687159
 20
3550.426595776096
 10
1055.788109964698
 20
3544.440354390018
 10
1050.460367875771
 20
3539.259657078594
 10
1048.243803116867
 20
3535.255983275642
 10
1043.754693183353
 20
3528.86352317716
 10
1033.256641901381
 20
3518.701923491573
 10
1021.203522963421
 20
3508.744968134929
 10
1012.04924212404
 20
3502.966473085365
 10
1004.547177084735
 20
3500.83960203375
 10
998.6897692069064
 20
3500.864786808398
 10
994.2935752211068
 20
3503.081792421092
 10
991.1751518578952
 20
3507.530383883617
 10
988.3851405210599
 20
3512.528303214043
 10
986.1733049209842
 20
3514.327820288374
 10
984.7678951031417
 20
3512.905353436652
 10
984.3971611130031
 20
3508.237304957868
 10
983.2568887795028
 20
3503.347507023122
 10
978.9651450796482
 20
3501.863673323944
 10
974.835643589739
 20
3500.535004127515
 10
973.278636177079
 20
3496.985890658835
 10
971.8361144857098
 20
3491.83669435453
 10
968.3086028527004
 20
3487.366404870053
 10
963.794396315297
 20
3484.56782493866
 10
959.3918059417937
 20
3484.433725231512
 10
956.3842773453716
 20
3486.847552022271
 10
954.996982610503
 20
3490.802283039098
 10
955.0684570330155
 20
3495.824625669445
 10
956.4372118621676
 20
3501.44128730076
 10
962.4206718616123
 20
3512.564357038475
 10
966.712415561467
 20
3517.124171904251
 10
971.6555407736581
 20
3520.385111274222
 10
976.3929956699062
 20
3523.38423960208
 10
976.3274767813099
 20
3524.423997271645
 10
974.7235945875736
 20
3525.291172706028
 10
968.5097203513292
 20
3529.392796205414
 10
966.4610567619179
 20
3535.901761937095
 10
968.5775877882933
 20
3544.732448079689
 10
974.8593214459802
 20
3555.799224796285
 10
980.5705742694081
 20
3565.487636071126
 10
980.7548110756719
 20
3567.653037743915
 10
979.2620560989057
 20
3568.325940936686
 10
975.0944648416103
 20
3570.094045174657
 10
970.8553029755208
 20
3574.490327331214
 10
967.5641210356111
 20
3580.152709508229
 10
966.2404936034246
 20
3585.7191218231
 10
967.4942256712157
 20
3590.39892907477
 10
970.6884678706446
 20
3594.830327239516
 10
974.9727891957942
 20
3598.134013395993
 10
979.4967506252232
 20
3599.430644545233
 10
982.4612438762969
 20
3597.9977094199
 10
982.2763818592047
 20
3593.353915915044
  0
LWPOLYLINE
  5
183A
330
17E9
100
AcDbEntity
  8
0
  6
ByBlock
 62
     0
370
    -2
100
AcDbPolyline
 90
       80
 70
     0
 43
0.0
 10
-1703.227382086323
 20
3206.238913128367
 10
-1704.105378477349
 20
3200.184098939261
 10
-1706.383093664577
 20
3195.753798901226
 10
-1708.189287669933
 20
3192.273258235574
 10
-1706.139910698936
 20
3188.243429779639
 10
-1704.156982417255
 20
3184.437699328034
 10
-1704.333011327516
 20
3181.236387436931
 10
-1704.500327363799
 20
3180.217269740223
 10
-1703.389616280745
 20
3179.82112654078
 10
-1697.532392759954
 20
3180.908376186727
 10
-1690.498490398199
 20
3181.94295582815
 10
-1686.874792483912
 20
3179.726399084769
 10
-1683.110943142281
 20
3175.809677680093
 10
-1677.365231583585
 20
3172.219556793495
 10
-1671.174161511526
 20
3169.737541944835
 10
-1666.074228614282
 20
3169.145138653968
 10
-1661.825961113565
 20
3168.351265181442
 10
-1657.953068591057
 20
3165.483270817061
 10
-1652.451694233377
 20
3161.965914852249
 10
-1644.886306558899
 20
3161.21639928644
 10
-1636.115328050409
 20
3162.818502033971
 10
-1626.99717317517
 20
3166.355968947093
 10
-1618.390256400447
 20
3171.412577940145
 10
-1611.152992193501
 20
3177.572082880898
 10
-1606.143803037118
 20
3184.418261683692
 10
-1604.221111414087
 20
3191.534868216299
 10
-1603.584165859466
 20
3194.871009227183
 10
-1601.880434290241
 20
3197.0575879129
 10
-1599.267886642362
 20
3198.119428349541
 10
-1595.90448483626
 20
3198.081354613202
 10
-1587.556982462142
 20
3194.804712832812
 10
-1578.101638562361
 20
3187.42622311838
 10
-1571.166263014728
 20
3179.374525621285
 10
-1567.954434756872
 20
3172.15947242979
 10
-1568.377622332401
 20
3165.334638965916
 10
-1572.34727023835
 20
3158.453608667205
 10
-1575.395397460995
 20
3155.191106270163
 10
-1578.506358371884
 20
3153.767044329276
 10
-1590.020393280899
 20
3155.614598435582
 10
-1604.544834359251
 20
3158.871265531561
 10
-1613.614375084828
 20
3159.198354996568
 10
-1618.910527995878
 20
3156.294964080677
 10
-1622.11479761513
 20
3149.860222096048
 10
-1625.925473644698
 20
3142.476394043005
 10
-1630.645967693348
 20
3138.982058661512
 10
-1639.697569677466
 20
3139.347277971524
 10
-1652.605536174758
 20
3141.71927174545
 10
-1664.166277538857
 20
3144.914131140185
 10
-1669.176212138919
 20
3147.747931281572
 10
-1670.006852817463
 20
3148.938044139821
 10
-1672.003912466968
 20
3148.412442221302
 10
-1674.000972116474
 20
3144.735721619461
 10
-1674.831612795018
 20
3138.348655968252
 10
-1675.873270143639
 20
3132.231985984761
 10
-1678.77060132381
 20
3130.032390088979
 10
-1681.925383101345
 20
3131.155693559358
 10
-1684.236899750917
 20
3134.452790955566
 10
-1685.658212367265
 20
3139.814462755214
 10
-1686.142414107217
 20
3147.131497451433
 10
-1687.535760562283
 20
3153.550769475823
 10
-1691.015956560427
 20
3157.934371074297
 10
-1695.533208996737
 20
3159.501045208226
 10
-1700.037732781825
 20
3157.46956690107
 10
-1701.914303082984
 20
3156.393891670971
 10
-1703.922063456281
 20
3156.515928015342
 10
-1707.760537321138
 20
3159.591756886995
 10
-1710.411904149035
 20
3165.174344528166
 10
-1710.734921728136
 20
3171.740965919951
 10
-1710.973511798846
 20
3176.706767047952
 10
-1714.857714224926
 20
3178.103295665824
 10
-1717.699946696973
 20
3178.777569513105
 10
-1719.22968529889
 20
3181.845406907887
 10
-1719.633699742351
 20
3201.431827379997
 10
-1718.610951013524
 20
3218.662108783543
 10
-1716.452530861652
 20
3227.859160455999
 10
-1714.918616172022
 20
3229.499978181745
 10
-1713.066188627465
 20
3229.198209755284
 10
-1708.359657620647
 20
3222.854484039314
 10
-1704.784028800428
 20
3214.093909680249
 10
-1703.227382086323
 20
3206.238913128367
  0
LWPOLYLINE
  5
183B
330
17E9
100
AcDbEntity
  8
0
  6
ByBlock
 62
     0
370
    -2
100
AcDbPolyline
 90
       57
 70
     0
 43
0.0
 10
-1745.06886331145
 20
3220.009814848142
 10
-1738.286271656104
 20
3213.368256327719
 10
-1737.257118524049
 20
3214.068989417874
 10
-1737.041020012112
 20
3217.182114520092
 10
-1735.848654791776
 20
3221.576224469797
 10
-1732.927068637676
 20
3223.19769272196
 10
-1729.259501763603
 20
3221.985272661978
 10
-1725.829186367824
 20
3217.877725690769
 10
-1723.762495866197
 20
3211.113513630671
 10
-1722.902518371864
 20
3202.531797661642
 10
-1723.247851168221
 20
3197.334219657854
 10
-1724.566621193203
 20
3193.66837612132
 10
-1727.28297788515
 20
3190.85295557518
 10
-1731.82108671345
 20
3188.206670589144
 10
-1744.545738189674
 20
3183.758696321924
 10
-1747.233463431895
 20
3182.544552924402
 10
-1748.351821324311
 20
3179.627423401333
 10
-1751.420933187321
 20
3175.832650170272
 10
-1759.229984758846
 20
3172.563831540758
 10
-1764.882515857554
 20
3170.638919617735
 10
-1768.861485817264
 20
3168.067435496438
 10
-1771.835741975887
 20
3164.233554526513
 10
-1774.474115640288
 20
3158.521468088647
 10
-1777.150931755107
 20
3152.751501556022
 10
-1780.237325086653
 20
3148.839068456386
 10
-1784.480069891721
 20
3146.107378068099
 10
-1790.625940427102
 20
3143.879639669519
 10
-1797.356839971785
 20
3142.073181151888
 10
-1801.70982227072
 20
3141.908734672997
 10
-1805.183734098487
 20
3143.697518961443
 10
-1809.277454291761
 20
3147.750760761346
 10
-1814.323130110841
 20
3155.344900118403
 10
-1814.480418727301
 20
3163.458637766922
 10
-1814.176093348861
 20
3169.947853248848
 10
-1815.93102808182
 20
3173.686429645074
 10
-1818.349688233213
 20
3177.390362948994
 10
-1819.039383947592
 20
3182.773949189725
 10
-1818.069569735562
 20
3187.3717896987
 10
-1816.984051442679
 20
3188.605619221791
 10
-1815.509708123254
 20
3188.718485807346
 10
-1812.175138154964
 20
3186.23328879588
 10
-1809.124758570233
 20
3181.892417952863
 10
-1806.521861612576
 20
3178.440628969789
 10
-1802.913713813762
 20
3177.742412753993
 10
-1797.386264958332
 20
3179.949118419068
 10
-1789.025464830828
 20
3185.212135156218
 10
-1781.616884841402
 20
3191.386773405225
 10
-1782.212205782801
 20
3193.596484891589
 10
-1785.219381696191
 20
3196.579485986284
 10
-1790.235760777099
 20
3203.153714109813
 10
-1790.588828553575
 20
3209.555095485886
 10
-1786.286263897077
 20
3215.760312956816
 10
-1777.335753694582
 20
3221.746025318346
 10
-1766.147645999676
 20
3226.881122316921
 10
-1758.130359144709
 20
3228.362134551848
 10
-1751.649054984418
 20
3226.101035544711
 10
-1745.06886331145
 20
3220.009814848142
  0
LWPOLYLINE
  5
183C
330
17E9
100
AcDbEntity
  8
0
  6
ByBlock
 62
     0
370
    -2
100
AcDbPolyline
 90
       58
 70
     0
 43
0.0
 10
431.3272541100686
 20
2144.499648423112
 10
434.9032275977951
 20
2138.959831615014
 10
438.9309399555422
 20
2135.68287722921
 10
440.8440049349219
 20
2134.449248094206
 10
441.0506531447236
 20
2132.475209028019
 10
435.7497710748439
 20
2124.145861814492
 10
430.476109722565
 20
2115.732038999434
 10
430.5104001318409
 20
2113.449995429549
 10
432.1331428522308
 20
2111.797298698064
 10
439.4144764070484
 20
2109.274989813072
 10
443.1711197931085
 20
2108.205542644685
 10
444.6312275429045
 20
2105.612055911547
 10
443.7261386826516
 20
2102.23228640658
 10
440.387200254087
 20
2098.804014969279
 10
434.2199843797852
 20
2094.483287136666
 10
440.5738337018597
 20
2087.719427759598
 10
446.9644341989051
 20
2082.942031510049
 10
453.4059332697943
 20
2080.955568382532
 10
458.6276379991354
 20
2079.282319848947
 10
462.8122782747878
 20
2075.287086392178
 10
464.8676668883645
 20
2070.506644243721
 10
463.7015925849113
 20
2066.477745588505
 10
459.3419814480917
 20
2065.494409188433
 10
452.0684309665334
 20
2067.077218571045
 10
444.0568511642545
 20
2068.816955871562
 10
438.8489331352298
 20
2066.794446935135
 10
435.235487075422
 20
2064.941594567835
 10
433.2529114767721
 20
2067.911386079902
 10
430.3432123439334
 20
2077.070307907356
 10
429.0095494764004
 20
2079.314085368339
 10
426.3352983290819
 20
2080.448706757815
 10
414.0839314498857
 20
2079.886698331833
 10
380.1448105046465
 20
2077.101055455271
 10
369.6299667010676
 20
2077.280923801261
 10
365.0912005998448
 20
2078.554846972596
 10
364.8158513386402
 20
2080.250410723437
 10
366.2392479910823
 20
2080.955568382532
 10
368.6615231435462
 20
2084.476058417007
 10
370.7890113904641
 20
2092.942190538034
 10
373.8895841829753
 20
2103.266120604324
 10
378.6528490647001
 20
2111.257204713167
 10
381.8146123631514
 20
2115.439328114459
 10
383.9014138130888
 20
2120.832148238193
 10
386.3950912483547
 20
2141.242139697173
 10
388.3819070589039
 20
2142.611808295997
 10
392.9242560991047
 20
2142.655989861197
 10
396.3843892420787
 20
2141.666120809521
 10
398.3096057549933
 20
2139.040067004646
 10
399.3770650735664
 20
2123.458731067615
 10
399.4675523176788
 20
2105.166336699629
 10
407.1306171607948
 20
2115.210332625307
 10
413.0352124251144
 20
2125.143337597913
 10
416.4733429562461
 20
2134.919398621568
 10
419.2360053271054
 20
2148.113455181474
 10
421.4115626680922
 20
2151.127604600257
 10
424.6772071503228
 20
2151.373080005601
 10
428.2450528972812
 20
2149.085297320934
 10
431.3272541100686
 20
2144.499648423112
  0
LWPOLYLINE
  5
183D
330
17E9
100
AcDbEntity
  8
0
  6
ByBlock
 62
     0
370
    -2
100
AcDbPolyline
 90
       42
 70
     0
 43
0.0
 10
-912.0792436387397
 20
3089.276747777673
 10
-910.109044008281
 20
3080.116054519539
 10
-907.4220241321233
 20
3076.306083856034
 10
-903.6736848283471
 20
3074.479033458687
 10
-900.4542097611297
 20
3070.005257221515
 10
-898.5342514315918
 20
3064.395809561295
 10
-898.6844302787599
 20
3059.161736879286
 10
-901.4647668788038
 20
3055.293797950264
 10
-905.7084334690667
 20
3053.684481231636
 10
-908.2249551461359
 20
3053.201297463161
 10
-910.0111343894635
 20
3051.630158682677
 10
-911.8813002873935
 20
3044.494451157714
 10
-912.6494198831071
 20
3039.545362396083
 10
-914.2300650743909
 20
3036.673039649044
 10
-917.3318321798946
 20
3035.223752855892
 10
-922.6633255337914
 20
3034.543779971446
 10
-928.2110937411411
 20
3034.629225451314
 10
-933.1703542020163
 20
3036.20505331301
 10
-945.7345348989752
 20
3046.018586908747
 10
-953.1890598687576
 20
3052.545980328816
 10
-959.0678451476007
 20
3056.26758786192
 10
-965.1109967501012
 20
3057.976577614522
 10
-973.0586046598068
 20
3058.466125708609
 10
-986.3590432468061
 20
3060.277265291928
 10
-997.3542012614686
 20
3066.414791667409
 10
-1003.485186969822
 20
3071.825726874118
 10
-1006.798724204606
 20
3076.512154948148
 10
-1007.24921265297
 20
3080.370948164925
 10
-1004.791052002066
 20
3083.298986815394
 10
-999.5596324583155
 20
3083.315426653969
 10
-991.7779779459076
 20
3080.567424675482
 10
-984.3695823135217
 20
3076.387914334831
 10
-980.2579233787891
 20
3072.109772978254
 10
-978.2764138447566
 20
3069.189469307904
 10
-975.349040482733
 20
3071.600787239826
 10
-963.8578417999976
 20
3080.395026797339
 10
-944.4235399317296
 20
3092.093138202149
 10
-925.6525146125829
 20
3101.859219899122
 10
-919.2052203182475
 20
3104.506530872157
 10
-916.1511295461636
 20
3104.857370333119
 10
-913.8776625863597
 20
3099.203741107699
 10
-912.0792436387397
 20
3089.276747777673
  0
LWPOLYLINE
  5
183E
330
17E9
100
AcDbEntity
  8
0
  6
ByBlock
 62
     0
370
    -2
100
AcDbPolyline
 90
       40
 70
     0
 43
0.0
 10
-945.9155013716756
 20
3332.051787399206
 10
-941.448089460114
 20
3327.952680774181
 10
-939.5362107782034
 20
3324.275607489307
 10
-937.7768995694461
 20
3319.462726517491
 10
-933.4591294649822
 20
3313.957681050077
 10
-927.6796244594644
 20
3308.907011559892
 10
-921.5350764854504
 20
3305.457266535296
 10
-917.8914519798921
 20
3303.660611002833
 10
-915.640380392579
 20
3301.325288248643
 10
-914.1802245496421
 20
3293.134144690266
 10
-915.19983119328
 20
3286.062152561126
 10
-918.3881980140274
 20
3280.273766355636
 10
-923.9396373311127
 20
3275.535157224013
 10
-932.0484614637633
 20
3271.612520363038
 10
-940.0112668059106
 20
3268.584047203867
 10
-933.9854367495641
 20
3260.123574042389
 10
-930.1768367405673
 20
3253.593126707888
 10
-929.896934662049
 20
3249.411179648112
 10
-933.2525774414621
 20
3247.361145404192
 10
-940.3505879596883
 20
3247.22642850174
 10
-951.9374438991544
 20
3248.942840629048
 10
-953.9083088180584
 20
3250.971457394336
 10
-955.2808469742746
 20
3254.765076390024
 10
-959.5135643595183
 20
3262.182489486279
 10
-967.0271156439113
 20
3271.637969649959
 10
-974.8025821722237
 20
3282.248558881025
 10
-975.5733068130554
 20
3286.578696938157
 10
-974.8541941276528
 20
3291.771193100085
 10
-973.9001945433699
 20
3298.898059502694
 10
-975.0430719219885
 20
3298.940341388839
 10
-977.5037494472528
 20
3297.115543353579
 10
-981.7370760122781
 20
3294.511724610726
 10
-983.7070111304633
 20
3295.452506596856
 10
-983.3578789759956
 20
3299.756313659488
 10
-980.634011738585
 20
3307.241538084045
 10
-974.0940660088085
 20
3321.269986587465
 10
-968.6113357586496
 20
3329.49307200675
 10
-962.404354872563
 20
3333.822937536084
 10
-953.6916812815741
 20
3336.171742400699
 10
-945.9155013716756
 20
3332.051787399206
  0
LWPOLYLINE
  5
183F
330
17E9
100
AcDbEntity
  8
0
  6
ByBlock
 62
     0
370
    -2
100
AcDbPolyline
 90
       44
 70
     0
 43
0.0
 10
89.43000728526568
 20
2463.990196822461
 10
82.1242824926203
 20
2446.786470848071
 10
76.72514613641488
 20
2437.022425094053
 10
73.87375993660043
 20
2432.05839539673
 10
72.68718993971152
 20
2426.390266089409
 10
71.09943497913673
 20
2420.676191801729
 10
67.28062319327773
 20
2415.594109475186
 10
63.89233318689457
 20
2411.201273993708
 10
63.34164268000904
 20
2407.139287257733
 10
63.5263443866329
 20
2405.372481534559
 10
62.68521940342953
 20
2404.153280341747
 10
58.97036895658493
 20
2403.311642365043
 10
54.28685853308571
 20
2404.522379165103
 10
50.72443929549582
 20
2407.693512610455
 10
49.35239008620965
 20
2409.625630489051
 10
48.11447264616527
 20
2409.88498076547
 10
44.98703983460745
 20
2404.865812282405
 10
41.76054316885665
 20
2399.55424551978
 10
38.09876350270724
 20
2398.244044089355
 10
33.1093726892218
 20
2401.093747029247
 10
25.90005861250984
 20
2408.261877346526
 10
19.57506517481852
 20
2417.119431523689
 10
16.33713035711935
 20
2426.007468736493
 10
16.38480669053933
 20
2433.880179595178
 10
19.91664670620639
 20
2439.691770741025
 10
21.91821909540886
 20
2440.86919502567
 10
23.69445107414731
 20
2440.689599207477
 10
27.46377501828874
 20
2435.798029842051
 10
30.26256335329117
 20
2431.761901184692
 10
33.32476583509606
 20
2429.38670120139
 10
36.50021964758207
 20
2428.600698972882
 10
39.63879403672127
 20
2429.332139533335
 10
42.59034221743968
 20
2431.509283947963
 10
45.20472542018569
 20
2435.060393281979
 10
48.82140173593962
 20
2445.997542953507
 10
51.60951339372013
 20
2461.552724237555
 10
56.98284777997241
 20
2468.595812389172
 10
69.09601100402006
 20
2477.433087292033
 10
86.50612067593829
 20
2487.271541150143
 10
91.7206915894185
 20
2489.16104049061
 10
94.82631416169715
 20
2488.886685154312
 10
95.9865291175156
 20
2486.340449931851
 10
95.36486115057096
 20
2481.414309613829
 10
89.43000728526568
 20
2463.990196822461
  0
LWPOLYLINE
  5
1840
330
17E9
100
AcDbEntity
  8
0
  6
ByBlock
 62
     0
370
    -2
100
AcDbPolyline
 90
       30
 70
     0
 43
0.0
 10
-1093.988029290465
 20
3117.307738612755
 10
-1088.601613569958
 20
3112.315077465706
 10
-1084.854564765456
 20
3110.238487792631
 10
-1080.316407844015
 20
3107.726695274391
 10
-1073.307289480736
 20
3101.997159041997
 10
-1066.870255056404
 20
3095.758629055651
 10
-1064.048341936278
 20
3091.719879322127
 10
-1071.117592756402
 20
3081.446839814157
 10
-1076.110253903451
 20
3073.499945286037
 10
-1078.186843576526
 20
3066.191399029141
 10
-1079.419013886264
 20
3060.997973066495
 10
-1083.276700960806
 20
3059.339881887736
 10
-1087.659989953867
 20
3058.596193607466
 10
-1091.052880870705
 20
3056.809092578943
 10
-1102.561617518726
 20
3052.42332678914
 10
-1110.127838807642
 20
3052.052544705861
 10
-1111.910266786
 20
3053.762993283729
 10
-1113.125909086405
 20
3057.074895351731
 10
-1114.907359170903
 20
3070.42729857719
 10
-1116.072375425263
 20
3076.574716108596
 10
-1118.815239453225
 20
3081.738099889389
 10
-1122.017256710391
 20
3089.715389282393
 10
-1124.284014677076
 20
3102.623492043584
 10
-1124.65797892316
 20
3116.847174651427
 10
-1123.00757463138
 20
3119.72582164646
 10
-1119.708793975249
 20
3121.529498777457
 10
-1112.057431796355
 20
3123.736076194156
 10
-1105.301307399407
 20
3123.781051296177
 10
-1099.318737123065
 20
3121.644810097662
 10
-1093.988029290465
 20
3117.307738612755
  0
LWPOLYLINE
  5
1841
330
17E9
100
AcDbEntity
  8
0
  6
ByBlock
 62
     0
370
    -2
100
AcDbPolyline
 90
       45
 70
     0
 43
0.0
 10
-987.9436160445754
 20
3484.575111049468
 10
-984.2859884195677
 20
3478.616090380991
 10
-983.665306362006
 20
3474.678159901293
 10
-983.0262447091966
 20
3472.916860842722
 10
-979.32478820202
 20
3472.184129782995
 10
-971.6375966333504
 20
3469.940656911904
 10
-962.3359584110509
 20
3464.736321821856
 10
-954.8815216120265
 20
3458.860229758889
 10
-952.928763760573
 20
3456.385621253887
 10
-952.7359182821346
 20
3454.601485969035
 10
-956.3316901127572
 20
3453.007022015342
 10
-962.5848003362401
 20
3453.043428522805
 10
-968.9112045060563
 20
3452.515309729926
 10
-970.9501933586755
 20
3449.357161432546
 10
-968.7343820589742
 20
3444.942996643195
 10
-962.2963697407817
 20
3440.646788296785
 10
-956.2040028243609
 20
3437.303256973289
 10
-953.0080853805333
 20
3433.825313337231
 10
-952.5914384721318
 20
3429.976771974935
 10
-954.8368991930372
 20
3425.521415410628
 10
-957.0162158145171
 20
3423.20306151956
 10
-959.6040516036305
 20
3422.159280057228
 10
-968.5173136687005
 20
3423.530720086733
 10
-976.9986512376929
 20
3424.931136233472
 10
-981.7792296500481
 20
3423.247948450824
 10
-984.9420109199755
 20
3421.637573683101
 10
-988.2659763507543
 20
3423.547680934331
 10
-989.9155790901909
 20
3426.233642761395
 10
-986.6852910818531
 20
3426.940924534201
 10
-983.6861627539965
 20
3427.771565212744
 10
-983.4588825868605
 20
3429.76862486225
 10
-986.6644346898629
 20
3431.765684511755
 10
-991.9165342840882
 20
3432.596325190299
 10
-998.5488188438912
 20
3435.043833210552
 10
-1004.654619777597
 20
3440.957478000836
 10
-1008.596165258366
 20
3448.193964702009
 10
-1009.243547024506
 20
3451.638483605322
 10
-1008.735699490406
 20
3454.609974408357
 10
-1005.681777044315
 20
3470.17928706023
 10
-1004.345252634914
 20
3478.505011257162
 10
-1002.102621393783
 20
3485.451696708368
 10
-999.3011638894754
 20
3490.211867598045
 10
-996.288160690544
 20
3491.978032079344
 10
-992.7977128379204
 20
3489.803532787451
 10
-987.9436160445754
 20
3484.575111049468
  0
LWPOLYLINE
  5
1842
330
17E9
100
AcDbEntity
  8
0
  6
ByBlock
 62
     0
370
    -2
100
AcDbPolyline
 90
       35
 70
     0
 43
0.0
 10
669.8975024300225
 20
4037.226519558085
 10
679.7127994409152
 20
4031.872622816175
 10
684.6524379004099
 20
4027.411575230225
 10
685.3928959247327
 20
4023.810288719475
 10
684.8955807884335
 20
4020.521655716018
 10
680.9647680935499
 20
4015.424600391689
 10
674.4142659194035
 20
4013.204893547597
 10
666.798340369637
 20
4014.947067567239
 10
660.6007296304519
 20
4017.436023859199
 10
655.8452398064632
 20
4016.921154726566
 10
651.6941765585007
 20
4012.983897550838
 10
647.3098295163453
 20
4005.205641620367
 10
641.7507433898991
 20
3996.243420738128
 10
638.9630565548609
 20
3993.854850861729
 10
636.0569964696638
 20
3992.84929543068
 10
632.9478711136421
 20
3993.217736981114
 10
629.5509884661314
 20
3994.951166064685
 10
621.5551351208414
 20
4002.476908960229
 10
617.2939465963395
 20
4008.210789606329
 10
614.5272844792835
 20
4013.801585143504
 10
613.2081136781303
 20
4018.995395851272
 10
613.2894151323799
 20
4023.538330024685
 10
614.7241697815356
 20
4027.176487943258
 10
617.4653505495761
 20
4029.655969886512
 10
621.4659463915268
 20
4030.722884149492
 10
626.6789302313655
 20
4030.12333902724
 10
631.6676958340231
 20
4029.647930316501
 10
629.9336094775303
 20
4034.54020504799
 10
628.1701863052485
 20
4039.761196395746
 10
628.5338986968536
 20
4043.707607299244
 10
630.4163203301227
 20
4044.965627672074
 10
633.8573124031227
 20
4045.535715745685
 10
644.1767377452393
 20
4044.806174864286
 10
657.0156424925739
 20
4041.907072253435
 10
669.8975024300225
 20
4037.226519558085
  0
LWPOLYLINE
  5
1843
330
17E9
100
AcDbEntity
  8
0
  6
ByBlock
 62
     0
370
    -2
100
AcDbPolyline
 90
       27
 70
     0
 43
0.0
 10
764.6735325137569
 20
3770.121945608646
 10
773.226264350028
 20
3765.751032583777
 10
776.7845716240931
 20
3761.740641772183
 10
774.8207363192455
 20
3755.526062169875
 10
770.0998895875637
 20
3745.863108197479
 10
764.8134995840628
 20
3734.200609763312
 10
761.4951931128326
 20
3723.17646761589
 10
758.7481770437285
 20
3715.088932713497
 10
754.2350766485601
 20
3709.835021610974
 10
748.4261867341115
 20
3707.749021713381
 10
741.7917780605967
 20
3709.16521241025
 10
730.8344453010468
 20
3713.607527717921
 10
728.7205754284532
 20
3715.095465365101
 10
727.1799517457038
 20
3717.821641073261
 10
725.8410787879352
 20
3725.762748393457
 10
726.8631542127923
 20
3734.978981213506
 10
730.2915218363741
 20
3743.018439006308
 10
732.9159805520848
 20
3748.24897684248
 10
733.0400448238861
 20
3751.990735401512
 10
733.5550422048936
 20
3754.784498003318
 10
737.117589690858
 20
3757.739444765975
 10
741.1672084741667
 20
3761.469893421433
 10
742.8521676874961
 20
3766.12923704176
 10
743.3956201767155
 20
3769.224856240786
 10
745.0005123264045
 20
3771.682127168588
 10
751.2419519477593
 20
3774.524680261572
 10
764.6735325137569
 20
3770.121945608646
  0
LWPOLYLINE
  5
1844
330
17E9
100
AcDbEntity
  8
0
  6
ByBlock
 62
     0
370
    -2
100
AcDbPolyline
 90
       20
 70
     0
 43
0.0
 10
-695.440637716531
 20
4217.153090309716
 10
-682.0175455898557
 20
4206.549218087292
 10
-680.657423479448
 20
4179.8161408852
 10
-680.5976837832511
 20
4162.450789896169
 10
-682.3618203371193
 20
4154.250901401719
 10
-683.9937728939412
 20
4153.498700635558
 10
-686.1608337800817
 20
4154.930697944649
 10
-692.2057487977387
 20
4164.204402067761
 10
-698.0626196354978
 20
4172.564496829203
 10
-704.2036808568156
 20
4177.879165599399
 10
-712.6107866632318
 20
4182.903944948872
 10
-718.0657751867657
 20
4188.460770697708
 10
-721.0129468916859
 20
4195.199397206987
 10
-721.896602242261
 20
4203.769586853311
 10
-721.1968310149184
 20
4213.276446522239
 10
-719.2314968071878
 20
4220.673933027224
 10
-716.2015247451344
 20
4225.471881078873
 10
-712.307872016918
 20
4227.180117372271
 10
-705.8115788277948
 20
4224.234364415
 10
-695.440637716531
 20
4217.153090309716
  0
LWPOLYLINE
  5
1845
330
17E9
100
AcDbEntity
  8
0
  6
ByBlock
 62
     0
370
    -2
100
AcDbPolyline
 90
       26
 70
     0
 43
0.0
 10
-1449.127401769242
 20
2513.593718574139
 10
-1442.998804686873
 20
2511.393593653809
 10
-1438.342555058593
 20
2505.640107037377
 10
-1435.819797304288
 20
2497.603606972724
 10
-1436.091699890413
 20
2488.554433692208
 10
-1437.663904735515
 20
2473.748591632455
 10
-1440.03351789898
 20
2461.544235798232
 10
-1443.909231885738
 20
2455.551990785098
 10
-1446.715154036602
 20
2454.624811142245
 10
-1450.637390121404
 20
2454.732307327097
 10
-1454.498131110377
 20
2455.579732511724
 10
-1457.14286910039
 20
2457.299863841907
 10
-1460.180880732453
 20
2464.83851173019
 10
-1463.680161691907
 20
2473.060050153451
 10
-1469.469878474288
 20
2479.890358219835
 10
-1474.033869427775
 20
2484.903338718804
 10
-1476.602748503954
 20
2490.390317196386
 10
-1476.753945322599
 20
2494.811599770552
 10
-1474.064889503488
 20
2496.627516605841
 10
-1472.067829853982
 20
2498.953300887136
 10
-1471.237189175438
 20
2504.54507431817
 10
-1470.366302553702
 20
2511.232457586098
 10
-1467.951754365834
 20
2515.620123054957
 10
-1464.290720143364
 20
2517.406117941246
 10
-1459.680375417824
 20
2516.288513508034
 10
-1449.127401769242
 20
2513.593718574139
  0
LWPOLYLINE
  5
1846
330
17E9
100
AcDbEntity
  8
0
  6
ByBlock
 62
     0
370
    -2
100
AcDbPolyline
 90
       20
 70
     0
 43
0.0
 10
-208.247664727146
 20
4188.929815082836
 10
-209.2094393691652
 20
4182.788048495456
 10
-213.8465158653773
 20
4174.084384352814
 10
-219.3502788490423
 20
4163.397447260981
 10
-219.7281306239952
 20
4152.246058678954
 10
-219.8815317115864
 20
4141.86309428253
 10
-223.9583712124959
 20
4133.866006546631
 10
-229.557214335204
 20
4126.796755726506
 10
-239.6153416287059
 20
4136.541011153151
 10
-246.1289563639825
 20
4144.404977075763
 10
-249.3426362077532
 20
4152.613305916394
 10
-249.4069607833576
 20
4161.974804067743
 10
-246.4725177296598
 20
4173.298285938024
 10
-243.4573022462589
 20
4178.901649815951
 10
-238.8377236377164
 20
4183.912329859694
 10
-226.9868363561427
 20
4191.255599364132
 10
-220.8562033308206
 20
4193.138197338917
 10
-215.3225745068187
 20
4193.528096445599
 10
-210.9362796924679
 20
4192.200300941225
 10
-208.247664727146
 20
4188.929815082836
  0
LWPOLYLINE
  5
1847
330
17E9
100
AcDbEntity
  8
0
  6
ByBlock
 62
     0
370
    -2
100
AcDbPolyline
 90
       33
 70
     0
 43
0.0
 10
684.7683744314431
 20
2375.101440456893
 10
694.3680618773287
 20
2371.297120737414
 10
703.2276039043054
 20
2371.210521022169
 10
708.709372291651
 20
2371.671870504795
 10
713.0851908168665
 20
2370.729196855132
 10
716.3102847660152
 20
2368.506235708522
 10
718.3398954562094
 20
2365.126722700306
 10
719.1292481735153
 20
2360.714401481347
 10
718.6335762195207
 20
2355.392983640413
 10
713.6080915039861
 20
2342.517848727131
 10
709.8444185038693
 20
2330.172107074954
 10
707.6642682679517
 20
2321.940669480244
 10
703.0680148326182
 20
2321.985123573242
 10
694.8420598559423
 20
2324.160416401955
 10
686.978751206253
 20
2327.177659812786
 10
683.4704607984518
 20
2329.747957636612
 10
686.423644145952
 20
2331.842221538873
 10
693.5229371479286
 20
2334.244000997901
 10
703.5782349616566
 20
2336.862448071031
 10
689.4962908547991
 20
2351.549524119977
 10
677.3947902173567
 20
2362.764179228515
 10
674.2947063717751
 20
2363.678501971771
 10
672.0267540920977
 20
2362.153396342402
 10
667.8914253166476
 20
2358.987304661293
 10
663.4284299585011
 20
2358.259302760396
 10
659.5581905742524
 20
2359.87210623172
 10
657.2011217049712
 20
2363.728430667278
 10
657.8486717971036
 20
2369.384889372471
 10
662.9074209349132
 20
2375.039231979477
 10
668.3321027643215
 20
2378.960987132873
 10
672.5484684817484
 20
2380.274715393611
 10
677.4095467960091
 20
2378.986260078279
 10
684.7683744314431
 20
2375.101440456893
  0
LWPOLYLINE
  5
1848
330
17E9
100
AcDbEntity
  8
0
  6
ByBlock
 62
     0
370
    -2
100
AcDbPolyline
 90
       21
 70
     0
 43
0.0
 10
-26.81109760782965
 20
2502.192430017828
 10
-21.53500755194864
 20
2500.926281904229
 10
-16.71091286283899
 20
2497.912356920102
 10
-13.38460689921612
 20
2494.034735238765
 10
-12.60190706636513
 20
2490.17752909563
 10
-18.96842893099801
 20
2482.569298448365
 10
-32.21448219145805
 20
2470.427102998419
 10
-46.06654910158522
 20
2459.168747256086
 10
-54.2511038996945
 20
2454.212011685095
 10
-58.24616101494848
 20
2456.047141730069
 10
-60.64347582742084
 20
2460.694157475347
 10
-61.10293364651443
 20
2466.865485313173
 10
-59.28441176610704
 20
2473.273535604747
 10
-53.62335215045914
 20
2488.316901670593
 10
-49.67765462854822
 20
2497.117417382958
 10
-42.62077176109142
 20
2508.110803966941
 10
-33.35157236215309
 20
2520.662969394263
 10
-32.46649826392877
 20
2511.472947335864
 10
-30.64192466332497
 20
2504.478625628855
 10
-28.99585676972538
 20
2502.777234592473
 10
-26.81109760782965
 20
2502.192430017828
  0
LWPOLYLINE
  5
1849
330
17E9
100
AcDbEntity
  8
0
  6
ByBlock
 62
     0
370
    -2
100
AcDbPolyline
 90
       20
 70
     0
 43
0.0
 10
-915.5940747136671
 20
3128.796684933404
 10
-915.5940747136671
 20
3112.01145745333
 10
-926.9048760258659
 20
3111.349775993373
 10
-940.2774222617297
 20
3109.184462491342
 10
-956.5448308965454
 20
3104.902617962937
 10
-970.1803584409459
 20
3101.500188573206
 10
-977.2181483315689
 20
3101.452824845199
 10
-976.1209995141744
 20
3105.359999761459
 10
-970.1969666055131
 20
3111.468533988658
 10
-962.2843544711455
 20
3119.111103138338
 10
-956.4034450785905
 20
3126.707013926075
 10
-949.9810309690122
 20
3133.261620048222
 10
-940.1441722000663
 20
3138.077194235916
 10
-931.7925578624238
 20
3141.572234983471
 10
-928.3187261898911
 20
3144.634637853361
 10
-926.4492656580237
 20
3146.317120269948
 10
-921.9564044595408
 20
3146.489606318849
 10
-918.5227305594413
 20
3145.523639558071
 10
-916.6067479295293
 20
3143.05642136568
 10
-915.5940747136671
 20
3128.796684933404
  0
LWPOLYLINE
  5
184A
330
17E9
100
AcDbEntity
  8
0
  6
ByBlock
 62
     0
370
    -2
100
AcDbPolyline
 90
       38
 70
     0
 43
0.0
 10
-1628.649613409905
 20
3279.555527362288
 10
-1621.38560140124
 20
3272.119029304722
 10
-1619.43413404906
 20
3266.830875886063
 10
-1619.61829070009
 20
3265.031487060109
 10
-1618.466355779984
 20
3263.824325183502
 10
-1611.649473715363
 20
3262.934305507317
 10
-1602.691324719029
 20
3260.99591948939
 10
-1594.462716604094
 20
3254.68024810546
 10
-1589.865140607393
 20
3248.758691993541
 10
-1588.581807211539
 20
3244.228358222976
 10
-1590.588854203251
 20
3241.3320850919
 10
-1595.862427384771
 20
3240.312702882918
 10
-1601.407903152417
 20
3239.286603665295
 10
-1606.980944305172
 20
3236.820491615139
 10
-1610.033928935022
 20
3235.238700204003
 10
-1612.364530545904
 20
3235.081812363714
 10
-1616.999482928405
 20
3239.648191943187
 10
-1621.038505189726
 20
3244.11136364285
 10
-1624.532479872663
 20
3245.968103539018
 10
-1625.350391899985
 20
3244.44892138147
 10
-1622.95745356331
 20
3240.796239334425
 10
-1618.277606234024
 20
3233.7269885143
 10
-1619.528332480525
 20
3231.83596622438
 10
-1622.652767486316
 20
3232.125094170378
 10
-1626.709279619783
 20
3234.274152190873
 10
-1630.756245264833
 20
3237.962880046827
 10
-1634.307130164193
 20
3243.904587184674
 10
-1632.772397891171
 20
3249.273681359025
 10
-1631.194894785076
 20
3253.029931984437
 10
-1632.33410105396
 20
3254.451204523166
 10
-1636.533329582272
 20
3258.051264658829
 10
-1641.148756149673
 20
3266.421210498579
 10
-1644.545791092129
 20
3275.91570221484
 10
-1645.089860776653
 20
3282.889383948992
 10
-1643.304827753177
 20
3286.913561460902
 10
-1640.703036937755
 20
3287.847762702288
 10
-1636.184590188452
 20
3285.469308416471
 10
-1628.649613409905
 20
3279.555527362288
  0
LWPOLYLINE
  5
184B
330
17E9
100
AcDbEntity
  8
0
  6
ByBlock
 62
     0
370
    -2
100
AcDbPolyline
 90
       28
 70
     0
 43
0.0
 10
220.1743842593087
 20
2229.302379497908
 10
219.4052466921184
 20
2216.685184128918
 10
219.6795379042287
 20
2196.518022952548
 10
220.8696427469545
 20
2185.993328070662
 10
223.9832968737196
 20
2179.913769960698
 10
227.2968341085029
 20
2176.404589829795
 10
227.9053165393898
 20
2173.735244182823
 10
225.8522283810398
 20
2172.037211650763
 10
221.1810458325913
 20
2171.441978880122
 10
217.5345036765007
 20
2172.062484596168
 10
214.0478151043703
 20
2174.039224893754
 10
206.6664558325465
 20
2182.752780192321
 10
200.6989547402713
 20
2190.74103482139
 10
196.8628214082591
 20
2194.06358150452
 10
193.8322321509004
 20
2197.285837958371
 10
191.5736099405071
 20
2204.941039572993
 10
190.6595517095252
 20
2214.011854766796
 10
191.66267843697
 20
2221.480959973715
 10
193.3709628235101
 20
2225.04227306907
 10
195.4609865138704
 20
2227.035276863715
 10
202.8094741240675
 20
2227.385202555003
 10
209.5910077303197
 20
2227.444228869614
 10
210.8880396557329
 20
2228.897451284775
 10
211.2445060141486
 20
2231.522126419618
 10
212.4674825185007
 20
2235.312659438781
 10
216.1929775804733
 20
2235.871133018926
 10
219.5908140752731
 20
2233.661990634727
 10
220.1743842593087
 20
2229.302379497908
  0
LWPOLYLINE
  5
184C
330
17E9
100
AcDbEntity
  8
0
  6
ByBlock
 62
     0
370
    -2
100
AcDbPolyline
 90
       25
 70
     0
 43
0.0
 10
-481.5420743580343
 20
2555.737761762549
 10
-480.3106094143588
 20
2540.889862251306
 10
-476.7971970870803
 20
2530.4722627781
 10
-473.544281256072
 20
2521.920941673954
 10
-475.2052019146053
 20
2511.653913808564
 10
-476.9891207803232
 20
2501.849574018214
 10
-476.8537466049479
 20
2493.423735933518
 10
-476.6494870211317
 20
2485.86736572291
 10
-477.9048702867512
 20
2484.181909547127
 10
-480.0168805579071
 20
2483.884132851338
 10
-486.6656450339023
 20
2487.429230542775
 10
-496.3054982677443
 20
2496.457852021191
 10
-504.7237376362184
 20
2506.386175928107
 10
-508.1507346052928
 20
2513.372450049584
 10
-508.0359282630642
 20
2516.020626699151
 10
-506.7253981961787
 20
2518.243251193777
 10
-500.5866374300881
 20
2521.825156168849
 10
-493.6942010415227
 20
2525.45149920587
 10
-489.6865595544686
 20
2530.718275223514
 10
-488.0170622858545
 20
2538.922315759106
 10
-488.1390986302256
 20
2551.360484412068
 10
-487.7206001359097
 20
2571.510676725316
 10
-484.9192788955003
 20
2573.054426462207
 10
-482.9994007211969
 20
2571.051178828605
 10
-481.5420743580343
 20
2555.737761762549
  0
LWPOLYLINE
  5
184D
330
17E9
100
AcDbEntity
  8
0
  6
ByBlock
 62
     0
370
    -2
100
AcDbPolyline
 90
       52
 70
     0
 43
0.0
 10
-1971.740147240239
 20
3058.49157499553
 10
-1972.767224351723
 20
3054.608126028652
 10
-1975.49038622307
 20
3051.261492697586
 10
-1979.372552706198
 20
3048.914282922136
 10
-1983.876635637496
 20
3048.029080575537
 10
-1989.768502250594
 20
3046.367807233972
 10
-1996.417491161245
 20
3042.373679919438
 10
-2000.867228843622
 20
3038.048711874925
 10
-2000.764942749007
 20
3037.040463228001
 10
-1999.151874765409
 20
3036.718279263338
 10
-1995.491064977595
 20
3037.548919941882
 10
-1992.947899700612
 20
3039.545979591388
 10
-1989.612712537018
 20
3042.060112642472
 10
-1985.31522972238
 20
3042.404427467352
 10
-1981.778043352579
 20
3040.845881074192
 10
-1980.723753539017
 20
3037.65142245563
 10
-1985.225976868878
 20
3032.039497998669
 10
-1994.199860337723
 20
3026.255784843345
 10
-2003.651981997082
 20
3022.391380760161
 10
-2007.309433280573
 20
3021.832378155468
 10
-2009.588919898481
 20
3022.537359473046
 10
-2013.317284517845
 20
3025.1405289585
 10
-2016.210327392976
 20
3024.956460478228
 10
-2017.994743221147
 20
3022.159595868851
 10
-2018.39720265306
 20
3016.92437696699
 10
-2019.097767417223
 20
3010.232272555756
 10
-2020.615266314848
 20
3008.847799285138
 10
-2023.094010829945
 20
3008.441275982841
 10
-2026.569213156987
 20
3009.318791442461
 10
-2028.205437987802
 20
3011.26014320406
 10
-2027.702327628055
 20
3013.228531326221
 10
-2024.759532398933
 20
3014.187163883053
 10
-2023.523827243359
 20
3015.270173317099
 10
-2026.173382562958
 20
3018.032835687958
 10
-2029.744145960449
 20
3022.216770597547
 10
-2031.114079071547
 20
3026.667927027574
 10
-2030.190394196913
 20
3029.803134896868
 10
-2026.880303637209
 20
3030.039248170834
 10
-2023.779025478635
 20
3029.902815946365
 10
-2022.276804168686
 20
3031.85746546135
 10
-2021.236212884683
 20
3041.977801232268
 10
-2019.707668595758
 20
3047.490886269694
 10
-2016.12302231167
 20
3051.076991379048
 10
-2009.966948014949
 20
3053.02955685794
 10
-2000.724079610511
 20
3053.642063081593
 10
-1991.423771965102
 20
3054.633527222434
 10
-1989.349827414762
 20
3055.953579731166
 10
-1988.706349208538
 20
3057.926031723711
 10
-1986.585577970262
 20
3061.107192588887
 10
-1980.223248224388
 20
3062.167582215786
 10
-1974.078299474203
 20
3061.154556316892
 10
-1971.740147240239
 20
3058.49157499553
  0
LWPOLYLINE
  5
184E
330
17E9
100
AcDbEntity
  8
0
  6
ByBlock
 62
     0
370
    -2
100
AcDbPolyline
 90
       40
 70
     0
 43
0.0
 10
-1266.228915391833
 20
2413.210356928374
 10
-1266.228915391833
 20
2396.244154960075
 10
-1276.125866540007
 20
2396.244154960075
 10
-1281.641692886449
 20
2396.040071717774
 10
-1284.51318201905
 20
2394.927509048805
 10
-1285.482859967181
 20
2392.155965477975
 10
-1285.29326879126
 20
2386.974955561137
 10
-1285.816746596067
 20
2379.617274145554
 10
-1288.827898209084
 20
2376.068513359907
 10
-1291.840107871194
 20
2373.770655162275
 10
-1293.092068508305
 20
2370.546018097963
 10
-1295.166013058645
 20
2367.643597060407
 10
-1299.925911420526
 20
2365.047906058322
 10
-1305.178900737853
 20
2363.636131914869
 10
-1308.732078076917
 20
2364.285485499775
 10
-1308.066509088092
 20
2368.18559072436
 10
-1304.722400646908
 20
2375.822500914492
 10
-1301.680148802946
 20
2383.618823834794
 10
-1301.568676918468
 20
2385.980357350632
 10
-1302.440445247782
 20
2387.107852939769
 10
-1304.290468135308
 20
2389.005111306925
 10
-1303.078096168466
 20
2391.603543618026
 10
-1299.698286585882
 20
2393.940597725278
 10
-1295.046012657228
 20
2395.053689418794
 10
-1291.708260526133
 20
2395.629837228125
 10
-1292.385147434054
 20
2396.702242124661
 10
-1295.124436538563
 20
2399.040747041655
 10
-1295.812673427676
 20
2402.189396943759
 10
-1294.563045307886
 20
2404.954175412806
 10
-1291.488763432257
 20
2406.14110610825
 10
-1288.537704198469
 20
2407.422764259705
 10
-1288.731752005423
 20
2411.423247884327
 10
-1289.064716849113
 20
2417.392175739775
 10
-1287.510186233196
 20
2424.326044369001
 10
-1285.679825424668
 20
2428.200171282118
 10
-1283.458443336176
 20
2430.389346997429
 10
-1280.24083588592
 20
2431.230760539476
 10
-1275.421766930007
 20
2431.061632994897
 10
-1266.228915391833
 20
2430.176558896672
 10
-1266.228915391833
 20
2413.210356928374
  0
LWPOLYLINE
  5
184F
330
17E9
100
AcDbEntity
  8
0
  6
ByBlock
 62
     0
370
    -2
100
AcDbPolyline
 90
       39
 70
     0
 43
0.0
 10
224.0398463915872
 20
4279.871483265238
 10
225.7834391588795
 20
4278.026454048815
 10
227.6327967579596
 20
4277.592004662854
 10
233.5522367716899
 20
4281.223124951847
 10
239.869318887746
 20
4284.993154262051
 10
245.7961732606577
 20
4286.561824261315
 10
248.6010373624276
 20
4286.261378396221
 10
250.0493943548609
 20
4285.112625638921
 10
249.6050858750686
 20
4278.785644351417
 10
246.8838717759167
 20
4272.366676916917
 10
242.392333138801
 20
4266.697938429814
 10
237.0196159478537
 20
4262.654764127352
 10
231.6548501561583
 20
4261.112521308868
 10
227.0828116171365
 20
4262.430585967788
 10
222.2838455940109
 20
4265.600084246357
 10
219.2368645912184
 20
4267.835421361158
 10
216.0830526920199
 20
4268.208984831071
 10
204.3534002024735
 20
4262.481131858598
 10
193.801131919954
 20
4257.571888263988
 10
186.8160040183306
 20
4256.630617330928
 10
182.4613464749973
 20
4256.929644448373
 10
178.4035919353973
 20
4255.188488400207
 10
174.3168612785625
 20
4253.459700304708
 10
169.8950416643265
 20
4253.785948139754
 10
167.4937992453688
 20
4254.907488194977
 10
166.730849662274
 20
4256.152026457383
 10
170.2089215467062
 20
4261.075762118372
 10
177.1512786152552
 20
4265.631537160336
 10
186.8527632088253
 20
4268.866073396096
 10
192.9502119671074
 20
4270.339703333934
 10
196.6206964917123
 20
4272.174128012846
 10
198.5558602692158
 20
4274.936926647604
 10
199.447338770668
 20
4279.195662421934
 10
200.2068897718245
 20
4283.602196432971
 10
201.761460465359
 20
4285.802585865574
 10
204.984550533648
 20
4286.287268536931
 10
210.7496596590677
 20
4285.546682264234
 10
218.9323147781229
 20
4283.18625489063
 10
224.0398463915872
 20
4279.871483265238
  0
LWPOLYLINE
  5
1850
330
17E9
100
AcDbEntity
  8
0
  6
ByBlock
 62
     0
370
    -2
100
AcDbPolyline
 90
       32
 70
     0
 43
0.0
 10
-1490.72004106918
 20
2515.765396401781
 10
-1488.242843550107
 20
2520.659081865395
 10
-1485.185883220632
 20
2523.283540581105
 10
-1481.398836954165
 20
2523.705573921258
 10
-1476.731413686209
 20
2521.991991273724
 10
-1472.739049786832
 20
2518.428730406174
 10
-1472.676488626384
 20
2514.082913985194
 10
-1475.634264868815
 20
2504.021949196395
 10
-1477.10634781063
 20
2499.060708901229
 10
-1479.042345202571
 20
2497.104336048705
 10
-1481.66018309592
 20
2498.106981844744
 10
-1485.177755479864
 20
2502.022765433178
 10
-1490.250644001022
 20
2508.744214675726
 10
-1492.181968342797
 20
2498.445725880833
 10
-1493.497107335661
 20
2492.824303028596
 10
-1495.333439709152
 20
2489.728988419461
 10
-1498.541901447163
 20
2488.416710968465
 10
-1503.973476626729
 20
2488.144415621692
 10
-1511.900580827475
 20
2489.340884790029
 10
-1515.702776433244
 20
2493.092887188017
 10
-1521.270519325005
 20
2501.776761003287
 10
-1524.181853624626
 20
2505.963701734166
 10
-1524.765912755591
 20
2509.765720998418
 10
-1523.127916494096
 20
2512.527501661699
 10
-1519.373132709474
 20
2513.593718574139
 10
-1514.029487822042
 20
2515.724036300832
 10
-1509.029404300288
 20
2520.846773362262
 10
-1504.278868069786
 20
2528.099820134861
 10
-1498.558429456496
 20
2519.068144742015
 10
-1493.386917934934
 20
2512.272832450969
 10
-1492.029489040402
 20
2512.854935794215
 10
-1490.72004106918
 20
2515.765396401781
  0
LWPOLYLINE
  5
1851
330
17E9
100
AcDbEntity
  8
0
  6
ByBlock
 62
     0
370
    -2
100
AcDbPolyline
 90
       16
 70
     0
 43
0.0
 10
-111.6958355029383
 20
2814.576968406558
 10
-112.8455180609576
 20
2807.8238498309
 10
-117.1331497972874
 20
2800.976083954465
 10
-123.1698969965596
 20
2795.668532969083
 10
-129.5669018968337
 20
2793.536051051062
 10
-136.9851566230509
 20
2794.526096444253
 10
-144.1051697531193
 20
2797.293359725566
 10
-150.3466574676145
 20
2801.533491469993
 10
-155.1293119005404
 20
2806.942174314615
 10
-158.7035299886338
 20
2814.282886867076
 10
-152.1149861402418
 20
2818.088970001712
 10
-143.1370388010123
 20
2820.298112385911
 10
-129.493383515844
 20
2820.916670329762
 10
-115.3266031088992
 20
2819.479494992526
 10
-112.7047975314481
 20
2817.643258805318
 10
-111.6958355029383
 20
2814.576968406558
  0
LWPOLYLINE
  5
1852
330
17E9
100
AcDbEntity
  8
0
  6
ByBlock
 62
     0
370
    -2
100
AcDbPolyline
 90
       18
 70
     0
 43
0.0
 10
1187.508040265554
 20
2448.406744787241
 10
1194.387002559217
 20
2446.181210657607
 10
1197.377778711649
 20
2443.490431500956
 10
1197.025688829032
 20
2438.811954826178
 10
1193.876028970975
 20
2430.623336157684
 10
1189.784785574445
 20
2423.200624800434
 10
1184.765176237591
 20
2418.238005835238
 10
1178.863322282287
 20
2415.767308905674
 10
1172.125353045931
 20
2415.820323577705
 10
1164.159726239532
 20
2417.242654165529
 10
1163.186521461087
 20
2418.573463506717
 10
1162.864241310144
 20
2421.787608250847
 10
1163.786820042542
 20
2431.525018420475
 10
1166.156296942108
 20
2441.773001402172
 10
1169.201514529744
 20
2447.849681939221
 10
1172.502900230992
 20
2450.247044844835
 10
1175.435531776393
 20
2451.101539721136
 10
1187.508040265554
 20
2448.406744787241
  0
LWPOLYLINE
  5
1853
330
17E9
100
AcDbEntity
  8
0
  6
ByBlock
 62
     0
370
    -2
100
AcDbPolyline
 90
       35
 70
     0
 43
0.0
 10
1565.622475905854
 20
2727.792014416144
 10
1564.009271658358
 20
2726.293688650586
 10
1560.003834440249
 20
2725.671243177869
 10
1557.196108796612
 20
2725.380744577363
 10
1555.727648871391
 20
2724.293094155245
 10
1556.112923021049
 20
2718.429506308843
 10
1556.378373110806
 20
2712.311064894672
 10
1554.822560011138
 20
2710.706437257256
 10
1551.925092567069
 20
2709.615564594715
 10
1547.846225138729
 20
2708.048000737686
 10
1546.20253785559
 20
2706.041699189653
 10
1546.971226553468
 20
2703.480290581322
 10
1550.129503099222
 20
2700.247389512342
 10
1552.357642273974
 20
2697.443463226815
 10
1552.791081703982
 20
2694.682476100354
 10
1551.53319759505
 20
2692.576814123763
 10
1548.687382184025
 20
2691.738839241271
 10
1543.148623425022
 20
2695.371370262389
 10
1533.414972535887
 20
2704.104371220822
 10
1523.981054130261
 20
2712.388831503085
 10
1519.166185308631
 20
2714.942945985087
 10
1518.090245566257
 20
2714.923508340746
 10
1517.64205757312
 20
2717.018477609069
 10
1518.827216837884
 20
2719.108501299429
 10
1521.67718429005
 20
2719.071389425903
 10
1525.520034630705
 20
2719.174958004269
 10
1529.0914152235
 20
2721.59652779067
 10
1532.997884773697
 20
2724.474774009531
 10
1537.642383644614
 20
2725.671243177869
 10
1541.955689102522
 20
2726.782884061642
 10
1545.070753961413
 20
2729.457535985132
 10
1552.869545662934
 20
2736.260984032469
 10
1557.997228302327
 20
2737.68260925423
 10
1561.969088492746
 20
2734.595462463481
 10
1565.622475905854
 20
2727.792014416144
  0
LWPOLYLINE
  5
1854
330
17E9
100
AcDbEntity
  8
0
  6
ByBlock
 62
     0
370
    -2
100
AcDbPolyline
 90
       31
 70
     0
 43
0.0
 10
702.9335223648217
 20
2240.01371584309
 10
705.588023262384
 20
2236.478381059203
 10
707.6190206381343
 20
2240.01371584309
 10
710.0961299864498
 20
2243.43138274288
 10
713.3539513178029
 20
2244.840952617388
 10
716.1902683335506
 20
2244.109063187623
 10
717.4028647350487
 20
2241.102376221162
 10
715.6807936481928
 20
2236.187128999494
 10
711.5410403038035
 20
2229.791574908963
 10
708.1830569915464
 20
2226.184228662493
 10
704.5870206486506
 20
2223.894410034872
 10
694.5748383355053
 20
2222.340584785017
 10
686.1702093258318
 20
2221.382697671866
 10
684.1358534457608
 20
2220.155128272583
 10
683.4704607984518
 20
2218.401596256225
 10
682.2582170799855
 20
2215.004024273699
 10
679.3586335377276
 20
2213.003517949114
 10
675.8774195681066
 20
2212.784461709027
 10
672.920308614121
 20
2214.731239979995
 10
667.1631108103356
 20
2225.773409039632
 10
665.5717328331661
 20
2231.489607441023
 10
666.484468502781
 20
2234.766914509858
 10
669.6579424809774
 20
2235.374162550135
 10
674.8488034761221
 20
2233.080191881372
 10
678.1233211428011
 20
2231.456607531021
 10
680.9400241726912
 20
2231.446131241885
 10
688.3312746004394
 20
2237.22842564956
 10
693.9177096928629
 20
2242.423045925198
 10
697.6397099866153
 20
2244.509398505823
 10
700.3580625438999
 20
2243.651593218342
 10
702.9335223648217
 20
2240.01371584309
  0
LWPOLYLINE
  5
1855
330
17E9
100
AcDbEntity
  8
0
  6
ByBlock
 62
     0
370
    -2
100
AcDbPolyline
 90
       31
 70
     0
 43
0.0
 10
-1495.348989824625
 20
3166.916911308458
 10
-1493.127832170789
 20
3165.406217590234
 10
-1490.134707469988
 20
3165.570928581398
 10
-1485.236204676787
 20
3164.809878677358
 10
-1479.901617330842
 20
3160.629871374255
 10
-1475.893038027546
 20
3154.900110707205
 10
-1474.972583408859
 20
3149.489792695801
 10
-1475.20127430812
 20
3145.733902768944
 10
-1473.7990867307
 20
3144.170891729228
 10
-1471.990063245569
 20
3142.131413929679
 10
-1471.237189175438
 20
3137.228887343711
 10
-1471.639472265835
 20
3133.678579562039
 10
-1473.119378358528
 20
3131.281176578808
 10
-1480.950336355614
 20
3128.465844203426
 10
-1489.343262701065
 20
3127.528861575406
 10
-1493.691604011928
 20
3129.079809252345
 10
-1494.484996553047
 20
3133.706409459421
 10
-1492.213068573744
 20
3141.996392437335
 10
-1489.365265312907
 20
3152.024341285086
 10
-1489.535595186003
 20
3157.729358031278
 10
-1490.783123238652
 20
3159.025139535034
 10
-1492.821863610044
 20
3159.317425597267
 10
-1499.321908064137
 20
3156.994510873363
 10
-1509.098682469378
 20
3153.007805933534
 10
-1510.537100212746
 20
3154.400671457193
 10
-1510.824993768134
 20
3158.168007551522
 10
-1508.911479919442
 20
3163.658208269526
 10
-1504.432621840408
 20
3167.658828158047
 10
-1499.28094873936
 20
3169.101269694182
 10
-1497.044224939004
 20
3168.529225832852
 10
-1495.348989824625
 20
3166.916911308458
  0
LWPOLYLINE
  5
1856
330
17E9
100
AcDbEntity
  8
0
  6
ByBlock
 62
     0
370
    -2
100
AcDbPolyline
 90
       28
 70
     0
 43
0.0
 10
-889.6866845966345
 20
3699.51427370749
 10
-887.0935505465272
 20
3695.241751232845
 10
-886.4549778406479
 20
3692.42699597515
 10
-887.9461938369137
 20
3689.990268833924
 10
-891.7424258932427
 20
3686.851830708683
 10
-901.4838518401141
 20
3681.496162536092
 10
-905.7420104967562
 20
3679.375743980848
 10
-911.9661365874803
 20
3674.364703238551
 10
-918.1266354531395
 20
3669.372042091502
 10
-922.2363466156762
 20
3667.295452418426
 10
-924.5865141192757
 20
3666.049495408373
 10
-926.5146562982456
 20
3663.053901926352
 10
-929.2454569634317
 20
3660.083974150387
 10
-933.4753929620418
 20
3658.924400436443
 10
-937.6888891220771
 20
3659.652843191129
 10
-940.3703863025846
 20
3662.346972836578
 10
-940.9019517705425
 20
3667.882950208948
 10
-938.8946803441747
 20
3673.139249937455
 10
-935.0216595732925
 20
3677.064227331275
 10
-929.95596097666
 20
3678.606253730626
 10
-919.6492642857661
 20
3680.611008282633
 10
-911.0132030678151
 20
3686.002105068828
 10
-905.0768823617206
 20
3693.8448218388
 10
-902.8694232374434
 20
3703.204420311094
 10
-901.5214045674296
 20
3706.374046838038
 10
-898.1761499063949
 20
3706.619931035078
 10
-893.8818412390395
 20
3704.23551319982
 10
-889.6866845966345
 20
3699.51427370749
  0
LWPOLYLINE
  5
1857
330
17E9
100
AcDbEntity
  8
0
  6
ByBlock
 62
     0
370
    -2
100
AcDbPolyline
 90
       17
 70
     0
 43
0.0
 10
-1528.351080048703
 20
3178.830015082972
 10
-1529.538451597936
 20
3164.329035441728
 10
-1534.05596854652
 20
3154.231848502504
 10
-1537.140534338722
 20
3151.375139995125
 10
-1540.55004143565
 20
3150.26794772686
 10
-1544.115298168537
 20
3151.126434333835
 10
-1547.667104853093
 20
3154.166810545313
 10
-1549.306592001949
 20
3157.012978639368
 10
-1549.856801577427
 20
3160.833112986594
 10
-1547.692554140015
 20
3174.667641931435
 10
-1544.921403329833
 20
3186.427689285865
 10
-1542.61895223727
 20
3192.557087920578
 10
-1539.75555076782
 20
3194.705785242518
 10
-1535.30156485802
 20
3194.5237527052
 10
-1532.113999589616
 20
3193.544880951684
 10
-1530.141371255555
 20
3191.163380766957
 10
-1528.351080048703
 20
3178.830015082972
  0
LWPOLYLINE
  5
1858
330
17E9
100
AcDbEntity
  8
0
  6
ByBlock
 62
     0
370
    -2
100
AcDbPolyline
 90
       23
 70
     0
 43
0.0
 10
-1061.856873781263
 20
3483.378994564161
 10
-1064.611408411354
 20
3477.012071923357
 10
-1072.390057102472
 20
3467.826642759888
 10
-1080.424970093484
 20
3458.465545384712
 10
-1083.794175138557
 20
3451.683298396873
 10
-1084.308595401877
 20
3448.574509692836
 10
-1085.937213500948
 20
3447.05365229089
 10
-1093.507322318733
 20
3448.451238957856
 10
-1096.994804427684
 20
3450.560708308081
 10
-1097.796589221845
 20
3452.769842676757
 10
-1096.048676087419
 20
3454.511359423479
 10
-1091.887048379562
 20
3455.217927814697
 10
-1087.385001391218
 20
3455.982111788403
 10
-1090.473198215538
 20
3460.38979201929
 10
-1094.114442110634
 20
3465.783189260713
 10
-1094.686125273408
 20
3470.883386670229
 10
-1092.101559817859
 20
3476.134163703089
 10
-1086.274065873506
 20
3481.979283783485
 10
-1078.57308760452
 20
3486.692571876562
 10
-1070.967021148585
 20
3488.552630199434
 10
-1064.910171016526
 20
3487.475936997858
 10
-1062.917183252928
 20
3485.810215040784
 10
-1061.856873781263
 20
3483.378994564161
  0
LWPOLYLINE
  5
1859
330
17E9
100
AcDbEntity
  8
0
  6
ByBlock
 62
     0
370
    -2
100
AcDbPolyline
 90
       22
 70
     0
 43
0.0
 10
768.9688110594488
 20
2366.663579087038
 10
784.145074503926
 20
2362.962122579862
 10
783.8865177643283
 20
2357.237796437703
 10
780.6578168296314
 20
2346.669617341156
 10
776.1174075461036
 20
2335.82680236499
 10
771.9237578221054
 20
2329.27855255293
 10
768.1007058243472
 20
2327.830067312122
 10
763.8110862382041
 20
2329.999621026052
 10
760.9452079720104
 20
2333.455778469401
 10
764.8742973293537
 20
2335.779438636985
 10
767.8807999387759
 20
2337.46984039073
 10
769.524407066679
 20
2339.727877467912
 10
769.8562497370872
 20
2342.44705562411
 10
768.9274509584988
 20
2345.520864583856
 10
763.4924771969945
 20
2352.306373889735
 10
753.6285339743458
 20
2359.232387305989
 10
743.4385593357829
 20
2365.995894000025
 10
742.1918568820479
 20
2368.125722779788
 10
743.2395659508661
 20
2369.694873710459
 10
747.2078832799239
 20
2370.903366163956
 10
751.3352686716452
 20
2370.362214129964
 10
768.9688110594488
 20
2366.663579087038
  0
LWPOLYLINE
  5
185A
330
17E9
100
AcDbEntity
  8
0
  6
ByBlock
 62
     0
370
    -2
100
AcDbPolyline
 90
       18
 70
     0
 43
0.0
 10
-1702.19809269037
 20
2838.999819458351
 10
-1701.237993292749
 20
2837.048672727109
 10
-1701.398656444577
 20
2834.532672059062
 10
-1704.317461212043
 20
2828.820096674268
 10
-1709.42490465475
 20
2823.890084858424
 10
-1715.191376419156
 20
2821.770636181515
 10
-1720.809312518697
 20
2820.997971784011
 10
-1725.472896350925
 20
2819.203087682229
 10
-1729.963328845806
 20
2817.596424101859
 10
-1733.641772785186
 20
2818.63330419851
 10
-1736.127803411091
 20
2822.039092092561
 10
-1737.041020012112
 20
2827.539143888874
 10
-1736.437795764602
 20
2836.906389170529
 10
-1733.941505268695
 20
2842.068931321361
 10
-1728.522265979703
 20
2843.941622109174
 10
-1719.150163290844
 20
2843.439305286248
 10
-1708.31476267386
 20
2841.441179572125
 10
-1702.19809269037
 20
2838.999819458351
  0
LWPOLYLINE
  5
185B
330
17E9
100
AcDbEntity
  8
0
  6
ByBlock
 62
     0
370
    -2
100
AcDbPolyline
 90
       19
 70
     0
 43
0.0
 10
-1706.643245493339
 20
2889.347021474774
 10
-1701.998570280906
 20
2886.76815505639
 10
-1700.487339522611
 20
2884.110824679054
 10
-1702.095766518137
 20
2882.033529639916
 10
-1706.810072582692
 20
2881.194761220604
 10
-1713.423672957357
 20
2880.093372191309
 10
-1718.457020901386
 20
2876.845754621295
 10
-1721.827155747178
 20
2871.53675282617
 10
-1723.451092780561
 20
2864.251179059452
 10
-1725.276724430259
 20
2856.680012192573
 10
-1728.93682885201
 20
2853.503091539298
 10
-1731.330656911786
 20
2853.868487190826
 10
-1732.921770376682
 20
2856.670113021126
 10
-1734.790172859455
 20
2873.274374028499
 10
-1734.893380739266
 20
2888.373936929181
 10
-1733.410252406151
 20
2895.683893918203
 10
-1730.470943929725
 20
2896.223899732344
 10
-1725.150544060269
 20
2895.376386376958
 10
-1706.643245493339
 20
2889.347021474774
  0
LWPOLYLINE
  5
185C
330
17E9
100
AcDbEntity
  8
0
  6
ByBlock
 62
     0
370
    -2
100
AcDbPolyline
 90
       16
 70
     0
 43
0.0
 10
-1630.122842571572
 20
2925.685797765331
 10
-1629.946156388388
 20
2918.801537210674
 10
-1632.055930328504
 20
2914.938062928208
 10
-1638.216918141093
 20
2912.818389816644
 10
-1650.193857544281
 20
2911.165556821261
 10
-1661.139888415781
 20
2910.775689776672
 10
-1663.869679125014
 20
2911.756060433072
 10
-1665.282471239944
 20
2913.60303742169
 10
-1664.913717084096
 20
2918.874221977225
 10
-1661.166043068765
 20
2924.989473213067
 10
-1655.148076240912
 20
2930.615889736408
 10
-1647.968459678545
 20
2934.42056213892
 10
-1639.551013846892
 20
2936.611501269387
 10
-1634.284510357045
 20
2936.137687647813
 10
-1631.398577251205
 20
2932.621614166752
 10
-1630.122842571572
 20
2925.685797765331
  0
LWPOLYLINE
  5
185D
330
17E9
100
AcDbEntity
  8
0
  6
ByBlock
 62
     0
370
    -2
100
AcDbPolyline
 90
       23
 70
     0
 43
0.0
 10
729.3272784131354
 20
3799.761900479326
 10
737.8810682985004
 20
3793.668211001537
 10
731.1765959345985
 20
3788.188125874113
 10
727.6980351032362
 20
3785.089011906869
 10
727.5419407997697
 20
3783.992167679365
 10
738.610617195422
 20
3787.713069846406
 10
741.7316936968918
 20
3787.784119446177
 10
745.2641990010042
 20
3786.389706926494
 10
747.6384050594001
 20
3783.189813783039
 10
745.7901455870314
 20
3777.782188987512
 10
743.6497122697574
 20
3774.705382221999
 10
740.8632357787587
 20
3772.95247541647
 10
730.6534708128224
 20
3772.474589908989
 10
721.6352214217381
 20
3774.150363332456
 10
719.4319143386024
 20
3775.627520100609
 10
718.661189697771
 20
3777.575765212367
 10
715.0134612442116
 20
3790.079853530097
 10
712.4539923925513
 20
3799.587338409853
 10
712.8602591980985
 20
3802.671647705306
 10
714.3097143172431
 20
3804.588431887561
 10
716.7417523772565
 20
3805.296779724984
 10
720.0957599898875
 20
3804.755755939367
 10
729.3272784131354
 20
3799.761900479326
  0
LWPOLYLINE
  5
185E
330
17E9
100
AcDbEntity
  8
0
  6
ByBlock
 62
     0
370
    -2
100
AcDbPolyline
 90
       15
 70
     0
 43
0.0
 10
1096.501334125961
 20
3274.146139151603
 10
1100.363974793989
 20
3270.921141388736
 10
1101.970109349811
 20
3267.280482626851
 10
1099.778689287937
 20
3262.728410756717
 10
1094.503921793424
 20
3257.583590928212
 10
1088.095069949505
 20
3253.402661839912
 10
1082.501388823893
 20
3251.742270205925
 10
1077.968458023734
 20
3254.552777236197
 10
1072.228004648415
 20
3261.041511786715
 10
1067.301399430033
 20
3268.555111164249
 10
1065.210005085164
 20
3274.440220691087
 10
1069.142541117588
 20
3276.415502163407
 10
1078.304380595573
 20
3277.00034681567
 10
1088.741858566911
 20
3276.23161002465
 10
1096.501334125961
 20
3274.146139151603
  0
LWPOLYLINE
  5
185F
330
17E9
100
AcDbEntity
  8
0
  6
ByBlock
 62
     0
370
    -2
100
AcDbPolyline
 90
       13
 70
     0
 43
0.0
 10
-1112.670651401594
 20
3313.465311491738
 10
-1113.808094255321
 20
3305.918888545718
 10
-1118.555095639986
 20
3298.181591940025
 10
-1125.304815633706
 20
3290.337552608686
 10
-1134.262972645562
 20
3296.960026167798
 10
-1140.477239642456
 20
3302.350241246416
 10
-1142.736527141295
 20
3306.900100832079
 10
-1141.094122341907
 20
3311.387391241772
 10
-1135.603296413074
 20
3316.589922839045
 10
-1127.751345760099
 20
3320.969276210097
 10
-1120.628150467225
 20
3321.8151543987
 10
-1115.259360882763
 20
3319.26726797841
 10
-1112.670651401594
 20
3313.465311491738
  0
LWPOLYLINE
  5
1860
330
17E9
100
AcDbEntity
  8
0
  6
ByBlock
 62
     0
370
    -2
100
AcDbPolyline
 90
       26
 70
     0
 43
0.0
 10
-836.8199951594688
 20
2202.518403721974
 10
-828.5030239141333
 20
2196.748132599458
 10
-822.5825258513088
 20
2195.751714865132
 10
-819.0910279651143
 20
2195.766567630065
 10
-818.0384133959515
 20
2191.773145681594
 10
-819.0761832157038
 20
2187.350973384327
 10
-821.5730428137753
 20
2184.754793435312
 10
-823.6938140520511
 20
2182.969808504978
 10
-821.5730428137753
 20
2179.713005145101
 10
-818.8494801662558
 20
2174.866763564727
 10
-818.1059281498852
 20
2169.355137352568
 10
-819.2726597262605
 20
2164.833909216631
 10
-822.2799638880262
 20
2162.958877895973
 10
-825.2755573700463
 20
2164.060619608298
 10
-826.5215143801007
 20
2166.708411512742
 10
-828.6221426079722
 20
2171.329577194926
 10
-833.6727720205379
 20
2177.17655687676
 10
-838.3607390750691
 20
2182.872604252223
 10
-839.5854870101022
 20
2187.132887022576
 10
-840.6794536646907
 20
2191.829695199462
 10
-845.0542622339526
 20
2198.579415193181
 10
-851.0215068294776
 20
2207.327132652649
 10
-851.7870935197844
 20
2209.861561009083
 10
-851.186835015947
 20
2211.115677821999
 10
-846.227318058322
 20
2209.620838809139
 10
-836.8199951594688
 20
2202.518403721974
  0
LWPOLYLINE
  5
1861
330
17E9
100
AcDbEntity
  8
0
  6
ByBlock
 62
     0
370
    -2
100
AcDbPolyline
 90
       17
 70
     0
 43
0.0
 10
1273.786837997314
 20
2454.011246869498
 10
1278.099782756667
 20
2450.158858055949
 10
1283.104106490322
 20
2448.556611028995
 10
1287.401461056584
 20
2447.9068165903
 10
1288.144131365376
 20
2446.100398150287
 10
1285.425161612787
 20
2443.351827069635
 10
1279.337612025954
 20
2439.875574709023
 10
1270.813070785622
 20
2437.122763416472
 10
1263.199926622489
 20
2437.410873390993
 10
1256.90166495547
 20
2440.637859003673
 10
1252.321763187954
 20
2446.701642563508
 10
1250.012242403716
 20
2453.805175777384
 10
1252.109688468783
 20
2458.781573427373
 10
1256.646330456293
 20
2461.382001603811
 10
1262.646053952797
 20
2461.261472177846
 10
1268.796870066141
 20
2458.708407729414
 10
1273.786837997314
 20
2454.011246869498
  0
LWPOLYLINE
  5
1862
330
17E9
100
AcDbEntity
  8
0
  6
ByBlock
 62
     0
370
    -2
100
AcDbPolyline
 90
       28
 70
     0
 43
0.0
 10
-17.90667666511353
 20
2377.434294429862
 10
-13.89063490949456
 20
2367.817638120855
 10
-13.91192413975068
 20
2365.180057993275
 10
-15.20622277167149
 20
2363.581385889775
 10
-17.07320650679548
 20
2360.664617065261
 10
-16.76428021790161
 20
2356.619591176884
 10
-16.140728602948
 20
2354.139788612693
 10
-17.05447422851648
 20
2352.941459842917
 10
-25.54146274153391
 20
2353.712713508296
 10
-34.56386417376052
 20
2356.122708878851
 10
-40.04191335823088
 20
2359.443051293034
 10
-42.03341023446864
 20
2363.73258270842
 10
-40.5961387109528
 20
2369.050161113625
 10
-37.19879116308266
 20
2373.375040987379
 10
-33.33990977554822
 20
2374.764235401304
 10
-29.21751805492977
 20
2373.221463558273
 10
-25.02964752333219
 20
2368.750428630116
 10
-21.92059430702102
 20
2365.402424644542
 10
-20.97446596675627
 20
2365.232054693828
 10
-20.62692088592939
 20
2366.17722117128
 10
-22.3394454843683
 20
2370.184069121514
 10
-26.45480759093016
 20
2374.606594101813
 10
-30.3128553640272
 20
2379.379397456431
 10
-30.39379611972208
 20
2384.251881860547
 10
-28.15518867135825
 20
2388.177877225843
 10
-25.5616137674615
 20
2388.477874221626
 10
-22.26234416440093
 20
2384.960478179197
 10
-17.90667666511353
 20
2377.434294429862
  0
LWPOLYLINE
  5
1863
330
17E9
100
AcDbEntity
  8
0
  6
ByBlock
 62
     0
370
    -2
100
AcDbPolyline
 90
       14
 70
     0
 43
0.0
 10
-1487.878209373306
 20
3345.720891971296
 10
-1478.369265668283
 20
3334.022027107283
 10
-1474.539240165132
 20
3325.841800691831
 10
-1474.812625623094
 20
3323.452661713266
 10
-1476.576329338696
 20
3322.400976944822
 10
-1484.668769741436
 20
3324.920328101665
 10
-1499.864823513286
 20
3331.848193103836
 10
-1503.354429735949
 20
3335.557424668749
 10
-1506.14338302369
 20
3342.742612019906
 10
-1507.464229069243
 20
3350.594779092014
 10
-1506.549513565339
 20
3356.304973866348
 10
-1504.0707209571
 20
3357.617243301821
 10
-1500.041910472642
 20
3356.239583226126
 10
-1487.878209373306
 20
3345.720891971296
  0
LWPOLYLINE
  5
1864
330
17E9
100
AcDbEntity
  8
0
  6
ByBlock
 62
     0
370
    -2
100
AcDbPolyline
 90
       16
 70
     0
 43
0.0
 10
-1057.338210612827
 20
3526.490110655583
 10
-1057.507867181954
 20
3512.617419803647
 10
-1060.147571423247
 20
3503.933193305346
 10
-1064.965574314542
 20
3499.670794436804
 10
-1071.681148178408
 20
3499.927756087237
 10
-1080.013541290842
 20
3504.801651223479
 10
-1085.855214696159
 20
3510.799555196161
 10
-1085.82114872154
 20
3513.078641037897
 10
-1084.119356908987
 20
3515.679814658014
 10
-1080.648707399259
 20
3518.911168730969
 10
-1077.638269167829
 20
3520.25503535984
 10
-1070.713233645434
 20
3524.496585851915
 10
-1066.993036844455
 20
3527.254783576218
 10
-1063.130756874982
 20
3528.565289596534
 10
-1059.715951517059
 20
3528.339828953219
 10
-1057.338210612827
 20
3526.490110655583
  0
LWPOLYLINE
  5
1865
330
17E9
100
AcDbEntity
  8
0
  6
ByBlock
 62
     0
370
    -2
100
AcDbPolyline
 90
       45
 70
     0
 43
0.0
 10
-1317.201039677718
 20
3591.654464635336
 10
-1340.147832088069
 20
3564.791311518863
 10
-1354.725327916069
 20
3549.313544160197
 10
-1363.614912124898
 20
3542.876637984238
 10
-1368.949723905499
 20
3540.83538875401
 10
-1374.982270970488
 20
3535.928974639173
 10
-1378.442091508048
 20
3531.674086316094
 10
-1380.155193224175
 20
3527.243698107302
 10
-1379.582940959237
 20
3511.186600776499
 10
-1376.815854019439
 20
3493.72992892892
 10
-1372.76040795059
 20
3480.51983330661
 10
-1367.42294303173
 20
3471.571976242374
 10
-1360.809839619518
 20
3466.901988006919
 10
-1354.9919322412
 20
3465.511775621518
 10
-1350.77150265339
 20
3467.177329252598
 10
-1346.716489422807
 20
3473.234483974549
 10
-1341.394847147217
 20
3485.019058830705
 10
-1337.334271143367
 20
3497.962510050265
 10
-1336.124015274713
 20
3509.054511619126
 10
-1336.355439467467
 20
3514.451179194113
 10
-1335.540797773709
 20
3517.385630263335
 10
-1333.096343667887
 20
3518.601184392981
 10
-1328.438322608926
 20
3518.841185195816
 10
-1321.77343089977
 20
3519.896973912261
 10
-1317.661956322077
 20
3522.435193611283
 10
-1314.909938566346
 20
3524.88968315245
 10
-1312.46994910708
 20
3523.85576078395
 10
-1310.725033778421
 20
3519.799200557343
 10
-1310.058270476603
 20
3513.185784539716
 10
-1309.42411432414
 20
3505.942853357699
 10
-1307.489655912699
 20
3502.501668912137
 10
-1304.206922334494
 20
3502.833880296623
 10
-1299.527916635169
 20
3506.911120573705
 10
-1295.719613200539
 20
3513.873452326666
 10
-1293.211844475066
 20
3524.144760481572
 10
-1291.95898609933
 20
3536.587538060511
 10
-1291.915389667341
 20
3550.06430213214
 10
-1293.035438835203
 20
3563.437537703019
 10
-1295.273509243497
 20
3575.569761841807
 10
-1298.583952486233
 20
3585.323459555065
 10
-1302.921152219514
 20
3591.561155926971
 10
-1307.470659122146
 20
3595.028487009994
 10
-1310.797005163387
 20
3596.196108309472
 10
-1313.755398601123
 20
3595.069582598672
 10
-1317.201039677718
 20
3591.654464635336
  0
LWPOLYLINE
  5
1866
330
17E9
100
AcDbEntity
  8
0
  6
ByBlock
 62
     0
370
    -2
100
AcDbPolyline
 90
       49
 70
     0
 43
0.0
 10
-818.0384133959515
 20
2072.545985779372
 10
-823.3177337077783
 20
2070.545038600998
 10
-830.0561437979247
 20
2069.687185220376
 10
-835.7606715971867
 20
2068.57766043479
 10
-837.8323156922997
 20
2065.595500970055
 10
-840.139103183043
 20
2061.336452590312
 10
-845.6106117003862
 20
2056.124118007871
 10
-852.0735843585701
 20
2051.711315857505
 10
-857.3547562563117
 20
2049.850864773984
 10
-859.6398938182442
 20
2052.134583588268
 10
-860.7819295669015
 20
2057.627036668359
 10
-861.3372209842411
 20
2062.524970359396
 10
-862.501171173983
 20
2059.747815922158
 10
-865.0878527277214
 20
2052.687005448216
 10
-869.4880705062869
 20
2048.771037502743
 10
-877.1897942189527
 20
2047.343272390027
 10
-889.6810256370859
 20
2047.747054383307
 10
-909.1751954499256
 20
2049.141114219959
 10
-907.7924455168473
 20
2038.893523998911
 10
-905.0009352771283
 20
2027.501381154845
 10
-900.1615469692955
 20
2015.663615285142
 10
-894.3587969458016
 20
2005.61101068729
 10
-888.6771935435776
 20
1999.574351658776
 10
-882.8867713951344
 20
1997.451456306788
 10
-876.9394133132637
 20
1999.209581218076
 10
-871.6145007041109
 20
2000.893474366789
 10
-868.3827939481245
 20
1997.860769011242
 10
-864.6860585842539
 20
1994.440489050811
 10
-858.8099665212858
 20
1993.612854193557
 10
-850.6609285075379
 20
1995.384228765091
 10
-840.1453713223729
 20
1999.760985106548
 10
-827.7124608527879
 20
2007.561900921782
 10
-818.1815626290633
 20
2017.02974903813
 10
-812.4728346955185
 20
2026.991738143494
 10
-811.3393354793247
 20
2031.791537781058
 10
-811.5064270809511
 20
2036.275076925781
 10
-811.9524989759
 20
2043.241825232156
 10
-810.1321655871952
 20
2043.659345832613
 10
-806.4391895038179
 20
2042.679816806174
 10
-798.8898489072662
 20
2040.770062237975
 10
-793.9676121491595
 20
2041.318275948117
 10
-790.5087214123182
 20
2044.897086931142
 10
-787.3493788019463
 20
2052.079092119493
 10
-784.6817965701302
 20
2062.269900372495
 10
-785.8846300640786
 20
2069.032212753538
 10
-791.3226577400139
 20
2072.954280512349
 10
-801.3606340075879
 20
2074.624346883128
 10
-811.3897851838549
 20
2074.316831326359
 10
-818.0384133959515
 20
2072.545985779372
  0
LWPOLYLINE
  5
1867
330
17E9
100
AcDbEntity
  8
0
  6
ByBlock
 62
     0
370
    -2
100
AcDbPolyline
 90
       51
 70
     0
 43
0.0
 10
-1208.261058666814
 20
3643.941471417333
 10
-1209.998327186111
 20
3640.340048642686
 10
-1214.176611151675
 20
3636.685595164959
 10
-1218.357011215428
 20
3632.341894842169
 10
-1218.454920834245
 20
3626.469113190382
 10
-1218.582872634915
 20
3619.286402635967
 10
-1221.192133918183
 20
3611.176913214871
 10
-1224.236020928928
 20
3604.162183985184
 10
-1225.65671634997
 20
3597.843594950721
 10
-1225.594467794937
 20
3590.84530555961
 10
-1224.189490815359
 20
3581.791451213405
 10
-1221.38092354176
 20
3573.314265685554
 10
-1216.903572381134
 20
3568.558519364815
 10
-1210.705737207292
 20
3567.496101810487
 10
-1202.735733925095
 20
3570.098910597386
 10
-1195.914659741714
 20
3572.800823316093
 10
-1192.319545184014
 20
3572.510581212338
 10
-1191.968689692006
 20
3569.244367627943
 10
-1194.880384690182
 20
3563.018349873686
 10
-1197.399687753885
 20
3558.343095439332
 10
-1197.852292300437
 20
3555.063319589276
 10
-1195.9253925276
 20
3551.788842000215
 10
-1191.306166602089
 20
3547.129498379888
 10
-1183.026659913311
 20
3539.19780128421
 10
-1170.808164695741
 20
3543.866330694399
 10
-1159.521049255306
 20
3547.160959309389
 10
-1149.546692197274
 20
3548.532038640338
 10
-1141.941587604152
 20
3549.929986005859
 10
-1139.998432349779
 20
3552.092950959521
 10
-1138.730737240155
 20
3555.601289460463
 10
-1137.863385464257
 20
3563.509348777517
 10
-1139.630295389235
 20
3570.501506293197
 10
-1144.197163915638
 20
3576.929002244636
 10
-1151.729671912966
 20
3583.143092900014
 10
-1158.519557694643
 20
3588.96188198591
 10
-1162.379849814302
 20
3594.764231233231
 10
-1163.03512687103
 20
3599.884756010192
 10
-1160.209943417341
 20
3603.65805565396
 10
-1159.566641552632
 20
3607.736658570026
 10
-1162.638943593971
 20
3615.842621160809
 10
-1169.739294645042
 20
3634.06996955608
 10
-1171.020552020325
 20
3637.935704216156
 10
-1172.867793521217
 20
3640.314246672732
 10
-1175.683694998763
 20
3641.514691540697
 10
-1179.870948335057
 20
3641.84614946598
 10
-1186.219491380614
 20
3642.676790144523
 10
-1189.88100653449
 20
3644.673849794028
 10
-1193.832499279848
 20
3646.902341651812
 10
-1200.030687136722
 20
3647.450651548236
 10
-1205.749041713917
 20
3646.42746196562
 10
-1208.261058666814
 20
3643.941471417333
  0
LWPOLYLINE
  5
1868
330
17E9
100
AcDbEntity
  8
0
  6
ByBlock
 62
     0
370
    -2
100
AcDbPolyline
 90
       47
 70
     0
 43
0.0
 10
-1592.893341238767
 20
2432.599900113754
 10
-1590.651287115323
 20
2419.299453511231
 10
-1585.126002451223
 20
2405.048902868817
 10
-1578.328782465598
 20
2393.980579156196
 10
-1575.081725982224
 20
2390.931105325614
 10
-1572.270922377586
 20
2390.226805327528
 10
-1569.785060077674
 20
2390.28322659702
 10
-1567.420352414554
 20
2389.125768981265
 10
-1562.894266871413
 20
2383.047276935919
 10
-1556.82249183471
 20
2375.757462957301
 10
-1548.1506413046
 20
2370.257587502504
 10
-1539.712427251713
 20
2365.606371622944
 10
-1533.98669037743
 20
2360.507681131834
 10
-1530.331884216673
 20
2356.900944065145
 10
-1526.872191927488
 20
2355.830663282321
 10
-1518.635808754816
 20
2353.297044493754
 10
-1503.498420599021
 20
2346.165585196214
 10
-1483.447195953685
 20
2335.762469773863
 10
-1478.756046736348
 20
2345.59721244462
 10
-1474.183391002022
 20
2359.052647208375
 10
-1473.961729716817
 20
2364.435263570771
 10
-1475.133759554187
 20
2368.95896850345
 10
-1477.712393522391
 20
2372.652120928343
 10
-1481.710552645216
 20
2375.543087782903
 10
-1494.017146480913
 20
2379.031940546362
 10
-1505.313191214459
 20
2382.017594779318
 10
-1514.548364716395
 20
2387.104670776963
 10
-1520.257757938385
 20
2393.19646859122
 10
-1521.332495352242
 20
2396.27641744192
 10
-1520.976437785522
 20
2399.196272242958
 10
-1516.978422942119
 20
2410.691935572249
 10
-1519.071316189871
 20
2410.555014400851
 10
-1524.426230903259
 20
2407.832068948636
 10
-1529.604764023354
 20
2405.383374630914
 10
-1533.084294733052
 20
2405.132320421256
 10
-1536.402120272876
 20
2407.573600379795
 10
-1541.0955218523
 20
2413.201876504575
 10
-1547.374786728767
 20
2420.19796162674
 10
-1551.374220319818
 20
2423.107308076548
 10
-1554.430603531606
 20
2424.809228137476
 10
-1558.443471139942
 20
2428.901265070828
 10
-1564.665825799987
 20
2433.688560491825
 10
-1573.034400985228
 20
2437.059184284548
 10
-1587.879831715251
 20
2441.464740401724
 10
-1590.429128867665
 20
2442.114358498904
 10
-1591.942171134258
 20
2441.15828289405
 10
-1592.893341238767
 20
2432.599900113754
  0
LWPOLYLINE
  5
1869
330
17E9
100
AcDbEntity
  8
0
  6
ByBlock
 62
     0
370
    -2
100
AcDbPolyline
 90
       40
 70
     0
 43
0.0
 10
-1192.519251950517
 20
3702.641706519049
 10
-1201.149742379677
 20
3695.651985722494
 10
-1208.000906838051
 20
3692.744755370874
 10
-1212.456656163008
 20
3691.91411469233
 10
-1215.330309486938
 20
3689.917055042824
 10
-1219.215217279081
 20
3687.852127956354
 10
-1226.101016814239
 20
3686.860311132482
 10
-1235.124211783286
 20
3686.63126755019
 10
-1226.641110799137
 20
3682.746007075014
 10
-1218.870237165755
 20
3679.964612425876
 10
-1212.09825004792
 20
3678.733500165233
 10
-1207.269594525973
 20
3677.21290727556
 10
-1204.169374416493
 20
3673.736951489315
 10
-1202.20412837952
 20
3670.61446425572
 10
-1199.950443731566
 20
3672.67091091839
 10
-1196.253403777804
 20
3674.740607241307
 10
-1189.696497200429
 20
3675.252598801026
 10
-1181.774875617715
 20
3674.256718106769
 10
-1173.983674616891
 20
3671.802805683288
 10
-1170.57099337268
 20
3671.556793237874
 10
-1170.697887124256
 20
3676.612728926957
 10
-1169.934055833582
 20
3683.644154491969
 10
-1164.87565136328
 20
3691.11883048768
 10
-1157.985964299254
 20
3696.813459115493
 10
-1155.163562232198
 20
3696.986882980636
 10
-1151.902165977391
 20
3695.677082326384
 10
-1147.770187690738
 20
3692.248490268145
 10
-1146.051651449719
 20
3688.404237210889
 10
-1145.347375498204
 20
3685.021197372357
 10
-1143.161742644253
 20
3684.819061902253
 10
-1133.909504092914
 20
3694.164264494448
 10
-1126.006085763932
 20
3704.069696066421
 10
-1145.05629978001
 20
3702.870750101341
 10
-1161.786741157374
 20
3702.937551473688
 10
-1166.762569705199
 20
3704.414804428122
 10
-1171.011758991112
 20
3707.103820169616
 10
-1176.622585321362
 20
3711.067015579196
 10
-1180.89068322707
 20
3711.890410224551
 10
-1185.596204277935
 20
3709.204977422035
 10
-1192.519251950517
 20
3702.641706519049
  0
LWPOLYLINE
  5
186A
330
17E9
100
AcDbEntity
  8
0
  6
ByBlock
 62
     0
370
    -2
100
AcDbPolyline
 90
       19
 70
     0
 43
0.0
 10
147.6806276306715
 20
2062.87807821349
 10
143.1324913825474
 20
2058.981115074093
 10
141.094560579022
 20
2056.048828196201
 10
141.2256544648808
 20
2053.012099047888
 10
143.1845842693828
 20
2048.801785050658
 10
151.9019870192014
 20
2036.283204666549
 10
156.3142922071142
 20
2032.536500529554
 10
160.6424584454794
 20
2030.498080779099
 10
164.7965836233957
 20
2030.192865677558
 10
168.6867736454864
 20
2031.645775487305
 10
172.2231344163733
 20
2034.881722455191
 10
175.3157477941085
 20
2039.925634859114
 10
178.4219715306444
 20
2049.351064825418
 10
177.0745780714592
 20
2057.542208383796
 10
172.1032141701903
 20
2065.79083126076
 10
168.9392466027934
 20
2068.201644214705
 10
165.3678980720919
 20
2069.462029166951
 10
157.1374303557186
 20
2068.507284138988
 10
147.6806276306715
 20
2062.87807821349
  0
LWPOLYLINE
  5
186B
330
17E9
100
AcDbEntity
  8
0
  6
ByBlock
 62
     0
370
    -2
100
AcDbPolyline
 90
       27
 70
     0
 43
0.0
 10
-1265.341019829358
 20
3682.140875132926
 10
-1280.367417032081
 20
3658.812351434278
 10
-1294.619025723589
 20
3636.19074880988
 10
-1297.965875473789
 20
3630.874757478316
 10
-1300.039731853371
 20
3625.338740028329
 10
-1300.482701740749
 20
3620.987176477042
 10
-1298.936924076428
 20
3619.224546841581
 10
-1296.805900983673
 20
3620.470503851635
 10
-1295.919768836355
 20
3623.466097333657
 10
-1295.100085378353
 20
3626.461690815676
 10
-1293.1288276988
 20
3627.707647825731
 10
-1289.997507358374
 20
3630.487984425773
 10
-1286.384766664629
 20
3637.174790576015
 10
-1281.257212273612
 20
3645.166756392436
 10
-1273.070180678758
 20
3652.120599706075
 10
-1261.998370213441
 20
3657.92074468445
 10
-1248.216463179983
 20
3662.451599464038
 10
-1236.128749242857
 20
3666.40720417292
 10
-1236.198027411947
 20
3668.379303482435
 10
-1239.255484703876
 20
3671.43803524259
 10
-1243.328075977362
 20
3676.655139061477
 10
-1245.02116293146
 20
3681.872250895888
 10
-1245.653972475986
 20
3684.154791428225
 10
-1247.372220158161
 20
3685.801997526154
 10
-1252.983968273607
 20
3687.175954430019
 10
-1259.694275938574
 20
3685.965209614435
 10
-1265.341019829358
 20
3682.140875132926
  0
LWPOLYLINE
  5
186C
330
17E9
100
AcDbEntity
  8
0
  6
ByBlock
 62
     0
370
    -2
100
AcDbPolyline
 90
       22
 70
     0
 43
0.0
 10
-1570.958869361247
 20
3355.773360305249
 10
-1578.78028888544
 20
3352.920210690279
 10
-1569.545019197222
 20
3346.224218750176
 10
-1551.11689797083
 20
3335.306466645372
 10
-1542.613645960753
 20
3330.154400783675
 10
-1535.075350755501
 20
3323.695932849664
 10
-1529.700244938569
 20
3318.620912199272
 10
-1529.722512062685
 20
3322.024760336651
 10
-1529.007815930697
 20
3328.994690805833
 10
-1524.988944695304
 20
3337.828775530364
 10
-1521.071870607596
 20
3345.589661821539
 10
-1520.488661122116
 20
3351.144419565329
 10
-1523.328376719802
 20
3354.858340211456
 10
-1529.680101928164
 20
3357.096723225162
 10
-1537.004903666597
 20
3357.018964632273
 10
-1542.529170359221
 20
3352.521510538859
 10
-1547.37302331361
 20
3346.351465184782
 10
-1551.880376578472
 20
3352.713786915133
 10
-1555.290452777565
 20
3356.7261174834
 10
-1558.869392008964
 20
3358.455434603445
 10
-1563.723448724692
 20
3358.078825234625
 10
-1570.958869361247
 20
3355.773360305249
  0
LWPOLYLINE
  5
186D
330
17E9
100
AcDbEntity
  8
0
  6
ByBlock
 62
     0
370
    -2
100
AcDbPolyline
 90
       16
 70
     0
 43
0.0
 10
783.1468933544433
 20
3796.351696031858
 10
778.8640388700833
 20
3793.566550117751
 10
776.8204891846266
 20
3790.67406832926
 10
776.8948652266248
 20
3787.782187705027
 10
778.9657879246283
 20
3784.998829252646
 10
788.6117409718081
 20
3780.189402971432
 10
804.7872917080034
 20
3777.109197623982
 10
834.2886822249784
 20
3772.867647131906
 10
845.1357454285675
 20
3770.506514392242
 10
831.2489071777582
 20
3779.577778455357
 10
810.0722629638553
 20
3791.423014792905
 10
804.3790370526435
 20
3794.260966975436
 10
800.9274805197497
 20
3797.194351980039
 10
798.3790971370072
 20
3799.206392642854
 10
794.3573162666052
 20
3799.726199337925
 10
783.1468933544433
 20
3796.351696031858
  0
LWPOLYLINE
  5
186E
330
17E9
100
AcDbEntity
  8
0
  6
ByBlock
 62
     0
370
    -2
100
AcDbPolyline
 90
       19
 70
     0
 43
0.0
 10
-502.9562505935528
 20
2189.058552404803
 10
-503.2778975181454
 20
2181.510710711135
 10
-506.5134998185238
 20
2171.125277533492
 10
-509.5960456988191
 20
2160.899601753528
 10
-509.3574556281094
 20
2152.960129600113
 10
-505.9408868550305
 20
2147.820079008054
 10
-499.489488612694
 20
2145.992675927675
 10
-494.2465748083304
 20
2147.428087849752
 10
-492.8528756702332
 20
2152.827224205958
 10
-491.9596738312415
 20
2157.951019316482
 10
-489.813100623013
 20
2160.674093017072
 10
-488.5095921546608
 20
2162.534720442109
 10
-488.3315192859218
 20
2166.381987336178
 10
-490.5493585130536
 20
2177.352577771499
 10
-494.8619986825156
 20
2188.21819691185
 10
-497.3024209800477
 20
2191.934233656164
 10
-499.6648041413693
 20
2193.611153299483
 10
-503.2690644113147
 20
2193.20643348996
 10
-502.9562505935528
 20
2189.058552404803
  0
LWPOLYLINE
  5
186F
330
17E9
100
AcDbEntity
  8
0
  6
ByBlock
 62
     0
370
    -2
100
AcDbPolyline
 90
     3375
 70
     1
 43
0.0
 10
-292.9797069007259
 20
0.0000000000002842
 10
292.9797069007259
 20
-0.0000000000002842
 10
269.8364914718081
 20
6.243074788136311
 10
239.1138237414498
 20
12.91912410592084
 10
207.941749658391
 20
18.03790149877187
 10
199.9947990216073
 20
19.51349523985351
 10
193.9074337918132
 20
22.32133310081946
 10
189.3877205898066
 20
27.70724384334886
 10
186.1437180208636
 20
36.91704019807486
 10
183.8834927057819
 20
51.1965509266766
 10
182.3151032498376
 20
71.79159677531044
 10
180.0860743519843
 20
136.911592848345
 10
178.2812109235178
 20
190.4037736571362
 10
175.7314168086504
 20
232.056994283233
 10
171.8285702750486
 20
269.3016529708627
 10
165.9645415748578
 20
309.5681479642546
 10
159.9673429682375
 20
334.9085840773427
 10
149.3744199508319
 20
371.7775551813485
 10
134.9014545640102
 20
422.9939204819679
 10
130.2447961440343
 20
444.649444128259
 10
127.0850768040609
 20
465.5702568805335
 10
125.2550766940881
 20
487.1816390392417
 10
124.5876000106846
 20
510.9088949514036
 10
126.0713455391046
 20
570.4121893155063
 10
129.1387821577155
 20
656.0340267306169
 10
129.7869414296292
 20
718.8222749729166
 10
127.9537992344676
 20
764.4508024645108
 10
123.5773154208072
 20
798.5934696119807
 10
116.3751592065277
 20
852.3197758449255
 10
112.1464255364331
 20
884.9069905912827
 10
106.9659847217594
 20
915.2170191749599
 10
89.89657487365002
 20
988.8920475394924
 10
72.52601379438374
 20
1062.412256068785
 10
54.69170659098381
 20
1151.147964029793
 10
47.28312660155824
 20
1194.471515538942
 10
38.88203243772205
 20
1252.439372263961
 10
25.99620481617012
 20
1344.04272190632
 10
19.46174170442691
 20
1388.093698198678
 10
13.54866601630738
 20
1418.976780599638
 10
8.740562296460666
 20
1442.227329286264
 10
4.015427259738771
 20
1472.867453156239
 10
-3.462783581808253
 20
1543.692506053083
 10
-7.441352765345982
 20
1575.518270119228
 10
-14.63502054030323
 20
1605.901913270177
 10
-22.75767946641054
 20
1636.780490946963
 10
-28.39744183627909
 20
1667.413585202882
 10
-32.25150589422629
 20
1702.63709759307
 10
-35.01708591561783
 20
1747.286929672663
 10
-44.70479182439521
 20
1881.602695255025
 10
-49.7312063406498
 20
1952.652816034535
 10
-52.41734450922876
 20
2023.136167167141
 10
-52.42705932363787
 20
2077.474049823019
 10
-51.3232175441708
 20
2093.720105103392
 10
-49.42421980842801
 20
2100.087789218923
 10
-46.36429373528017
 20
2099.328550823181
 10
-44.23539475623647
 20
2095.735961155364
 10
-42.29706484697453
 20
2091.620663172989
 10
-39.02358919834341
 20
2088.380620272626
 10
-34.66744878317332
 20
2086.056030304322
 10
-29.48115663638873
 20
2084.687075087083
 10
-17.62814524110354
 20
2084.976868321526
 10
-5.48458715217248
 20
2089.571574760836
 10
1.866858186173885
 20
2096.038170435615
 10
8.856450734353074
 20
2105.579889615983
 10
14.07996697199223
 20
2115.911602755533
 10
16.13318337871715
 20
2124.748164276807
 10
19.94726600574677
 20
2129.771084024841
 10
28.78042894508281
 20
2136.837641629089
 10
38.7190447840967
 20
2143.157152448748
 10
45.84948611016034
 20
2145.938947874057
 10
48.843668860055
 20
2147.541547584043
 10
52.03084136781035
 20
2151.32006533357
 10
54.50980230204095
 20
2154.033023443579
 10
58.52925065512181
 20
2155.590952641435
 10
75.98145785614588
 20
2156.220467805827
 10
93.93982933134749
 20
2154.765618239407
 10
97.66307203123369
 20
2152.598717663736
 10
100.1554669827492
 20
2148.772307161656
 10
103.0488705564353
 20
2141.467207579839
 10
103.3589029875634
 20
2135.847596235898
 10
101.0322770763064
 20
2131.652078894938
 10
96.01571363836001
 20
2128.619285368634
 10
91.05451342081233
 20
2125.910703734423
 10
90.99027701596559
 20
2124.91203363801
 10
92.48109223605979
 20
2124.077994377527
 10
97.52822688040579
 20
2121.526308599128
 10
102.0730046242083
 20
2117.816411745769
 10
105.3564515839985
 20
2113.706211636303
 10
106.6195938763085
 20
2109.953632120627
 10
104.7921907959294
 20
2105.609226431772
 10
100.3986499483894
 20
2100.859748250364
 10
97.02789790729276
 20
2097.887968888484
 10
95.73259733494296
 20
2095.52140963945
 10
96.38999048985851
 20
2092.773632095618
 10
98.87735169265397
 20
2088.658221895916
 10
105.382606236983
 20
2082.761409704856
 10
114.5184193103591
 20
2079.51767966371
 10
124.7246975235994
 20
2079.213354285271
 10
134.4413394719945
 20
2082.134716004715
 10
142.9424673683597
 20
2084.901626602997
 10
151.3820921533715
 20
2084.869107624402
 10
158.9124359593706
 20
2084.415877867021
 10
165.2137836029146
 20
2086.566434790399
 10
170.753784768051
 20
2091.6044237225
 10
176.0000490612124
 20
2099.813498006813
 10
179.5678547305533
 20
2106.021937718165
 10
183.0017851274028
 20
2109.152336273396
 10
188.2367876101311
 20
2110.120074464854
 10
197.2078015215847
 20
2109.840525069368
 10
209.3241469084382
 20
2108.129771901609
 10
215.797106908828
 20
2104.892053503042
 10
219.0898759223787
 20
2101.793067784172
 10
222.2145674249205
 20
2100.921956727781
 10
224.6542522942959
 20
2102.237368248441
 10
225.891993392825
 20
2105.697942245205
 10
228.2191884062458
 20
2152.176852649575
 10
228.366233183749
 20
2162.605417358848
 10
238.0935197472727
 20
2158.539182395449
 10
253.2443419203523
 20
2154.475776911824
 10
258.3935783022744
 20
2152.459976968516
 10
263.1610833958994
 20
2147.612949866845
 10
268.2269102409068
 20
2142.496929814058
 10
274.0901454042769
 20
2139.836769956946
 10
279.0789190224578
 20
2137.539969808409
 10
281.4082381495905
 20
2132.694000755833
 10
283.6435351867735
 20
2127.785470542807
 10
287.7705598799403
 20
2124.72836593391
 10
291.9152588022916
 20
2121.430210488608
 10
293.2478155275903
 20
2114.842732704834
 10
291.9847133128978
 20
2109.107361171375
 10
287.8765972395258
 20
2103.454164784221
 10
280.4452291169614
 20
2097.398028033749
 10
269.2123627391675
 20
2090.453811363762
 10
265.1748954893938
 20
2086.982063727324
 10
264.3024137784942
 20
2082.538730448175
 10
266.6773732960924
 20
2076.550942066074
 10
272.3822137007692
 20
2068.445821105251
 10
277.0572437004684
 20
2062.954955098801
 10
280.8508226185391
 20
2060.073711074174
 10
284.989557991451
 20
2059.225219824929
 10
290.7000573556757
 20
2059.832644206721
 10
300.5517688895557
 20
2059.781040266816
 10
309.393981354855
 20
2054.346908135273
 10
315.8817861046555
 20
2049.756842684035
 10
319.5171546210709
 20
2048.784824203059
 10
323.2005842160315
 20
2049.357781834061
 10
329.8043254968657
 20
2048.482254224254
 10
335.3846126828107
 20
2046.522306448274
 10
337.9905154617568
 20
2043.001463730767
 10
337.9306074395681
 20
2036.731039976654
 10
335.5134542065816
 20
2026.522333059812
 10
332.1250279362998
 20
2019.023891037103
 10
327.1409834769493
 20
2016.020963351136
 10
320.20212117662
 20
2017.46636261542
 10
310.9492173368348
 20
2023.312893427941
 10
303.0719937384538
 20
2028.034365370451
 10
300.2642440482464
 20
2028.303246104239
 10
298.0835327256878
 20
2027.039807237563
 10
295.2227443168786
 20
2019.502658252163
 10
293.7285224993225
 20
2004.596349621615
 10
293.3773624174246
 20
1988.565895890727
 10
294.7238741690312
 20
1977.855136663232
 10
298.123297737473
 20
1971.159545499302
 10
303.9308650905537
 20
1967.174563897012
 10
310.9301323755244
 20
1963.261730021203
 10
316.94959810626
 20
1958.50482946509
 10
320.5019418308861
 20
1955.783655443555
 10
325.3164098763445
 20
1954.299693496002
 10
344.3698060552287
 20
1954.147350457506
 10
363.4592640740693
 20
1956.145820839137
 10
368.5208026140367
 20
1958.227187764182
 10
372.3838360427131
 20
1961.499364898016
 10
376.6989930865357
 20
1965.666202696108
 10
380.325432309839
 20
1967.448494410568
 10
384.4650974834704
 20
1967.062827500261
 10
390.3199403937993
 20
1964.725773393009
 10
395.1008394270916
 20
1963.656278131482
 10
400.1450484053821
 20
1964.349644955596
 10
405.0820257110944
 20
1966.474472048732
 10
409.5412297266538
 20
1969.699341563224
 10
413.1521268500073
 20
1973.692867713501
 10
415.5441754635798
 20
1978.123640667418
 10
416.3468339497958
 20
1982.660250592836
 10
415.1895606910793
 20
1986.971295673134
 10
408.4274727446918
 20
1993.415624223797
 10
395.9838214736978
 20
2002.01466173898
 10
384.3497380701247
 20
2010.09335551902
 10
379.9355652652498
 20
2015.764707066765
 10
380.4199593777644
 20
2017.785356401754
 10
382.6901399729586
 20
2019.309444059647
 10
392.5623071226564
 20
2021.008318221667
 10
403.9168010531261
 20
2023.300613646032
 10
411.9811871238262
 20
2028.002639928676
 10
415.8925541588446
 20
2034.320691923068
 10
416.021211325577
 20
2037.837703220372
 10
414.7880310598853
 20
2041.461080513721
 10
413.3209818667905
 20
2046.155323723106
 10
414.4953602525279
 20
2049.648681210738
 10
418.2252798834388
 20
2051.842008967191
 10
424.424830379297
 20
2052.63614695199
 10
429.2605555929176
 20
2054.118922602075
 10
433.3858168709276
 20
2057.627036668359
 10
435.5495352837938
 20
2060.207939029697
 10
437.4704314295745
 20
2060.905049103257
 10
443.7776143741821
 20
2056.213194519858
 10
450.417056796417
 20
2051.719267256757
 10
456.8698657708787
 20
2049.850864773984
 10
463.7821806575748
 20
2048.584412070495
 10
471.5258415888784
 20
2045.538625380693
 10
479.5752386307458
 20
2042.642352249616
 10
486.4476121641419
 20
2045.544276324719
 10
491.4303741397429
 20
2050.795670552881
 10
491.7241029961947
 20
2058.789223442945
 10
491.5282837585595
 20
2065.821362389542
 10
492.9623731192704
 20
2066.319439000569
 10
495.7479198095497
 20
2065.343837580615
 10
508.8599615336197
 20
2063.073192085063
 10
514.4817851620301
 20
2062.111064760011
 10
516.6361414435182
 20
2059.431114575528
 10
514.3524226292347
 20
2055.548330897096
 10
508.8599615336197
 20
2051.46830923338
 10
503.0939306230038
 20
2047.828355837557
 10
507.5648773804028
 20
2047.136271497194
 10
513.7567890824221
 20
2048.44204835868
 10
519.2273758145701
 20
2052.252996916044
 10
523.4758597344198
 20
2058.072315026487
 10
526.0014870461173
 20
2065.403216578257
 10
529.4654195472016
 20
2081.385376780421
 10
530.0120942768439
 20
2086.912424859679
 10
527.6525085332028
 20
2092.674616334567
 10
520.9617747764764
 20
2100.868805791851
 10
508.5149894358173
 20
2113.691855833822
 10
499.0160330730004
 20
2121.984796539885
 10
493.5338318473882
 20
2124.488012448045
 10
492.5770027833309
 20
2122.205351682854
 10
494.2096526906925
 20
2118.891998805111
 10
496.0621443594377
 20
2114.254922308898
 10
495.8808171881819
 20
2108.686826734105
 10
495.6196153258493
 20
2103.215935412067
 10
497.2777065046084
 20
2098.809665913305
 10
498.5441592080987
 20
2095.551804504334
 10
495.3972807366754
 20
2093.275860747787
 10
491.0864520755108
 20
2093.109025642911
 10
487.8699427519664
 20
2096.072452829367
 10
484.6064223834469
 20
2099.348701849108
 10
480.4415804506911
 20
2100.658983434767
 10
477.1200918166555
 20
2100.01179404119
 10
480.5829582531223
 20
2096.813311629862
 10
484.3073952660015
 20
2093.468409651858
 10
485.1963568930933
 20
2091.176995935072
 10
483.2265099456662
 20
2089.860085511528
 10
478.374529250509
 20
2089.43866936668
 10
473.1735446492593
 20
2090.825346906244
 10
469.562350951539
 20
2094.029792867012
 10
468.5220722729495
 20
2097.618631269859
 10
471.033816698049
 20
2100.158478120139
 10
472.4794804746061
 20
2101.919432511201
 10
469.5351382494605
 20
2104.965571884032
 10
467.0984111082348
 20
2107.113339405253
 10
466.0701476992817
 20
2109.293722091351
 10
467.9092133662652
 20
2115.990772080547
 10
471.8655154256871
 20
2121.2715031245
 10
476.7231550803926
 20
2123.371073303277
 10
480.6819339365574
 20
2124.661917244594
 10
480.5773073090977
 20
2129.473251220388
 10
480.4168365298323
 20
2134.177129088948
 10
485.7915896637341
 20
2133.48575813017
 10
500.5140061555257
 20
2129.994604911484
 10
504.8165307344074
 20
2130.230237254044
 10
508.153040459369
 20
2131.701478565898
 10
510.9093385046167
 20
2135.062203187171
 10
508.8599615336197
 20
2140.212858316743
 10
506.1226202013072
 20
2145.497164284149
 10
505.6494638526551
 20
2149.042702829374
 10
507.4884894420215
 20
2151.042728222553
 10
511.6876618616693
 20
2151.690494733818
 10
517.4481780921587
 20
2152.260069813927
 10
521.5308929717498
 20
2153.710134112853
 10
523.9434933874222
 20
2155.789473110468
 10
524.6936742416778
 20
2158.246872286646
 10
523.789122421495
 20
2160.831117121258
 10
521.2375167983295
 20
2163.291001109701
 10
517.0465522746836
 20
2165.375309731849
 10
511.2239237530594
 20
2166.832828467574
 10
502.8373136400786
 20
2169.230007016149
 10
500.496644531755
 20
2170.818828041341
 10
499.6699394752199
 20
2172.530647273717
 10
500.7238766057503
 20
2174.356495342548
 10
504.1652774704457
 20
2175.617433365912
 10
519.8879992254328
 20
2176.797647052714
 10
537.9460437346083
 20
2178.471993713008
 10
550.7636592516869
 20
2183.202386933107
 10
558.0525434295855
 20
2186.373608549217
 10
564.3200094555486
 20
2187.440755262376
 10
568.7089974857753
 20
2186.401438446599
 10
570.362447676463
 20
2183.25328550695
 10
568.284439255739
 20
2179.042618826689
 10
562.9786116078962
 20
2173.284579392943
 10
555.8372611544309
 20
2167.293785189551
 10
548.2526602702673
 20
2162.384854200355
 10
541.5095210212921
 20
2157.519615829428
 10
540.0640977104376
 20
2155.075738841294
 10
539.9190728448411
 20
2152.540925739735
 10
543.5791291734513
 20
2146.948262585599
 10
552.5875194707046
 20
2140.241137083438
 10
561.784090211755
 20
2134.945160513904
 10
567.6839082241044
 20
2133.12487521834
 10
571.0589485702426
 20
2134.765155904016
 10
572.6811622660853
 20
2139.850909340295
 10
573.651240990388
 20
2144.153562167551
 10
575.1398439260128
 20
2145.637443959869
 10
577.5340246688201
 20
2144.319251052575
 10
581.2208207836256
 20
2140.215687796517
 10
584.3053945913506
 20
2137.440072339779
 10
588.6470669867121
 20
2135.420256619228
 10
602.881001449035
 20
2133.061600676306
 10
620.8178111661831
 20
2130.034193581753
 10
640.116161741389
 20
2124.697265702964
 10
657.406134747991
 20
2119.7664603503
 10
670.5139362601617
 20
2117.715672647177
 10
676.2754223689867
 20
2117.923996101378
 10
679.292890214474
 20
2119.199859029387
 10
680.4530811237228
 20
2122.519624325883
 10
680.6427604704026
 20
2128.8596388545
 10
679.9668995494807
 20
2136.675311248387
 10
677.3205664703036
 20
2141.41533912766
 10
671.7756678203454
 20
2143.89779483011
 10
662.4040941560338
 20
2144.940774740098
 10
653.5378351204153
 20
2146.619722310848
 10
648.0224095501448
 20
2149.897726730223
 10
644.7974198028009
 20
2152.631412983847
 10
641.5215234660909
 20
2150.983565644044
 10
638.1676521173585
 20
2149.404868224956
 10
635.1348104979133
 20
2150.715999456099
 10
633.1745501165196
 20
2154.196147361103
 10
633.0384224819417
 20
2159.124515994641
 10
634.0872376929942
 20
2161.631579354051
 10
636.3030089150783
 20
2163.374899593546
 10
645.3191261769279
 20
2165.099447477145
 10
667.7392586196661
 20
2167.917953999809
 10
673.1964514121455
 20
2170.028657740644
 10
674.9873598143031
 20
2172.649405269002
 10
678.2692998556872
 20
2175.889816883444
 10
686.4356594155883
 20
2179.17821743672
 10
696.9672075700154
 20
2181.728051629205
 10
707.3447374415468
 20
2182.752780192321
 10
712.9640842732142
 20
2184.012171219661
 10
714.5751644069991
 20
2188.408180848421
 10
715.7311231198714
 20
2192.055644789707
 10
718.8008121005691
 20
2193.967747906274
 10
723.1869706510215
 20
2194.328967470089
 10
728.2923380731572
 20
2193.323780753119
 10
738.2716487246753
 20
2187.952081533648
 10
741.9510625423927
 20
2183.954515559558
 10
743.9606264084641
 20
2179.328436361506
 10
746.9205187490834
 20
2173.00711403355
 10
752.9216048845714
 20
2169.73121769684
 10
758.5964512005362
 20
2166.909176328339
 10
759.3654525038282
 20
2164.576146013854
 10
759.0605419921776
 20
2161.202877098396
 10
758.6134120481347
 20
2157.527046219657
 10
759.6381005336334
 20
2155.741876932283
 10
769.4070998811375
 20
2156.265707420121
 10
775.50711360692
 20
2157.725205990136
 10
781.2951070517606
 20
2160.378953428494
 10
793.8469117805279
 20
2170.373108829423
 10
803.6399496828289
 20
2179.116353626811
 10
809.1787084418319
 20
2182.752780192321
 10
816.1489915940451
 20
2186.578661669854
 10
819.1968062112751
 20
2188.276293425742
 10
823.6883448483913
 20
2189.125353777151
 10
838.9939788411865
 20
2188.442110559142
 10
849.6119022762018
 20
2187.48471239292
 10
855.9623049231968
 20
2187.896012947187
 10
860.3499222989148
 20
2190.274859993655
 10
865.0795139666692
 20
2195.220109319556
 10
870.8280950827566
 20
2203.61639416933
 10
875.2822092409315
 20
2213.502251833063
 10
877.7242426586749
 20
2222.874354521922
 10
877.4365655224196
 20
2229.729366431546
 10
874.2614082843015
 20
2233.491620684013
 10
868.7640096262475
 20
2236.956963917224
 10
863.7158570104247
 20
2240.766237230189
 10
861.6155814655849
 20
2245.349585672784
 10
863.6256823717268
 20
2250.140279675721
 10
868.3691889881728
 20
2254.77960853402
 10
873.9159472395691
 20
2257.825707829233
 10
878.3357709884681
 20
2257.836705127393
 10
881.639585393319
 20
2259.120479377036
 10
885.6029651599387
 20
2264.662772981877
 10
887.9294548072971
 20
2270.774850070436
 10
887.1384027990226
 20
2273.239190689912
 10
885.0897392096108
 20
2274.485147699967
 10
884.2371840899822
 20
2277.480741181987
 10
885.1167274770332
 20
2280.451855255422
 10
887.0617022552268
 20
2281.645238447235
 10
889.0315972957951
 20
2280.933099267224
 10
889.9859014699682
 20
2278.187662256238
 10
891.3885539477478
 20
2272.956980140644
 10
894.9254036655643
 20
2268.729056038417
 10
900.0446860363922
 20
2265.610889171955
 10
906.194628457681
 20
2263.70948677918
 10
912.8234743579282
 20
2263.13184808249
 10
919.3794431190609
 20
2263.984964288759
 10
925.3107861850994
 20
2266.375850651433
 10
930.0657229379703
 20
2270.411490361863
 10
935.375438114681
 20
2275.136577305444
 10
940.0616417540559
 20
2276.570217796842
 10
945.3971589007192
 20
2278.173883571445
 10
952.2744780120774
 20
2283.300147463188
 10
959.2695050851489
 20
2288.377284211769
 10
964.6569788547489
 20
2289.246800178997
 10
967.902031457263
 20
2285.524310938313
 10
969.0257757814306
 20
2279.313089840328
 10
968.007539792301
 20
2273.103992856053
 10
964.8266434393995
 20
2269.387859925458
 10
961.8310499573794
 20
2267.056424700137
 10
960.5850929473248
 20
2263.732459269359
 10
959.677431104048
 20
2261.188780998875
 10
957.264710455524
 20
2259.075151591984
 10
949.7857541702973
 20
2256.451133730064
 10
941.8715068691476
 20
2256.486570359191
 10
938.9146764584829
 20
2257.697251050587
 10
937.2452513295797
 20
2259.807618139438
 10
935.4489564956711
 20
2261.880672966676
 10
932.0620772214134
 20
2260.113009582495
 10
924.6718848427585
 20
2256.875996549991
 10
912.5141873704802
 20
2253.626262881789
 10
899.9210225407622
 20
2250.119206864598
 10
891.4845799185568
 20
2246.260101042406
 10
888.5240222894921
 20
2243.74600806894
 10
887.4533407304957
 20
2241.330009071329
 10
890.7408916382873
 20
2232.226226029617
 10
896.4113214008371
 20
2223.916051948159
 10
904.2990132728295
 20
2217.19275913522
 10
913.4432666923881
 20
2212.689910594531
 10
922.8833650665865
 20
2211.041093376392
 10
929.0335239070087
 20
2211.772934713017
 10
932.4621961204815
 20
2214.234277526727
 10
933.4010864430807
 20
2218.798356650973
 10
932.0818755643095
 20
2225.838446996823
 10
931.2668330943788
 20
2232.049491753294
 10
932.8994349086
 20
2235.145118967842
 10
936.5748650111672
 20
2234.907947644782
 10
941.8883394683712
 20
2231.120596788424
 10
948.4719297232777
 20
2226.873916361348
 10
955.5114910445809
 20
2225.328050526269
 10
961.7801513835365
 20
2226.515862929292
 10
966.0510386914015
 20
2230.470225232041
 10
970.7789551147566
 20
2248.14334827459
 10
972.7400090329707
 20
2257.892020254651
 10
975.5114644330433
 20
2263.355673559024
 10
980.0246049058287
 20
2265.507729385284
 10
987.2107220577055
 20
2265.321632977582
 10
997.0991847665569
 20
2264.165097147023
 10
997.9305308111639
 20
2245.375034959706
 10
999.6183114887443
 20
2229.618022795444
 10
1001.516892417268
 20
2226.789488852956
 10
1004.663281941762
 20
2225.739479328911
 10
1009.898420688388
 20
2226.429439555563
 10
1014.19829212901
 20
2229.274108746735
 10
1018.012503004415
 20
2232.36513505083
 10
1022.079090650845
 20
2233.651386097216
 10
1024.42109033606
 20
2232.167327963382
 10
1025.049234845944
 20
2227.97583441519
 10
1021.23078375864
 20
2213.034626195584
 10
1020.683267399037
 20
2209.393254052112
 10
1023.153619661093
 20
2208.793075703509
 10
1024.889076672093
 20
2208.655970175072
 10
1025.966827922763
 20
2207.289090978404
 10
1026.317811663145
 20
2200.42590323487
 10
1026.757871915515
 20
2193.268994650408
 10
1028.032067614648
 20
2191.711113545693
 10
1030.118243853757
 20
2191.23588117647
 10
1033.742294451076
 20
2192.897154518036
 10
1036.112965663634
 20
2196.89128183257
 10
1038.305010936336
 20
2200.80782689573
 10
1041.420917425188
 20
2202.415901208225
 10
1044.208628306797
 20
2201.556460753962
 10
1045.416102788816
 20
2198.070429454753
 10
1046.454930657663
 20
2195.261822103537
 10
1048.95073220664
 20
2194.798781345467
 10
1051.133711922332
 20
2197.624012892296
 10
1051.348616121277
 20
2202.809655781683
 10
1050.191382940178
 20
2216.995168466906
 10
1051.405879020732
 20
2220.018559784215
 10
1053.899203772966
 20
2220.926734620992
 10
1055.970623433422
 20
2220.041003249846
 10
1057.417217010699
 20
2217.051726000297
 10
1058.994720116795
 20
2202.770067111414
 10
1058.568799247773
 20
2186.518216607594
 10
1056.455754974094
 20
2182.415799571388
 10
1052.457074842245
 20
2178.717653475392
 10
1048.870015885602
 20
2174.66774613324
 10
1045.400464502586
 20
2168.640128615166
 10
1039.516108434951
 20
2153.07854292789
 10
1036.20849467199
 20
2136.88655235312
 10
1035.959861150411
 20
2130.070928725678
 10
1036.882103230825
 20
2124.917828861457
 10
1039.34007952469
 20
2119.83114562446
 10
1041.403595879034
 20
2117.715672647177
 10
1054.009481344451
 20
2126.286431395664
 10
1061.490874348803
 20
2133.827419816792
 10
1066.949037019619
 20
2142.474662689942
 10
1069.768962289932
 20
2150.955952165793
 10
1069.335619046206
 20
2157.999088410551
 10
1068.679684716556
 20
2162.725682272538
 10
1071.375096845755
 20
2163.699031330406
 10
1076.762843143153
 20
2161.055391467104
 10
1084.18387124048
 20
2154.931034596635
 10
1090.37203167753
 20
2149.478963723633
 10
1095.525780799148
 20
2146.243633951052
 10
1100.747397357732
 20
2144.718704663198
 10
1107.13914407463
 20
2144.397851275426
 10
1113.491927332086
 20
2144.877323856549
 10
1118.302908624848
 20
2146.458538149996
 10
1122.640949988092
 20
2149.705626695464
 10
1127.574937503562
 20
2155.182697986075
 10
1135.246490786
 20
2162.671160682101
 10
1141.416528124553
 20
2165.786578224023
 10
1146.069507419269
 20
2167.048790715613
 10
1150.08625454095
 20
2170.081856769714
 10
1155.043919912661
 20
2172.960455671607
 10
1163.186994376971
 20
2172.59002627136
 10
1170.793285267562
 20
2172.134768586548
 10
1176.746174060607
 20
2174.50013352259
 10
1181.965794753854
 20
2180.364787433609
 10
1187.372313407148
 20
2190.407364611638
 10
1190.263504696364
 20
2197.47749713934
 10
1191.72237805555
 20
2204.230575637381
 10
1191.13315692749
 20
2223.771403812164
 10
1188.972083637358
 20
2239.180951050834
 10
1186.560765705437
 20
2246.52307433542
 10
1184.73371530809
 20
2250.59143341253
 10
1183.973418863253
 20
2258.125135722851
 10
1182.409702457475
 20
2267.392563691109
 10
1178.648858937132
 20
2275.631423660524
 10
1166.800793119809
 20
2297.274643478335
 10
1160.892799273551
 20
2308.040581569189
 10
1154.444807628677
 20
2316.64651243453
 10
1148.522233545281
 20
2321.89843568724
 10
1146.0909248979
 20
2322.893522844676
 10
1144.190500398986
 20
2322.602358955724
 10
1142.237846749336
 20
2321.896888691216
 10
1141.650164601776
 20
2322.78650759123
 10
1144.481752458694
 20
2327.791184007915
 10
1151.553832758592
 20
2336.862448071031
 10
1154.033242562136
 20
2339.985199816901
 10
1155.930757426042
 20
2340.880613940362
 10
1161.637417354539
 20
2335.49101605705
 10
1167.575581631025
 20
2328.464175371445
 10
1172.948218666738
 20
2335.097966849655
 10
1176.740162418027
 20
2341.185644684864
 10
1178.318018207153
 20
2346.507735829765
 10
1179.234505141738
 20
2350.737222959063
 10
1181.6458711668
 20
2354.442615088249
 10
1185.044982129828
 20
2357.071185767483
 10
1188.924719909353
 20
2358.070200531404
 10
1192.813515230365
 20
2355.219880396207
 10
1196.799867487163
 20
2348.365533775027
 10
1200.506277587825
 20
2340.991596877909
 10
1203.724903009558
 20
2336.887897357953
 10
1206.059704754723
 20
2336.172311502863
 10
1206.323559755315
 20
2338.017565153942
 10
1200.939620831551
 20
2348.17324938323
 10
1196.965997225976
 20
2355.857170618336
 10
1195.304010502825
 20
2362.419207130713
 10
1200.259207093316
 20
2382.158676007381
 10
1204.32778258956
 20
2393.322608883593
 10
1207.545125527542
 20
2399.552562259858
 10
1208.870965244197
 20
2403.420501188879
 10
1209.4227218157
 20
2410.085745581067
 10
1209.4227218157
 20
2418.741340629641
 10
1218.559023836007
 20
2407.492747794858
 10
1235.525225804305
 20
2388.250249386981
 10
1241.055143440955
 20
2380.647621590601
 10
1243.355125752298
 20
2373.594273568982
 10
1244.853098834823
 20
2368.222702597886
 10
1249.010526408397
 20
2365.139451351528
 10
1253.015963626505
 20
2362.889662247965
 10
1254.705515734766
 20
2360.001516857656
 10
1256.4021375347
 20
2350.474995109729
 10
1256.900695077133
 20
2347.199988496122
 10
1255.95394152604
 20
2345.05217288176
 10
1247.870959440959
 20
2342.382121868725
 10
1242.415177380604
 20
2340.930799132618
 10
1238.504916487821
 20
2338.508171297123
 10
1235.318890199917
 20
2334.352867837261
 10
1232.035844016299
 20
2327.703526243578
 10
1228.018167093898
 20
2318.065925371822
 10
1226.828278670305
 20
2312.74357773017
 10
1228.556048794327
 20
2310.475144519086
 10
1233.291339499247
 20
2309.999294954559
 10
1238.335604586202
 20
2309.449397984494
 10
1241.237881344335
 20
2307.822671548954
 10
1241.969554354968
 20
2305.153590414255
 10
1240.501976137326
 20
2301.476605300141
 10
1239.528538908701
 20
2297.569430383882
 10
1241.036411162676
 20
2293.836160264171
 10
1242.532620830045
 20
2290.064359523288
 10
1240.527425424247
 20
2285.963842166136
 10
1238.320359060619
 20
2282.316947327014
 10
1240.165837146354
 20
2282.051368988883
 10
1252.607364303637
 20
2290.411816433357
 10
1259.656375927076
 20
2298.199033719031
 10
1263.13135381946
 20
2306.40458117303
 10
1262.81968622155
 20
2313.970714291189
 10
1258.508769389627
 20
2319.839688569341
 10
1256.392013928596
 20
2321.953887078397
 10
1255.274946535454
 20
2324.671173571063
 10
1255.754595458091
 20
2333.296718422261
 10
1258.230903254064
 20
2341.631764672953
 10
1261.89246650108
 20
2346.811355842142
 10
1266.655242435875
 20
2348.764722873378
 10
1272.435196310706
 20
2347.421080679162
 10
1281.079345191808
 20
2343.840241768708
 10
1287.150198443316
 20
2342.802736461228
 10
1291.044604630736
 20
2344.328194773629
 10
1293.159412319573
 20
2348.436222676243
 10
1294.730246510165
 20
2353.204521306689
 10
1297.090265092073
 20
2354.616167201768
 10
1301.533422029705
 20
2352.545492984991
 10
1309.353655256429
 20
2346.866855326439
 10
1317.98591711627
 20
2341.353898537389
 10
1323.492156896678
 20
2339.639249825237
 10
1334.636123104
 20
2342.356672581803
 10
1341.701125696702
 20
2345.975064219572
 10
1347.57001981962
 20
2352.420458834854
 10
1353.671404199911
 20
2359.753700919467
 10
1362.242956485218
 20
2367.105763453119
 10
1371.009622642098
 20
2372.769163601611
 10
1377.696340621581
 20
2375.036402499703
 10
1381.421835683553
 20
2376.697675841267
 10
1384.740142154784
 20
2380.691803155801
 10
1387.98669366018
 20
2384.412528981327
 10
1392.240620120446
 20
2386.123819189157
 10
1396.806294333857
 20
2385.722810566987
 10
1400.988105129734
 20
2383.106655933561
 10
1402.775879462226
 20
2382.101188673271
 10
1404.614279840764
 20
2382.856763974801
 10
1409.230852628017
 20
2390.345571338336
 10
1414.380802391526
 20
2398.385077224279
 10
1416.926083766697
 20
2399.503739706585
 10
1419.98459910772
 20
2399.122753861968
 10
1444.121849043829
 20
2394.677609074522
 10
1466.036522578451
 20
2390.645311837367
 10
1468.490306753558
 20
2387.687663843311
 10
1469.483141548906
 20
2382.493404266227
 10
1468.92939712759
 20
2377.11940459153
 10
1466.743451668225
 20
2373.622552335678
 10
1464.74639201872
 20
2370.800510967177
 10
1463.915751340176
 20
2366.46847323099
 10
1464.809834886746
 20
2363.608029489688
 10
1467.603076479528
 20
2360.650830364945
 10
1479.552931429013
 20
2353.910656859642
 10
1496.542466586045
 20
2347.203347000442
 10
1499.785924099394
 20
2347.381315667377
 10
1500.675855604822
 20
2349.683237735392
 10
1501.84147302344
 20
2350.725816869208
 10
1504.992078713262
 20
2351.244797965366
 10
1515.170647261971
 20
2350.914349996036
 10
1527.056442148124
 20
2349.096717838731
 10
1536.494336253377
 20
2346.196685427161
 10
1540.896742269842
 20
2345.470607251888
 10
1547.580246024425
 20
2345.980017813058
 10
1564.124502823328
 20
2349.640122234809
 10
1578.795050862941
 20
2355.04668096572
 10
1583.136426683935
 20
2357.73915941334
 10
1584.259850387166
 20
2360.069384294621
 10
1585.046654168017
 20
2363.758120166099
 10
1588.823761185419
 20
2367.70982933059
 10
1593.27928607572
 20
2372.536585173481
 10
1593.048695497403
 20
2376.732671616605
 10
1588.649191100423
 20
2379.517913716995
 10
1580.597974534735
 20
2380.112128516158
 10
1574.65843960374
 20
2379.939898964007
 10
1570.797522273252
 20
2381.043852960802
 10
1567.880881697114
 20
2384.124362898143
 10
1564.774169013649
 20
2389.881825214202
 10
1558.983386166651
 20
2398.440216010021
 10
1555.650194868392
 20
2400.050021675579
 10
1551.252101203538
 20
2400.48570545215
 10
1544.737388341551
 20
2401.696626609249
 10
1541.401455734277
 20
2404.898683944032
 10
1541.513368472543
 20
2409.44585031382
 10
1545.342207678226
 20
2414.692074529364
 10
1550.197017853156
 20
2422.81640869987
 10
1553.132526971471
 20
2436.448401398433
 10
1555.316749093296
 20
2448.958589529502
 10
1558.547574141704
 20
2458.939222742387
 10
1562.887563277144
 20
2466.535037343843
 10
1568.399277660061
 20
2471.890793687192
 10
1573.697065737894
 20
2477.981044505425
 10
1579.069606587325
 20
2488.060998069253
 10
1583.712598539836
 20
2500.335954633933
 10
1586.821747942428
 20
2513.011214454721
 10
1590.149945569582
 20
2523.291668321873
 10
1596.006119056802
 20
2530.528812295968
 10
1601.931875303004
 20
2538.87411040114
 10
1607.630439552826
 20
2552.703998357908
 10
1611.926647899237
 20
2568.532180354793
 10
1613.645312388631
 20
2582.872376611357
 10
1612.804572150553
 20
2588.527360460239
 10
1610.461626633572
 20
2595.379118067346
 10
1602.53562857506
 20
2610.629084249853
 10
1592.400311790833
 20
2624.534478437425
 10
1587.29572187447
 20
2629.705525058627
 10
1582.588677874153
 20
2633.00750390861
 10
1575.190574173863
 20
2637.824625092327
 10
1567.889233872539
 20
2644.300983674656
 10
1562.308369568906
 20
2650.800146421171
 10
1560.071701877215
 20
2655.685656050876
 10
1562.153461562908
 20
2657.534797230823
 10
1567.186544994664
 20
2657.675654024231
 10
1573.2953998428
 20
2656.313936824659
 10
1578.604449731066
 20
2653.655372056713
 10
1583.335548317227
 20
2650.47871591571
 10
1586.257623418257
 20
2649.871908729223
 10
1587.915714597017
 20
2652.017864742147
 10
1588.854861416365
 20
2657.099506214901
 10
1589.628191102315
 20
2661.051135224157
 10
1591.113844325314
 20
2663.420131192317
 10
1593.739938207806
 20
2664.572859649243
 10
1597.93460590328
 20
2664.875686124799
 10
1604.050217837677
 20
2665.513689728515
 10
1601.313710119802
 20
2668.885363554807
 10
1595.591989022761
 20
2674.718516458708
 10
1593.864483411014
 20
2680.517467124091
 10
1596.211524860471
 20
2687.983871099611
 10
1602.713420900479
 20
2698.81939996497
 10
1610.531658261866
 20
2712.880848378391
 10
1613.783868726811
 20
2723.052796104739
 10
1615.355007507296
 20
2731.359780007868
 10
1617.703860465051
 20
2734.154552565627
 10
1621.437042414002
 20
2736.169078040708
 10
1634.08286923272
 20
2738.234093297937
 10
1655.345407795803
 20
2738.308236889754
 10
1678.633284775089
 20
2737.164077027385
 10
1690.157226871075
 20
2735.55122546292
 10
1693.141157766491
 20
2732.180962368753
 10
1695.891804867712
 20
2726.810810145307
 10
1699.540952068922
 20
2721.678526595459
 10
1705.412667656091
 20
2720.01584252177
 10
1711.557263723246
 20
2718.769885511714
 10
1716.590571589658
 20
2715.774292029694
 10
1721.265818008491
 20
2712.778698547674
 10
1726.549731215248
 20
2711.532741537619
 10
1731.250779604033
 20
2710.482956448232
 10
1734.526675940744
 20
2707.961352929301
 10
1738.616236077353
 20
2704.602752421739
 10
1745.271933981124
 20
2701.545303145333
 10
1749.848613508217
 20
2699.620078616896
 10
1752.521101240378
 20
2696.972206557218
 10
1753.906800886082
 20
2692.522733387115
 10
1754.623140200374
 20
2685.192713542923
 10
1756.654842942187
 20
2673.588536057304
 10
1759.025866837777
 20
2670.807494091197
 10
1762.89415844983
 20
2668.868402707208
 10
1773.536873898844
 20
2667.145001043462
 10
1788.471773901502
 20
2666.938497113082
 10
1802.243958105027
 20
2668.072316950213
 10
1809.398518141122
 20
2670.369910635571
 10
1812.695623552854
 20
2671.455388850838
 10
1818.351024208953
 20
2669.832646130448
 10
1824.298382290825
 20
2668.07487390219
 10
1825.871292501989
 20
2668.823026829016
 10
1826.950061724136
 20
2670.700751365549
 10
1830.363801017441
 20
2673.594900382915
 10
1836.377607788628
 20
2674.83484575039
 10
1844.241445462864
 20
2674.897054227806
 10
1838.178856216021
 20
2679.783325332239
 10
1831.332108311063
 20
2687.045694158598
 10
1830.53511679992
 20
2690.792582652632
 10
1831.771286855854
 20
2695.212318230773
 10
1841.189823472
 20
2707.857479761044
 10
1861.281165812152
 20
2728.55550103931
 10
1880.355907329957
 20
2748.173158006263
 10
1893.016097966678
 20
2762.739921048377
 10
1900.040854616188
 20
2773.248055858836
 10
1902.209302187884
 20
2780.689812099779
 10
1899.38336527499
 20
2785.726294113473
 10
1892.589463716071
 20
2793.2674187985
 10
1883.244974505462
 20
2800.4635633702
 10
1879.297377304496
 20
2801.321729356237
 10
1874.789094238914
 20
2800.79475678321
 10
1865.322304171662
 20
2800.923774648497
 10
1853.304221086656
 20
2804.880782073981
 10
1845.426869239901
 20
2808.96782533623
 10
1840.810737306438
 20
2812.585912384109
 10
1839.953677462636
 20
2815.170654181175
 10
1843.353549900388
 20
2816.157653675459
 10
1847.551624193326
 20
2817.877953331635
 10
1852.939450645957
 20
2822.013819147156
 10
1859.17170447745
 20
2827.869984618852
 10
1852.365426950339
 20
2840.048891166153
 10
1848.230266500881
 20
2846.873900971543
 10
1844.381420548694
 20
2850.666205421387
 10
1839.058624037729
 20
2852.506329137464
 10
1830.501651989558
 20
2853.474812772603
 10
1817.097997507224
 20
2856.061806931755
 10
1806.610406483342
 20
2861.013460660885
 10
1802.127396363166
 20
2864.560722543651
 10
1799.686429010041
 20
2867.693902485515
 10
1798.92034535728
 20
2871.168527694869
 10
1799.461986338202
 20
2875.740125380101
 10
1799.645429607645
 20
2883.255800778206
 10
1797.010366354425
 20
2889.047288991266
 10
1783.62120393847
 20
2909.4717645011
 10
1775.228590198433
 20
2922.116885953754
 10
1768.040573367501
 20
2930.679516961474
 10
1758.508400675549
 20
2942.383367481067
 10
1756.071360928909
 20
2945.56762233829
 10
1751.980654572449
 20
2947.565836223171
 10
1733.322071016115
 20
2949.579864735798
 10
1715.274631044451
 20
2949.509175834583
 10
1704.270279224402
 20
2947.266809105725
 10
1688.767455339464
 20
2943.609309729092
 10
1663.019429859462
 20
2940.616409462949
 10
1635.090725118994
 20
2938.983454965697
 10
1613.045839406091
 20
2939.405800911263
 10
1598.865624981861
 20
2941.839385967301
 10
1594.720749717995
 20
2943.431164720643
 10
1592.824950176104
 20
2945.191277481744
 10
1590.190023186781
 20
2947.88721863549
 10
1585.541147840066
 20
2948.918888641905
 10
1579.709413683814
 20
2948.25711901119
 10
1573.525902250359
 20
2945.872749269073
 10
1568.1705867608
 20
2944.184615908461
 10
1564.522497608686
 20
2946.788923598243
 10
1558.40865710497
 20
2951.993659464463
 10
1547.991762997825
 20
2958.752925946599
 10
1537.318259923279
 20
2965.957550942099
 10
1530.578783768516
 20
2972.235397070916
 10
1525.823654643082
 20
2976.505138158929
 10
1520.992177656883
 20
2976.498870019599
 10
1516.613481558754
 20
2972.449331391525
 10
1513.216703113048
 20
2964.589301090924
 10
1510.035542247873
 20
2953.301119585871
 10
1496.165672860186
 20
2954.26536300911
 10
1482.342766424333
 20
2956.999930970312
 10
1464.2335107359
 20
2962.594357539606
 10
1447.177751324209
 20
2969.196151048243
 10
1436.51533371858
 20
2974.952819827482
 10
1434.668364745484
 20
2975.962527299671
 10
1432.998739228496
 20
2975.628993353817
 10
1429.598778619983
 20
2970.555744134104
 10
1425.609604898935
 20
2965.247095022011
 10
1420.606691897407
 20
2963.198070734045
 10
1413.900095419793
 20
2961.12148106097
 10
1405.696231225717
 20
2956.128819913921
 10
1398.593307191622
 20
2951.200090581828
 10
1393.911784617936
 20
2949.460746041959
 10
1390.895070231652
 20
2950.878708169508
 10
1388.786578775287
 20
2955.42189883967
 10
1380.949256452589
 20
2968.964101644661
 10
1364.575810458188
 20
2988.70958216391
 10
1358.79882232703
 20
2997.279282863303
 10
1355.354680153318
 20
3006.394023125555
 10
1354.985268724548
 20
3015.565890023364
 10
1356.725759484268
 20
3024.476106189526
 10
1359.969353261516
 20
3031.219421780018
 10
1364.109242869803
 20
3033.890578935288
 10
1368.754094423752
 20
3035.967168608363
 10
1373.935497101238
 20
3040.959829755412
 10
1379.40462500812
 20
3045.952490902462
 10
1384.748622578582
 20
3048.029080575537
 10
1391.651703582277
 20
3049.929336748459
 10
1400.081477288981
 20
3054.557179361669
 10
1407.569098355046
 20
3060.30320352578
 10
1411.645713421299
 20
3065.55799633588
 10
1414.416150849895
 20
3069.456682812817
 10
1418.743234992596
 20
3072.087153171107
 10
1424.581421645217
 20
3075.569248848306
 10
1430.033893294391
 20
3081.471936418048
 10
1434.064908047795
 20
3088.394190553809
 10
1435.638748059679
 20
3094.934969898023
 10
1436.696660889835
 20
3103.353746306568
 10
1439.644185277787
 20
3109.986824403192
 10
1444.142000069756
 20
3114.333706888789
 10
1449.850768080917
 20
3115.89388844873
 10
1457.362555950154
 20
3117.555161790296
 10
1464.687710371617
 20
3121.54928910483
 10
1474.805224678284
 20
3127.20468976093
 10
1478.749647731969
 20
3129.244343901994
 10
1482.544284699133
 20
3134.404721861498
 10
1485.392536829282
 20
3141.24793492062
 10
1486.497765294304
 20
3148.336094360538
 10
1485.872450264194
 20
3157.742038589359
 10
1484.02953714596
 20
3164.570984016759
 10
1480.872278571682
 20
3169.041089144196
 10
1476.303903126873
 20
3171.370544535227
 10
1471.279524553573
 20
3173.534567537984
 10
1469.979751319143
 20
3176.721611797364
 10
1472.438000140805
 20
3181.153017977634
 10
1478.687655673686
 20
3187.050142774108
 10
1483.885987136677
 20
3191.493027183943
 10
1486.004682354381
 20
3194.397564319687
 10
1485.385996162156
 20
3197.025870486648
 10
1482.372151333263
 20
3200.640070005658
 10
1478.579854898943
 20
3206.582835192599
 10
1480.299449189056
 20
3212.154465613229
 10
1483.168549695672
 20
3219.750151966309
 10
1483.450567872379
 20
3228.510942744507
 10
1481.242267118141
 20
3237.546906442395
 10
1476.640402816399
 20
3245.968103539018
 10
1471.64774166935
 20
3253.624098690459
 10
1469.571151996276
 20
3258.573989004434
 10
1466.098955490524
 20
3262.445334530917
 10
1457.629416772035
 20
3266.653083560646
 10
1447.083112038956
 20
3270.032139684027
 10
1437.380609473907
 20
3271.417406491464
 10
1429.622111808717
 20
3272.654169696135
 10
1424.353396034401
 20
3275.627848737071
 10
1422.970870535979
 20
3278.178877242547
 10
1423.307498473881
 20
3281.067639828162
 10
1430.161492412029
 20
3290.473279467093
 10
1447.758275609337
 20
3308.892920269685
 10
1451.953961276289
 20
3313.277050892707
 10
1454.292378022526
 20
3317.195399448642
 10
1455.121864465695
 20
3321.557527459821
 10
1454.790759223443
 20
3327.272972402009
 10
1454.94990744134
 20
3337.298668887672
 10
1457.612103241405
 20
3347.121308118037
 10
1462.523374763446
 20
3356.109419140987
 10
1469.429766178321
 20
3363.631539019938
 10
1475.758510880981
 20
3371.196036971314
 10
1479.26663296279
 20
3380.185959502562
 10
1479.685836823169
 20
3389.361978441513
 10
1476.747858923633
 20
3397.484773631518
 10
1472.136977158023
 20
3402.286825631169
 10
1466.338739874226
 20
3403.983535601862
 10
1458.902722748066
 20
3402.584971041036
 10
1449.378541532984
 20
3398.101207461658
 10
1442.926878778374
 20
3394.661842539916
 10
1438.63893443663
 20
3393.393089381199
 10
1434.798480737483
 20
3394.196333000625
 10
1429.689265864096
 20
3396.972958413317
 10
1421.418600297672
 20
3400.247083319347
 10
1413.701446702384
 20
3400.660275537147
 10
1406.5634066601
 20
3400.497287883521
 10
1399.964835391884
 20
3402.319080097492
 10
1395.139762808915
 20
3405.577165941118
 10
1393.322210806844
 20
3409.723059176462
 10
1397.464793631007
 20
3421.2855238781
 10
1400.366148603946
 20
3429.6830831961
 10
1401.478358589884
 20
3439.938448474885
 10
1400.751334582845
 20
3449.476985492448
 10
1398.134955514763
 20
3455.724084073352
 10
1389.586816573423
 20
3467.235650201147
 10
1384.866683223328
 20
3472.727045232144
 10
1380.507072086508
 20
3475.011830111045
 10
1376.603784699117
 20
3477.080644726385
 10
1372.672931926616
 20
3482.68479412561
 10
1369.19804220499
 20
3490.920824615249
 10
1366.662651985742
 20
3500.885290517357
 10
1364.120905456408
 20
3509.188122379345
 10
1360.631170985371
 20
3514.661843181158
 10
1357.687181443257
 20
3518.548161705427
 10
1356.463138874286
 20
3523.034666593822
 10
1354.338832790174
 20
3529.636283760944
 10
1349.232711908834
 20
3538.606808725468
 10
1344.548624367648
 20
3547.238717902278
 10
1343.44440585858
 20
3553.0309114814
 10
1343.122815042651
 20
3555.531834949857
 10
1340.974013518907
 20
3558.919772273208
 10
1332.997822252614
 20
3566.851998393433
 10
1323.121943915564
 20
3573.818217675262
 10
1314.952498379137
 20
3576.809041920836
 10
1310.293154758809
 20
3577.846811740587
 10
1308.301746053329
 20
3580.343663323136
 10
1307.218736619282
 20
3581.579368478711
 10
1304.456074248423
 20
3578.929813159112
 10
1299.264419716458
 20
3575.38671133301
 10
1291.892598917528
 20
3573.981341592786
 10
1287.154655074349
 20
3574.195893108699
 10
1284.683028344065
 20
3575.201496632888
 10
1283.958384947489
 20
3577.541059598977
 10
1284.461407136478
 20
3581.757513487161
 10
1284.32479055497
 20
3589.182220709747
 10
1281.786402529957
 20
3595.019782151541
 10
1277.795281036712
 20
3597.990591635084
 10
1275.551519606776
 20
3598.001083955267
 10
1273.300472066033
 20
3596.815018936355
 10
1270.882260783953
 20
3595.358798715427
 10
1268.33786111636
 20
3595.241050676096
 10
1260.92363018291
 20
3599.433474025008
 10
1253.027185359321
 20
3603.242562980934
 10
1244.044380612887
 20
3603.871549120781
 10
1234.110397746421
 20
3601.33421914486
 10
1223.360458640352
 20
3595.64435173797
 10
1203.939807208503
 20
3583.507863340712
 10
1195.297077075049
 20
3577.146511488699
 10
1190.311357371299
 20
3570.731607924583
 10
1189.125532818091
 20
3564.555294431178
 10
1191.882496151784
 20
3558.909696760244
 10
1194.36463924882
 20
3555.763884353439
 10
1194.697115145579
 20
3553.243691566634
 10
1187.508040265554
 20
3545.902273648111
 10
1180.934349182096
 20
3538.631905329359
 10
1178.318018207153
 20
3531.978684222332
 10
1177.451932883958
 20
3527.826250319861
 10
1175.109195770588
 20
3525.009154529322
 10
1171.673069120316
 20
3523.494268692338
 10
1167.526807170894
 20
3523.248512743674
 10
1158.636958449791
 20
3526.431925970934
 10
1154.659896184661
 20
3529.794894938772
 10
1151.505763664524
 20
3534.294569332179
 10
1148.474116358072
 20
3543.106034249563
 10
1147.213314598606
 20
3552.632203314458
 10
1147.213314598606
 20
3562.670540280587
 10
1130.95403370456
 20
3563.17669653924
 10
1109.455029184477
 20
3563.241734496432
 10
1087.972993527517
 20
3561.890092809824
 10
1082.002302256913
 20
3562.919374190253
 10
1077.965764807858
 20
3567.316449883629
 10
1071.247145045085
 20
3577.761975440501
 10
1069.414443703713
 20
3582.018723365017
 10
1073.712896396687
 20
3585.840717313682
 10
1080.113708670595
 20
3591.727013137988
 10
1085.137870824762
 20
3599.912770264614
 10
1087.915602379688
 20
3608.52479292777
 10
1087.577114840349
 20
3615.689917423758
 10
1085.09580535775
 20
3620.182786637764
 10
1082.487257456068
 20
3622.052247169631
 10
1079.620673823812
 20
3624.959477521251
 10
1076.520806397363
 20
3631.949198317805
 10
1072.494512787265
 20
3639.797830544076
 10
1069.839170259742
 20
3641.387308842191
 10
1066.315634326358
 20
3641.84614946598
 10
1060.936640980558
 20
3643.092106476034
 10
1057.75053453742
 20
3646.087699958053
 10
1055.795708680919
 20
3649.110690499191
 10
1053.063617516459
 20
3650.136966058331
 10
1049.621070431912
 20
3649.165476601903
 10
1045.534868799624
 20
3646.195156065288
 10
1040.430599504199
 20
3643.501547428863
 10
1034.926042983714
 20
3644.062008858821
 10
1029.297414175903
 20
3647.770222452258
 10
1023.820952065074
 20
3654.51990236836
 10
1019.406915524098
 20
3663.182206410053
 10
1020.032190476591
 20
3665.780029541373
 10
1022.407101901049
 20
3668.593366051419
 10
1024.687205714262
 20
3671.380331489346
 10
1024.826908272294
 20
3673.842283482838
 10
1017.13909950832
 20
3681.614928546899
 10
992.8039142363886
 20
3704.527783231006
 10
982.8310560812397
 20
3713.412021085701
 10
975.4015395445895
 20
3717.197648604518
 10
972.5532152747296
 20
3717.195965344596
 10
970.2359434793265
 20
3715.940598110024
 10
967.0548707849093
 20
3709.696817955824
 10
965.2213759067167
 20
3705.398934365014
 10
962.8316998880823
 20
3704.438354035988
 10
959.8757832470896
 20
3706.81746559473
 10
956.3435424552508
 20
3712.538657667222
 10
951.3131041462298
 20
3719.566860991811
 10
948.9802902508772
 20
3720.642920967036
 10
946.747389855202
 20
3720.079782352249
 10
942.5162194659824
 20
3713.994437034362
 10
938.4894449244775
 20
3701.227856355024
 10
936.9357960161387
 20
3693.894654348026
 10
937.0289363985094
 20
3688.803650743893
 10
939.2004298691118
 20
3684.086956053354
 10
943.8818642720399
 20
3677.876704833705
 10
948.8717841100729
 20
3670.653876584474
 10
950.4753536983944
 20
3665.593179674467
 10
948.690993978888
 20
3662.615076064592
 10
943.5170938313413
 20
3661.640051762327
 10
938.3611324252528
 20
3659.615418712189
 10
933.5805540128982
 20
3654.748945950653
 10
927.778821960881
 20
3649.309868241147
 10
920.174430749345
 20
3645.90672546983
 10
906.9521034382669
 20
3641.761321181416
 10
889.8925847460818
 20
3636.162470043184
 10
867.2709821216844
 20
3629.084738799259
 10
848.6505765034948
 20
3622.171013180438
 10
839.6274296275883
 20
3617.403772599087
 10
831.0159760665978
 20
3610.617028902601
 10
824.5640007065727
 20
3603.431577039168
 10
822.0192964490893
 20
3597.468219972511
 10
819.5273824289797
 20
3592.200570262812
 10
813.5446758887397
 20
3586.705993069009
 10
807.5619693484986
 20
3581.85330700779
 10
805.0700553283895
 20
3578.126753896723
 10
795.1646237564159
 20
3559.842839952537
 10
788.1452134610408
 20
3547.304108542499
 10
785.1658754605568
 20
3538.731225680302
 10
783.0603016547229
 20
3531.677308556518
 10
778.1637786958112
 20
3524.573286395712
 10
772.269443301494
 20
3519.450597427422
 10
769.5084321284639
 20
3518.267081344964
 10
767.1703921118282
 20
3518.340679881188
 10
763.4965891605193
 20
3521.643348066187
 10
759.0089380522722
 20
3528.849832663124
 10
748.3661825256408
 20
3553.525757836482
 10
744.8612506221616
 20
3560.259575031697
 10
743.137945144696
 20
3560.721942485798
 10
741.0763685470233
 20
3559.543107469028
 10
739.1519856485465
 20
3558.274706993342
 10
737.9648385339696
 20
3558.479182996292
 10
737.196767031397
 20
3564.002383624299
 10
738.5678463623471
 20
3570.200002379008
 10
742.9143761649129
 20
3573.178274314875
 10
745.8033150920423
 20
3574.320622668946
 10
747.2718631880202
 20
3576.245270079696
 10
746.7600479698185
 20
3584.930193928537
 10
742.2222998400725
 20
3600.862168938443
 10
732.9212868286012
 20
3616.051866400205
 10
728.8147979064874
 20
3623.145596628915
 10
727.4931583241145
 20
3630.078671721321
 10
728.9682951803602
 20
3637.95337844534
 10
733.25212755858
 20
3647.871979522326
 10
738.3370393648974
 20
3653.850445850667
 10
746.284991942111
 20
3656.711370523375
 10
753.1237884478177
 20
3656.973285767294
 10
756.5184427798121
 20
3655.634020048877
 10
759.6334595455618
 20
3653.001225188789
 10
765.0889851091656
 20
3653.431193897148
 10
772.0356064361845
 20
3656.316421636926
 10
779.6239345387475
 20
3661.049411886617
 10
787.0045563824146
 20
3667.0226601092
 10
793.3280749637924
 20
3673.628661767643
 10
797.7450852639654
 20
3680.259912324923
 10
799.406174248491
 20
3686.308907244011
 10
800.7864473848263
 20
3693.09998733868
 10
804.1029824253765
 20
3700.113738674507
 10
807.3498946293284
 20
3708.533925815178
 10
808.344532917451
 20
3718.900979397573
 10
809.0221251914353
 20
3729.866447913414
 10
811.2881697765342
 20
3739.913626001897
 10
812.9517435733259
 20
3745.424418599618
 10
812.6355712512431
 20
3749.594606886508
 10
809.7023625881552
 20
3754.13222676788
 10
803.5148193464101
 20
3760.745290102473
 10
793.2792524105211
 20
3769.48112054068
 10
789.4524892254098
 20
3770.798960764943
 10
785.7031399656802
 20
3770.512173351791
 10
778.329555751593
 20
3771.009135805058
 10
769.3675112108685
 20
3776.235433429331
 10
759.6798133176143
 20
3783.62421507586
 10
765.9686166669744
 20
3788.719731419688
 10
772.2602494961088
 20
3793.812418283743
 10
756.4138161523519
 20
3798.41874723204
 10
735.3474495099335
 20
3803.143834175621
 10
729.0113465567551
 20
3804.987027837177
 10
722.4434186346506
 20
3809.749338871613
 10
716.0825236674727
 20
3816.690221083848
 10
710.3675436256453
 20
3825.069112247756
 10
705.7373444485447
 20
3834.145482199303
 10
702.6307840600233
 20
3843.178768712359
 10
701.4867364149827
 20
3851.428425591849
 10
702.7440674527984
 20
3858.15391465821
 10
703.957858167289
 20
3865.404845332621
 10
700.238727430928
 20
3874.823205607251
 10
696.3849198697308
 20
3883.63538390622
 10
694.7812621106509
 20
3890.519772709254
 10
693.6261049501231
 20
3894.558257930503
 10
689.0498662768187
 20
3898.801395496219
 10
662.9696294123296
 20
3912.50797264039
 10
653.6651777413035
 20
3917.176638314479
 10
648.8276009417677
 20
3920.851451221741
 10
646.9962221617634
 20
3925.315729063637
 10
646.7103565338057
 20
3932.352773510581
 10
646.8998114458295
 20
3939.051418588942
 10
647.8972872292493
 20
3942.661153461397
 10
650.3464224007602
 20
3944.131024118744
 10
654.8908955546721
 20
3944.410084567299
 10
660.4489156165014
 20
3945.241735201796
 10
664.0250734612668
 20
3948.047569181902
 10
665.9374811677248
 20
3953.293881568205
 10
666.5042588301535
 20
3961.446975436814
 10
668.0450027457541
 20
3968.397115578623
 10
672.120070815984
 20
3973.470364798336
 10
674.7470464060539
 20
3976.008752823348
 10
676.5726379781349
 20
3979.528000451691
 10
678.2363881164428
 20
3990.688230156073
 10
679.6958305777934
 20
4001.498526153643
 10
682.4977289358903
 20
4008.83075026678
 10
684.7682461830681
 20
4011.201910426268
 10
686.9828150766366
 20
4011.389465659236
 10
694.6851239225143
 20
4003.791791456342
 10
700.6586366573692
 20
3995.347926459432
 10
703.1880152340359
 20
3988.946360726321
 10
705.0365792962952
 20
3985.222108070482
 10
710.0575592876575
 20
3984.115941789217
 10
717.6992868073766
 20
3985.610917065976
 10
727.4100934547077
 20
3989.690049006589
 10
733.3273211839682
 20
3993.075341207207
 10
736.9578242776561
 20
3996.472287978905
 10
739.0380449828494
 20
4000.88933034117
 10
740.3044095155819
 20
4007.334901297967
 10
740.5064167373121
 20
4018.454700702118
 10
738.2705826600581
 20
4028.193080750082
 10
734.1504513170494
 20
4035.099688584089
 10
731.5567401492549
 20
4037.037850167359
 10
728.6995266639
 20
4037.724195392939
 10
723.7040440526002
 20
4039.477719393773
 10
719.5462637959949
 20
4043.693467915895
 10
713.9813022908665
 20
4048.633555244704
 10
704.4990102012807
 20
4054.536996273648
 10
695.3650487138193
 20
4059.022699609697
 10
690.8451030616333
 20
4059.709565844302
 10
685.5838096620223
 20
4050.966665714422
 10
679.3533272612103
 20
4046.654073638101
 10
673.4687948520599
 20
4048.310313230945
 10
666.3685319717479
 20
4053.552249141449
 10
660.4898268481384
 20
4060.15572591001
 10
658.2699917556701
 20
4065.896572045978
 10
658.4443374060096
 20
4071.574905114639
 10
657.4994434563546
 20
4075.490608547837
 10
655.1103044777906
 20
4078.298734967648
 10
650.9519070258802
 20
4080.654345011662
 10
645.5737553100402
 20
4083.828348014406
 10
644.5567056183799
 20
4086.827917196052
 10
648.0860768528273
 20
4090.119099135963
 10
656.3471558532169
 20
4094.16792438245
 10
666.3888513236675
 20
4099.400009214645
 10
671.583511676923
 20
4104.870411589754
 10
672.3659069198829
 20
4111.457937466669
 10
669.1707830128757
 20
4120.041376773238
 10
659.6866713994691
 20
4134.623834210247
 10
653.8472503562388
 20
4137.723164596624
 10
647.0733635593478
 20
4136.984958934389
 10
640.1420037889583
 20
4132.694457640667
 10
633.8301798562793
 20
4125.136893117066
 10
627.6120253305175
 20
4116.784132559572
 10
621.5929523604304
 20
4111.531415770042
 10
616.1035451792458
 20
4109.584982166583
 10
611.474380004669
 20
4111.151087198346
 10
609.2641795713757
 20
4115.085835515238
 10
609.2405017151345
 20
4120.148832880471
 10
609.7837698473145
 20
4123.315942533057
 10
608.7809958029001
 20
4124.83150167401
 10
599.1682270227616
 20
4124.059542642568
 10
588.223262215879
 20
4123.627610130967
 10
578.9897639583414
 20
4127.161526167205
 10
572.203765705533
 20
4130.152574847435
 10
569.6958446851144
 20
4130.140840121119
 10
567.6496258303528
 20
4129.004126680026
 10
564.5572208562266
 20
4122.995401750698
 10
562.1564593686753
 20
4111.405580067561
 10
558.8594501432244
 20
4099.315661861488
 10
556.3582942245889
 20
4095.388728679949
 10
553.1452876847875
 20
4092.796484352945
 10
549.1128621992575
 20
4091.480952599432
 10
544.1534654744836
 20
4091.384141107327
 10
531.0234769934327
 20
4094.61470164346
 10
524.3617754626052
 20
4098.096661056762
 10
523.4471401139358
 20
4100.050909795576
 10
523.9202964625873
 20
4102.390873537836
 10
528.2693030618961
 20
4122.555205234432
 10
529.2862084741345
 20
4136.379482324794
 10
527.8116086579593
 20
4139.955768417934
 10
524.7063948773766
 20
4143.084307371726
 10
520.4047600215972
 20
4148.782831543932
 10
520.4337441543557
 20
4156.394292447141
 10
520.8964723070125
 20
4160.834403485867
 10
520.182433447947
 20
4164.701372536553
 10
514.4192240015822
 20
4172.9363449771
 10
501.6578133348639
 20
4188.61028425643
 10
498.5345325644475
 20
4192.459627171072
 10
494.997161837607
 20
4194.727659605983
 10
482.7376672176428
 20
4196.075413763725
 10
472.4176246802212
 20
4196.958011065206
 10
467.0411081311636
 20
4199.081259100224
 10
466.3116393894766
 20
4201.403708923769
 10
466.8646864602528
 20
4203.761282771026
 10
471.3558243211964
 20
4208.281180330072
 10
479.5896024487501
 20
4212.039723395187
 10
490.6410935621479
 20
4214.435675568675
 10
501.1109141705651
 20
4216.219378015259
 10
507.2601913034086
 20
4218.896723154625
 10
510.1742268344287
 20
4223.317877480416
 10
510.9383226373751
 20
4230.332999470751
 10
512.7602911928615
 20
4238.512392271764
 10
517.934407759541
 20
4245.927769425068
 10
526.1693321069469
 20
4252.280640853282
 10
537.1737320201354
 20
4257.272500447987
 10
551.9823955441397
 20
4262.348226464443
 10
537.8438939038915
 20
4264.126847069167
 10
529.8036826518851
 20
4264.868058552694
 10
524.2341683294439
 20
4264.218039679342
 10
519.2818092342504
 20
4261.601003338337
 10
513.0930316018953
 20
4256.441162418904
 10
504.4667813846344
 20
4249.754356268663
 10
498.6293481912166
 20
4246.974019668619
 10
493.8314482327082
 20
4245.340319727687
 10
487.7059371268638
 20
4241.411935736406
 10
482.4750065300427
 20
4238.005570724666
 10
479.2076387102729
 20
4237.934921901068
 10
477.5250280453114
 20
4241.464822160062
 10
477.0483368508221
 20
4248.860096380577
 10
475.8211121190465
 20
4258.284820980818
 10
457.4410599867233
 20
4250.845140760446
 10
446.1892048339004
 20
4245.110346344676
 10
441.0022233521003
 20
4239.828068304699
 10
440.5685835340068
 20
4237.087801306331
 10
441.513774058029
 20
4234.138072649434
 10
447.3574834063001
 20
4227.180117372271
 10
452.554131609369
 20
4221.613969569673
 10
454.0057589353655
 20
4218.069970004949
 10
451.6850564959309
 20
4216.384842465627
 10
445.5647234182284
 20
4216.395270661623
 10
440.663960247417
 20
4216.555300587098
 10
437.4704314295745
 20
4215.346896304358
 10
435.1018763152037
 20
4212.056956770583
 10
432.676066316903
 20
4205.972364911898
 10
425.8075803123756
 20
4179.109211795426
 10
419.719541778612
 20
4154.28483111244
 10
418.024330710803
 20
4144.987352946805
 10
421.5292706298055
 20
4135.613526920408
 10
424.830608237914
 20
4127.402945717689
 10
425.6633650146463
 20
4120.852932490472
 10
426.1398317744788
 20
4118.461757568954
 10
430.0095421341807
 20
4123.262134324205
 10
434.8808322253039
 20
4129.39815378128
 10
436.543003305494
 20
4130.434160185876
 10
437.7259823478821
 20
4130.074768161405
 10
438.7637040744944
 20
4125.04756010833
 10
438.2127009621945
 20
4114.072104250282
 10
436.6744338433368
 20
4097.105902281984
 10
446.2575051091317
 20
4097.230319236817
 10
456.3481593967521
 20
4098.514454185016
 10
467.1513857026484
 20
4101.429459594372
 10
481.7925087557137
 20
4105.355366788909
 10
484.6772074709438
 20
4104.622948334596
 10
484.8414776083195
 20
4102.102450957902
 10
485.9882906089469
 20
4098.552046989948
 10
490.7181467889745
 20
4095.100001510124
 10
497.6122584219393
 20
4092.486187409543
 10
505.2518217503298
 20
4091.450501625885
 10
513.7434031582779
 20
4088.873053955149
 10
523.5922852123831
 20
4081.477202616946
 10
531.714503284702
 20
4072.372714209173
 10
532.0163999595393
 20
4069.524774684437
 10
530.3504856299027
 20
4066.631771886924
 10
526.3260115436246
 20
4062.014581904366
 10
522.8722828038789
 20
4059.788037818778
 10
519.0108364488437
 20
4059.632424446717
 10
513.7632015011741
 20
4061.228042635788
 10
509.2770092181931
 20
4062.521579792981
 10
505.4437534590956
 20
4062.342504983812
 10
495.7224705226285
 20
4056.519916539805
 10
485.14792710047
 20
4049.865637383683
 10
473.9095861201672
 20
4044.683168641579
 10
461.8095924011313
 20
4042.007009799683
 10
447.1312693037816
 20
4040.679142155596
 10
434.3446738624147
 20
4040.882471938694
 10
427.9198711268518
 20
4042.799921409396
 10
429.1182880673845
 20
4048.516376307536
 10
434.5105310734315
 20
4057.447408788072
 10
441.4668511838121
 20
4065.892772687867
 10
447.3574834063001
 20
4070.1522619214
 10
463.3424730882374
 20
4072.985621208998
 10
470.4073474325637
 20
4075.126142697029
 10
474.7504786531908
 20
4078.579166070712
 10
476.0349181912801
 20
4082.881025361147
 10
473.923725503515
 20
4087.568070630484
 10
470.5198372885184
 20
4090.429660591637
 10
467.052065351705
 20
4091.286848683814
 10
463.9973092911759
 20
4090.159521420668
 10
461.8324847360759
 20
4087.067565315854
 10
456.1864061337364
 20
4082.108665553534
 10
444.9804478681303
 20
4076.073465350287
 10
432.4993801337186
 20
4070.975656566754
 10
423.0279490783941
 20
4068.828899001486
 10
420.2177867156306
 20
4069.177454038267
 10
418.5456924174218
 20
4070.406402107582
 10
417.8871931202715
 20
4076.605078911386
 10
416.3008488918217
 20
4095.358381908207
 10
413.983553049849
 20
4103.238827747011
 10
412.8238430720066
 20
4103.475518138664
 10
411.4032758993394
 20
4101.573666876578
 10
410.2379069619482
 20
4097.009050712261
 10
412.0310196330515
 20
4092.838902502989
 10
413.6544356574099
 20
4089.564336743168
 10
413.5512678552163
 20
4086.363465705855
 10
411.9343924979843
 20
4083.932445617318
 10
409.0166938727525
 20
4082.967400641735
 10
407.136981486406
 20
4084.268849120563
 10
406.3558286495795
 20
4087.398406045833
 10
404.2792389765041
 20
4093.248215207442
 10
399.2865778294549
 20
4101.095789384618
 10
394.3975734315295
 20
4108.334608603112
 10
392.618151274462
 20
4113.861440263238
 10
393.8937096125796
 20
4118.80293832417
 10
398.1696386846875
 20
4124.285756745087
 10
401.8209019840838
 20
4129.65096339057
 10
402.2443540718859
 20
4133.656753291711
 10
398.306688104461
 20
4136.053627250394
 10
392.0526160181657
 20
4136.573882814778
 10
385.5599458456372
 20
4135.334426394233
 10
380.9065256971317
 20
4132.452156382606
 10
377.1594688771056
 20
4129.456562900585
 10
373.0964160765125
 20
4128.210605890531
 10
369.0107434687716
 20
4126.767418910716
 10
365.2156175546779
 20
4123.2988935147
 10
363.0900690644316
 20
4120.683756852751
 10
361.3367214051141
 20
4119.827538638911
 10
356.0453858236506
 20
4123.437449852882
 10
349.257576062545
 20
4127.117921719692
 10
342.2136863585842
 20
4126.316401437805
 10
335.150711693313
 20
4121.133884602561
 10
328.305647048277
 20
4111.671382840348
 10
316.2935756058523
 20
4093.395957335483
 10
312.7076949311545
 20
4085.884530164803
 10
310.3242950673735
 20
4075.015905203161
 10
307.8684428872202
 20
4063.934852839318
 10
305.5239263276453
 20
4062.035173784082
 10
301.7309165117394
 20
4061.451427258531
 10
289.7358139324369
 20
4059.036574480773
 10
285.5691925534775
 20
4058.602870538492
 10
282.9889154029679
 20
4061.683300320598
 10
279.6020441442338
 20
4065.836134999242
 10
274.0222779673122
 20
4069.151259307665
 10
269.1642936450989
 20
4071.972947993137
 10
268.9411655191047
 20
4073.420775961021
 10
270.0748090147208
 20
4075.063974297229
 10
274.0272315607981
 20
4076.82846353413
 10
279.7229262532296
 20
4075.301506318845
 10
286.3738949981707
 20
4074.338585456973
 10
293.4100577375352
 20
4076.448134962434
 10
299.3980224611528
 20
4080.907507303985
 10
302.9044131898981
 20
4086.994046934864
 10
304.412638126903
 20
4101.294790785059
 10
303.5235482514358
 20
4106.415443810395
 10
301.6432587474014
 20
4108.416703594182
 10
297.6567301490882
 20
4110.063444791752
 10
297.1366108486023
 20
4114.441475601437
 10
299.9047558374941
 20
4120.707522879751
 10
305.7830120917902
 20
4128.018321498734
 10
311.0697066851821
 20
4133.997100432488
 10
314.5937716431122
 20
4139.64689022218
 10
316.8490834423251
 20
4145.993878256189
 10
318.3295185595643
 20
4154.064267953947
 10
319.9042402790265
 20
4162.171857695987
 10
322.4971979876177
 20
4169.477005370946
 10
332.2785652877897
 20
4185.112422044626
 10
343.3168468185586
 20
4201.256111075148
 10
343.2833980392443
 20
4203.927805270489
 10
340.181983616772
 20
4204.558514747873
 10
335.7598193350282
 20
4201.99626450958
 10
330.6950505391142
 20
4195.835060277858
 10
324.4843584656751
 20
4188.158561417457
 10
317.3087176029344
 20
4181.953880986598
 10
309.1161633124311
 20
4172.728502454305
 10
300.3255467715139
 20
4156.088901004085
 10
291.3334600489366
 20
4138.765703652825
 10
287.4784261126529
 20
4135.291254784987
 10
282.790980067145
 20
4133.662412251259
 10
275.1994858328235
 20
4131.679532062718
 10
270.6290423829669
 20
4129.122187324771
 10
268.3914448905552
 20
4125.351228213848
 10
267.7985125751425
 20
4119.727504906381
 10
267.1845475262235
 20
4113.784916060957
 10
265.1390580840943
 20
4110.339539496635
 10
261.3566608212227
 20
4109.148544930809
 10
255.5319482635041
 20
4109.969110096388
 10
248.8817730553833
 20
4114.332785103592
 10
243.6580804762288
 20
4122.273138964584
 10
241.0063609652998
 20
4131.319482765326
 10
241.0029543678379
 20
4135.485310607465
 10
242.0720969463341
 20
4139.001111560729
 10
243.5802337125815
 20
4145.059460595671
 10
242.506850922186
 20
4151.694654790481
 10
239.1907567354246
 20
4157.916304084464
 10
233.9707352660057
 20
4162.734002385868
 10
229.9532747627381
 20
4166.113098586866
 10
228.3831940313476
 20
4169.186811360331
 10
230.412163479667
 20
4172.307447008011
 10
236.2569308770326
 20
4177.819778586234
 10
259.3154115909933
 20
4195.953826288666
 10
263.0360893233787
 20
4199.302968478569
 10
265.175464591558
 20
4203.301600517277
 10
266.3846624111179
 20
4218.61500956781
 10
266.3846624111179
 20
4235.999718045948
 10
279.2054520754787
 20
4234.235228809048
 10
286.6283477897673
 20
4233.414663643467
 10
291.0132238564688
 20
4234.083943819645
 10
293.9612772689675
 20
4237.03306329676
 10
297.0736970051234
 20
4243.05200000295
 10
301.5665582036058
 20
4257.175480552272
 10
304.46883496174
 20
4275.67729650117
 10
305.4528767278753
 20
4295.336000963658
 10
304.1910169193156
 20
4312.930131022708
 10
303.2018532337024
 20
4325.00604610933
 10
304.9495499489958
 20
4333.333758156075
 10
309.6864758206975
 20
4338.436296098437
 10
317.6650076198339
 20
4340.836704902957
 10
322.8269726529788
 20
4342.301141035411
 10
324.9541162323885
 20
4344.525088091404
 10
323.8714594813732
 20
4346.761218743026
 10
319.4040395542884
 20
4348.262245739982
 10
314.4912691293639
 20
4350.533949284629
 10
313.0417178239381
 20
4356.078006304626
 10
310.6848333116964
 20
4362.176080273735
 10
304.7120179273802
 20
4368.041655969951
 10
296.7700689772232
 20
4372.45821740081
 10
288.505759720887
 20
4374.209224527283
 10
282.4481240675309
 20
4372.105013360434
 10
276.661942130987
 20
4366.730308319674
 10
272.307284587654
 20
4359.523783645118
 10
270.5442060828795
 20
4351.92411357689
 10
268.0413428577517
 20
4343.978277097863
 10
261.9988966213141
 20
4335.226543861153
 10
253.5384234598355
 20
4325.923414751492
 10
236.5863528593618
 20
4328.997119509435
 10
221.0689968304259
 20
4330.658040167969
 10
216.077000971823
 20
4329.547858109461
 10
210.9617343782383
 20
4326.989455322418
 10
203.7065634919277
 20
4320.70983776292
 10
198.4406771973863
 20
4312.74632705471
 10
194.6454631125339
 20
4306.796716610752
 10
190.6397613821518
 20
4305.151482331589
 10
187.2374201631787
 20
4307.710149630906
 10
185.2522876125517
 20
4314.372259953429
 10
183.0894509072641
 20
4320.352842379958
 10
178.0020623042037
 20
4322.812942787535
 10
173.8926156539401
 20
4321.735656437224
 10
167.9683182330054
 20
4318.093154104946
 10
153.3939965522872
 20
4305.72585871024
 10
139.7167642394302
 20
4290.937690879672
 10
134.9138305322017
 20
4284.269112029732
 10
132.3742882718125
 20
4278.955308936068
 10
129.0527996377768
 20
4272.773600995388
 10
123.4048213563824
 20
4269.584312389444
 10
115.6183976075281
 20
4264.308174240422
 10
106.3198613927998
 20
4252.824534196292
 10
97.56494599328334
 20
4241.527247056612
 10
89.25963733455274
 20
4234.304506978138
 10
81.46861267524355
 20
4231.198195070843
 10
74.2565653050392
 20
4232.250184429179
 10
69.11987321729975
 20
4233.582693061338
 10
63.67672362188705
 20
4232.448480463556
 10
56.92081564407181
 20
4228.422050589559
 10
47.84584039360334
 20
4221.07793945516
 10
40.19867834899196
 20
4215.402395788657
 10
34.85255666481771
 20
4213.041615732023
 10
30.47554382661065
 20
4214.634845295107
 10
26.24433335977301
 20
4218.663792043463
 10
23.0512373801962
 20
4224.002315011418
 10
21.78858403481627
 20
4229.524281248814
 10
20.22946052396855
 20
4234.36989761836
 10
14.38849248471388
 20
4235.66321835642
 10
10.56371714941588
 20
4235.911483163921
 10
8.518540312700679
 20
4236.936740751584
 10
7.909657105642963
 20
4239.159717929241
 10
8.393770674837014
 20
4243.001101429107
 10
8.201838966071136
 20
4253.364972848697
 10
5.77248610640936
 20
4267.981007313395
 10
1.745847828803107
 20
4285.625851589248
 10
11.51555254237019
 20
4300.937849907657
 10
28.1509057651665
 20
4323.321928525962
 10
38.39001556241601
 20
4336.733710749064
 10
43.74284623970924
 20
4341.976624553427
 10
53.2439187007144
 20
4344.914249769931
 10
59.7746706251055
 20
4346.683171591292
 10
66.52911977765461
 20
4349.767601119594
 10
79.27962131697177
 20
4358.637435078668
 10
88.63635023187271
 20
4369.03263116386
 10
91.14859161942559
 20
4374.023769361456
 10
91.74023343556518
 20
4378.462084922932
 10
89.81709294322127
 20
4382.305103589579
 10
84.65154497109869
 20
4383.606375726892
 10
75.31071885470282
 20
4382.370141546769
 10
60.86174392953626
 20
4378.600641261112
 10
47.93703300377865
 20
4373.56486461348
 10
44.85492797727192
 20
4370.784920774085
 10
43.30455741802052
 20
4367.369017289452
 10
40.52598423313338
 20
4362.279159905171
 10
36.17591958473076
 20
4359.327034606765
 10
31.90821443967207
 20
4356.167082816613
 10
29.78248960791052
 20
4349.910798445847
 10
27.46519376593778
 20
4343.365378113562
 10
21.78858403481627
 20
4340.285301014486
 10
16.38378871906297
 20
4337.470329337659
 10
13.84839849981608
 20
4332.636375554718
 10
12.39580931100681
 20
4328.666254732886
 10
9.665746073977061
 20
4326.068640005177
 10
6.060668220640764
 20
4324.786901698486
 10
1.983019151863572
 20
4324.764410139713
 10
-2.164749715965172
 20
4325.944527640234
 10
-5.980186966455676
 20
4328.270624526943
 10
-9.060833167695818
 20
4331.686071126742
 10
-11.00425293434227
 20
4336.134237766525
 10
-15.4426887286686
 20
4343.38657917306
 10
-23.91270837856428
 20
4350.473504222369
 10
-31.22973505925984
 20
4356.206671486881
 10
-33.28936388473721
 20
4360.183829938295
 10
-27.78701163319693
 20
4362.145549144954
 10
-16.92546437875262
 20
4363.034150073491
 10
-3.679499289050454
 20
4364.038871890101
 10
9.782524234972242
 20
4366.469811823403
 10
21.05643009277719
 20
4369.770267723933
 10
27.73806623039945
 20
4373.383537442224
 10
29.30054824556874
 20
4378.706766791455
 10
27.52599151122877
 20
4386.376107789424
 10
23.18741310791484
 20
4394.40704508081
 10
17.05783813168682
 20
4400.815055294767
 10
11.0332504814728
 20
4404.039740452221
 10
5.66927822659818
 20
4403.415483471206
 10
-0.2906321649793426
 20
4398.306308675436
 10
-8.103034225302508
 20
4388.076264435196
 10
-15.84762495732457
 20
4378.533575376491
 10
-18.75332434396705
 20
4376.358154299403
 10
-21.08465536748326
 20
4375.928466134364
 10
-22.89414375297338
 20
4377.255836815998
 10
-24.23431522553983
 20
4380.351608309969
 10
-25.71677827020949
 20
4391.893657473406
 10
-27.09316387767695
 20
4403.376247483967
 10
-29.21181901776435
 20
4408.152938367453
 10
-33.37631628301187
 20
4404.682994223789
 10
-39.67431343775752
 20
4396.341631740626
 10
-45.72241061822023
 20
4384.285378733001
 10
-47.14509388907572
 20
4371.599257877952
 10
-48.54586271884636
 20
4358.970744589866
 10
-54.49994582488352
 20
4347.131167211867
 10
-60.16771443365087
 20
4336.173473753761
 10
-60.88771684215544
 20
4326.630335825743
 10
-60.9063208720595
 20
4320.133345286083
 10
-63.24637278507771
 20
4317.748534690176
 10
-67.57412221622371
 20
4319.507717650558
 10
-73.55581880051158
 20
4325.442699764237
 10
-80.03973602144379
 20
4333.218879674135
 10
-88.40972193880999
 20
4323.545313148705
 10
-93.55870182398211
 20
4318.128149880285
 10
-96.75497996636478
 20
4316.816802230008
 10
-98.78588115583307
 20
4319.874251506414
 10
-100.4387622443569
 20
4327.563479018038
 10
-101.3713764121016
 20
4330.345715297136
 10
-103.2954467051645
 20
4332.028061449824
 10
-111.848531224467
 20
4332.902178327506
 10
-120.307248986312
 20
4333.777705937313
 10
-122.5861504710083
 20
4335.270949861009
 10
-123.8775715300135
 20
4337.590506080593
 10
-126.2143130318513
 20
4341.58993165612
 10
-129.6008396230777
 20
4344.179049928984
 10
-132.6731336488938
 20
4348.285923596222
 10
-133.7349340079181
 20
4357.166674698221
 10
-134.6932138817178
 20
4364.775971410103
 10
-137.6516554125942
 20
4368.442480235082
 10
-142.7356374181931
 20
4368.220025413055
 10
-150.0705627627303
 20
4364.162407137356
 10
-154.5163247454807
 20
4359.072325318419
 10
-156.1939417393396
 20
4352.570597604403
 10
-155.0657808617561
 20
4345.587994592664
 10
-151.094185183611
 20
4339.055254818459
 10
-146.8748136448944
 20
4332.858525786853
 10
-143.1172404581157
 20
4324.726584884602
 10
-140.4221810119484
 20
4316.209730531247
 10
-139.3903346640177
 20
4308.858245115284
 10
-139.6350165325416
 20
4306.165694527954
 10
-140.8791219566815
 20
4305.359316838861
 10
-149.4258421503723
 20
4309.641514050298
 10
-159.4641791165013
 20
4315.562717479186
 10
-166.3920441186706
 20
4309.053350971332
 10
-171.2995162826012
 20
4303.1452288767
 10
-173.3651567506576
 20
4298.087529772459
 10
-175.8846361558762
 20
4289.723194799118
 10
-177.3089545935138
 20
4288.141315217223
 10
-178.8194318926057
 20
4288.089839525693
 10
-183.0839628903823
 20
4293.028772619125
 10
-185.5722058007559
 20
4297.315658911776
 10
-186.2972900511213
 20
4300.977438577924
 10
-182.1790984647855
 20
4312.489004705721
 10
-176.4805742925798
 20
4322.583546522209
 10
-170.6929736083873
 20
4329.655979505139
 10
-166.4930878071527
 20
4333.81013674515
 10
-165.2895970402824
 20
4337.55869246806
 10
-167.1829598630472
 20
4342.114202997747
 10
-172.2736588772884
 20
4348.689224658097
 10
-179.7105176334096
 20
4357.525794194894
 10
-173.6875090413132
 20
4363.933363555062
 10
-169.435714710283
 20
4369.598302684056
 10
-167.6673379445149
 20
4374.217704951083
 10
-162.1137344361009
 20
4389.586260802881
 10
-157.7963651078094
 20
4403.114636829939
 10
-153.8130186723015
 20
4423.060224891862
 10
-150.9430845512475
 20
4444.695533388037
 10
-149.9659361352701
 20
4463.293094764423
 10
-150.7152753595646
 20
4475.032157478488
 10
-152.5716625727014
 20
4484.723879164509
 10
-155.5011600484367
 20
4492.247642225765
 10
-159.4698380760501
 20
4497.482821050009
 10
-162.861045732965
 20
4500.0
 10
-166.6663353307813
 20
4500.511991559718
 10
-182.9651968795745
 20
4494.612702571915
 10
-199.9601184683577
 20
4485.848288777122
 10
-205.5515552474073
 20
4481.407047549593
 10
-209.3038141421457
 20
4476.761787203948
 10
-211.2905257508903
 20
4471.788988523984
 10
-211.5853206719598
 20
4466.365172371106
 10
-210.2618375191953
 20
4460.366819529111
 10
-207.3936988753917
 20
4453.670426812836
 10
-202.8839169069272
 20
4440.429591658136
 10
-201.7485500737719
 20
4426.920741446178
 10
-203.8797094304255
 20
4415.81101755499
 10
-206.1365201325214
 20
4411.989304149645
 10
-209.1694980158645
 20
4409.767553347076
 10
-214.4365706078756
 20
4411.078500221179
 10
-221.3289589033004
 20
4416.236273135566
 10
-227.3184305453246
 20
4422.917292077882
 10
-229.8767451616088
 20
4428.797977035781
 10
-231.0790015378698
 20
4432.72344337653
 10
-233.9829214783088
 20
4436.200898065658
 10
-237.534199138317
 20
4438.316811896729
 10
-240.67856073538
 20
4438.157663678832
 10
-242.9661670785315
 20
4431.410067798823
 10
-244.863553694063
 20
4417.413657342593
 10
-248.403834055912
 20
4391.893657473406
 10
-249.1494220152363
 20
4388.524412350715
 10
-248.5533556301586
 20
4386.601263842849
 10
-241.6852223086623
 20
4385.531335743055
 10
-235.4506279443253
 20
4385.080670953175
 10
-232.2834701985998
 20
4383.213326519497
 10
-231.6935837820936
 20
4379.156285361482
 10
-233.1908114209393
 20
4372.136522383076
 10
-237.2195738122575
 20
4364.233448721602
 10
-244.0859357030731
 20
4358.631423436089
 10
-250.0269374748564
 20
4354.33438147524
 10
-252.4983477860069
 20
4350.111563261445
 10
-254.1596211275717
 20
4347.16757371933
 10
-258.1537484421065
 20
4345.94353115036
 10
-260.8864568018705
 20
4346.339762520559
 10
-262.6250478825359
 20
4347.698826581874
 10
-263.8091490982053
 20
4354.327664466597
 10
-266.1388209083696
 20
4363.196392283437
 10
-272.8097162445824
 20
4372.962209468134
 10
-277.8132945345562
 20
4378.9821641458
 10
-280.0914024824319
 20
4383.420808343736
 10
-280.1092931307494
 20
4388.133567412267
 10
-278.3322195220496
 20
4394.975858686193
 10
-272.6870707204294
 20
4415.959777654509
 10
-271.1265284619328
 20
4428.996625753191
 10
-271.9233917247016
 20
4433.385693938651
 10
-273.795882124429
 20
4436.808939642754
 10
-280.8403890236946
 20
4442.119272014772
 10
-285.4636788195901
 20
4443.371946033468
 10
-286.4307517226034
 20
4438.041727147798
 10
-288.0146191543101
 20
4432.084830593034
 10
-292.1455313763449
 20
4427.915732417331
 10
-298.017471398171
 20
4425.906040302885
 10
-299.9985801560313
 20
4426.399612189737
 10
-301.3924636511676
 20
4427.987840066196
 10
-302.5666256177715
 20
4434.735355790969
 10
-301.8360667648972
 20
4446.722771483294
 10
-301.3237225221478
 20
4459.467926668477
 10
-303.266172410458
 20
4468.228140328987
 10
-308.0600084985822
 20
4473.848545209749
 10
-316.1018148397525
 20
4477.174274055683
 10
-319.4504680827261
 20
4478.694514262325
 10
-322.3026077417437
 20
4481.622953688965
 10
-327.4324064793245
 20
4492.98111872917
 10
-331.1576370290238
 20
4501.539373261093
 10
-335.1442537980952
 20
4506.36851772997
 10
-338.8647070958239
 20
4507.089177411395
 10
-341.7914712780662
 20
4503.322017658582
 10
-341.1474560317711
 20
4496.388854395418
 10
-337.5470913062177
 20
4485.055072577519
 10
-334.4912771965944
 20
4475.579497496577
 10
-334.3210354942562
 20
4470.019136901902
 10
-335.3144474072924
 20
4468.717183445096
 10
-337.0249841559187
 20
4468.40606090278
 10
-342.5917090762032
 20
4470.772363655064
 10
-348.6169219372455
 20
4472.085522813638
 10
-355.2725316702581
 20
4469.611234929574
 10
-361.6969737072668
 20
4463.889521848056
 10
-367.0286914958199
 20
4455.460365336658
 10
-378.3536321913664
 20
4436.718364227885
 10
-383.3307432229424
 20
4428.339184505134
 10
-385.4002632043434
 20
4421.686316081137
 10
-386.2208283699242
 20
4416.336964141017
 10
-388.6839265832673
 20
4410.262047019124
 10
-398.546242654658
 20
4395.917482302285
 10
-403.6601385937338
 20
4386.883330112696
 10
-405.1941655006917
 20
4375.416650916164
 10
-405.3907381975298
 20
4367.64798956725
 10
-406.4083088982138
 20
4363.932650173476
 10
-408.8886885800929
 20
4363.511947410215
 10
-413.4736721894698
 20
4365.627155875222
 10
-418.6133700984985
 20
4366.744800386053
 10
-423.8909189796451
 20
4364.30379295531
 10
-428.9860826404428
 20
4361.422717256675
 10
-433.739801033751
 20
4360.172520034721
 10
-438.2260333943491
 20
4358.646668961672
 10
-442.7361279682279
 20
4354.972729746463
 10
-446.2155224140278
 20
4350.258030921261
 10
-447.6096704214376
 20
4345.609860940607
 10
-441.3798933866883
 20
4336.19644624394
 10
-426.4019179610645
 20
4319.360320190023
 10
-411.4239425354412
 20
4302.640836033202
 10
-405.1941655006917
 20
4293.509487606382
 10
-406.2292581356155
 20
4289.281331053975
 10
-409.1559501781466
 20
4283.559425599896
 10
-419.612609297076
 20
4268.957979387857
 10
-434.4210964795645
 20
4252.352395819115
 10
-451.4383733632214
 20
4236.389937773568
 10
-456.4087192930137
 20
4231.286157425073
 10
-458.509395614026
 20
4226.289745013054
 10
-457.8663101684498
 20
4220.471004020298
 10
-454.6054028605722
 20
4212.900229914068
 10
-451.1271947122411
 20
4207.519248718455
 10
-447.9663131213688
 20
4204.889708160884
 10
-445.6691202121828
 20
4205.240387311374
 10
-444.781970093388
 20
4208.800065239948
 10
-444.1837315014577
 20
4210.717570819314
 10
-442.5871033564351
 20
4212.05753388827
 10
-437.5872362538136
 20
4213.03489872338
 10
-432.1595165410217
 20
4211.792348310787
 10
-428.6810438804173
 20
4208.390047169431
 10
-428.840456610588
 20
4203.85936873136
 10
-432.3061525268297
 20
4199.528036361235
 10
-436.2324204199228
 20
4196.162013478968
 10
-432.0573186171641
 20
4197.429884930107
 10
-420.8278588368325
 20
4200.652710486121
 10
-417.7800121575085
 20
4200.536140728737
 10
-416.4360413268318
 20
4199.239253082747
 10
-418.8375963512039
 20
4193.019599654101
 10
-427.9882541739909
 20
4181.823805072216
 10
-436.5742183704431
 20
4170.591115035938
 10
-441.0946449540358
 20
4161.294702934921
 10
-442.2137082125146
 20
4157.125340246946
 10
-443.8205481344
 20
4154.981861030766
 10
-446.5535210064379
 20
4154.473492487642
 10
-451.0509831153753
 20
4155.20948586541
 10
-459.1003881727667
 20
4155.275229188663
 10
-466.3714618575818
 20
4150.475918498029
 10
-472.5609448559993
 20
4145.876306558375
 10
-474.3796430779223
 20
4146.187316883362
 10
-475.9913003293948
 20
4148.078026567869
 10
-478.6719558799413
 20
4157.307645312061
 10
-480.3629267358505
 20
4164.137953378445
 10
-484.3697746860843
 20
4173.453811139327
 10
-488.3639020006184
 20
4183.633533923411
 10
-490.0251753421837
 20
4192.540792361423
 10
-492.9087679151789
 20
4201.11998344057
 10
-499.7436287988766
 20
4211.654272904014
 10
-507.8058907558649
 20
4220.584728266862
 10
-511.4460846173913
 20
4223.336353261944
 10
-514.3716785332117
 20
4224.352417044222
 10
-528.1499946121689
 20
4218.485999718046
 10
-544.458402649379
 20
4207.875410486979
 10
-548.3649603703335
 20
4202.67950772759
 10
-549.0102981779964
 20
4196.662871476628
 10
-546.4331150195343
 20
4190.07680442498
 10
-540.672117857639
 20
4183.172617279051
 10
-532.7873837137949
 20
4174.561388152716
 10
-527.765433844097
 20
4166.103912797004
 10
-525.2422833291429
 20
4156.951884319709
 10
-524.8539632805777
 20
4146.256987813102
 10
-525.5071563012113
 20
4132.452156382606
 10
-535.2061721135628
 20
4132.932863354338
 10
-543.8691815213185
 20
4135.021476312573
 10
-550.2184299329385
 20
4140.709043264236
 10
-555.7723861243835
 20
4145.863585922676
 10
-561.6593071595184
 20
4148.012988610679
 10
-569.7575347701815
 20
4152.199223975494
 10
-581.7921779266128
 20
4161.790254656065
 10
-592.7150118732777
 20
4172.353656500642
 10
-597.4777878080731
 20
4179.457021388526
 10
-598.3084284866172
 20
4181.209134657235
 10
-600.3054881361229
 20
4181.936912123475
 10
-602.3025477856285
 20
4180.249836811959
 10
-603.1331884641724
 20
4176.193853703039
 10
-604.434147996071
 20
4171.087732821699
 10
-607.7723810585728
 20
4168.901923626233
 10
-612.3009033208395
 20
4169.77745123604
 10
-617.1727224365097
 20
4173.85534077052
 10
-622.7150160413502
 20
4180.52306195945
 10
-629.1989332622822
 20
4172.571566520878
 10
-634.5197820010508
 20
4167.795100072046
 10
-639.6105210929093
 20
4166.336843908164
 10
-643.9229448432388
 20
4168.174803432914
 10
-646.9088154953262
 20
4173.286976034449
 10
-650.0832673673821
 20
4177.731062772802
 10
-655.4993725867095
 20
4181.44771671242
 10
-660.4392755584776
 20
4184.306661550839
 10
-662.0787226297161
 20
4187.482387891122
 10
-660.4150606621658
 20
4191.87596881628
 10
-655.4456445330925
 20
4198.388469393798
 10
-650.4529833860435
 20
4205.913338597288
 10
-648.3763937129679
 20
4212.210269687417
 10
-646.8015838227484
 20
4217.373429033552
 10
-643.0012878960353
 20
4223.226636777101
 10
-638.3616945254632
 20
4228.021049982912
 10
-634.2690003191894
 20
4230.007817700321
 10
-627.6591993026352
 20
4232.801363882994
 10
-618.1712562690245
 20
4239.241315957857
 10
-609.6551473593502
 20
4246.416652230709
 10
-605.9608887922222
 20
4251.416334976291
 10
-606.9214691212494
 20
4254.744668867345
 10
-609.9680974410105
 20
4254.82265189489
 10
-615.3481007427649
 20
4251.55670282277
 10
-623.3088300643417
 20
4244.85324041482
 10
-636.0624656733238
 20
4235.861514390798
 10
-650.8478040241182
 20
4230.002158740773
 10
-663.3518923418489
 20
4225.454864122609
 10
-666.4108485366605
 20
4222.996847751129
 10
-667.7546269947745
 20
4220.175904509337
 10
-669.7803180940068
 20
4215.284383237052
 10
-673.3160055609251
 20
4211.483197587237
 10
-677.5780517464352
 20
4209.367508190823
 10
-681.7828430480148
 20
4209.532443616644
 10
-683.6537704206714
 20
4211.307000350983
 10
-684.5578813870649
 20
4215.44728271992
 10
-683.767887427884
 20
4234.667866686712
 10
-682.9012009404309
 20
4254.988076267641
 10
-684.432751050646
 20
4257.786568028277
 10
-687.7097054364504
 20
4258.284820980818
 10
-690.717851228177
 20
4258.696249783461
 10
-692.5245742580809
 20
4260.265625148788
 10
-693.6620171118072
 20
4268.888693203243
 10
-694.2723110509909
 20
4277.170941201037
 10
-696.005828305319
 20
4282.655354711119
 10
-698.8373680690963
 20
4285.297928509804
 10
-702.7417615987221
 20
4285.054657373404
 10
-707.1183335831404
 20
4285.450536060572
 10
-711.4058370710957
 20
4289.400834492939
 10
-716.7862411490219
 20
4293.932578995629
 10
-725.1314911610529
 20
4294.53876898681
 10
-734.6212537184847
 20
4293.631075081439
 10
-733.8351553036955
 20
4278.845031364582
 10
-734.0115288814652
 20
4267.421123001124
 10
-735.0730246505995
 20
4265.504026213454
 10
-736.9173485009591
 20
4265.540697233192
 10
-740.737923701975
 20
4265.277018574115
 10
-744.4927555797371
 20
4262.557479719364
 10
-746.2127506460224
 20
4259.65280631972
 10
-746.777187775607
 20
4255.860069031612
 10
-744.4277176225466
 20
4241.92657241886
 10
-735.5176377202822
 20
4213.513842279956
 10
-731.9064841001786
 20
4203.923300546316
 10
-730.6440952670723
 20
4197.670591099004
 10
-731.7209167170235
 20
4194.272979038861
 10
-735.1274099771383
 20
4193.247713435675
 10
-741.8828290080242
 20
4192.190858654612
 10
-749.6289186429292
 20
4189.647340694597
 10
-756.00657406962
 20
4186.557725122628
 10
-758.6567065069075
 20
4183.862577505703
 10
-761.1486205270164
 20
4179.192982030896
 10
-767.1398074910564
 20
4171.607323097638
 10
-773.808185952909
 20
4162.210877264093
 10
-775.6769892118541
 20
4154.684950011509
 10
-774.8117936117609
 20
4151.6267472759
 10
-772.747002789189
 20
4149.040153892919
 10
-765.0190362527809
 20
4145.287085430314
 10
-755.6581072035976
 20
4142.248592866844
 10
-749.8887177886606
 20
4138.303728959371
 10
-745.8891078560932
 20
4131.435908243289
 10
-741.837541300589
 20
4119.628537238471
 10
-737.5457575231171
 20
4104.450943217102
 10
-736.1952219787433
 20
4094.942712893664
 10
-737.8058211811216
 20
4090.036563291103
 10
-742.3974336283833
 20
4088.665219447878
 10
-751.3857610704669
 20
4089.92133212613
 10
-760.9687040878863
 20
4093.206502423462
 10
-769.8608051710755
 20
4097.96136703662
 10
-776.7766068104681
 20
4103.626578693411
 10
-781.951260417218
 20
4108.807235927217
 10
-786.0822207323935
 20
4110.594385048881
 10
-791.249708461188
 20
4109.039726184589
 10
-799.5339443087955
 20
4104.194943429482
 10
-810.7231501304127
 20
4097.323635960703
 10
-814.288879779183
 20
4105.803907465078
 10
-817.5516947816392
 20
4110.882743504628
 10
-822.4650022466342
 20
4115.288371761516
 10
-835.0449094005817
 20
4121.417762380705
 10
-841.6124205154678
 20
4122.810427516277
 10
-847.6322389292349
 20
4122.867666369162
 10
-852.5548283703729
 20
4121.42392631823
 10
-855.8306285208018
 20
4118.313654742357
 10
-859.4459742596646
 20
4112.980918982326
 10
-863.4565814903915
 20
4110.116507556923
 10
-869.0551200232089
 20
4109.258870595434
 10
-877.4342596683437
 20
4109.946490289241
 10
-884.5729169059332
 20
4110.585415678152
 10
-889.5025279456048
 20
4109.912913261552
 10
-893.6999449656198
 20
4107.417063619434
 10
-898.6420121287165
 20
4102.585987409407
 10
-907.0173043226002
 20
4095.199321861068
 10
-915.2632339836889
 20
4090.073410652355
 10
-920.6517738179066
 20
4086.535823506382
 10
-925.2195641295049
 20
4080.246795722366
 10
-929.6898055208407
 20
4069.872632370678
 10
-934.7856745477008
 20
4054.079614475123
 10
-936.4497773690402
 20
4042.621063019359
 10
-934.1862015651607
 20
4028.630311522677
 10
-929.6648451808493
 20
4015.19276740724
 10
-923.5409692417867
 20
4004.8497042865
 10
-915.7135861681547
 20
3997.472016124412
 10
-906.0816923490881
 20
3992.930596884931
 10
-897.2429185433446
 20
3988.486550224196
 10
-887.9836984710884
 20
3980.77678694152
 10
-879.2875528894327
 20
3970.771810583947
 10
-872.137978508918
 20
3959.442140729572
 10
-869.8216926228985
 20
3952.202431787976
 10
-869.0639130524223
 20
3943.284656983209
 10
-869.8622511715042
 20
3933.961817701412
 10
-872.2143263696821
 20
3925.506907313201
 10
-877.7255117280526
 20
3901.994579646554
 10
-881.8567846486423
 20
3877.113641430177
 10
-882.4654434210442
 20
3869.371046563491
 10
-880.558069463307
 20
3868.782578894633
 10
-876.6142235273102
 20
3869.574993541892
 10
-870.4809453792528
 20
3869.753843916406
 10
-867.4439917962832
 20
3864.982811992469
 10
-867.2108843436067
 20
3859.971105961726
 10
-869.7570554418801
 20
3855.568339246707
 10
-874.9372237287564
 20
3851.925331936453
 10
-882.6061238729366
 20
3849.192928166579
 10
-888.6506381144215
 20
3846.439547771863
 10
-894.7797241437202
 20
3841.799200942087
 10
-899.6050612389629
 20
3836.527928215794
 10
-901.7383447093282
 20
3831.881746084955
 10
-902.4452657835785
 20
3821.72465112354
 10
-903.3084094096716
 20
3818.40855693678
 10
-905.2488474015984
 20
3815.864950806009
 10
-911.2542619197441
 20
3813.241550139392
 10
-918.2469003668304
 20
3814.147119931052
 10
-921.42136025441
 20
3816.014728877004
 10
-924.0121377406257
 20
3818.874330988344
 10
-929.2695436113682
 20
3823.647839709025
 10
-936.0326896068496
 20
3826.158486007413
 10
-942.2716604469844
 20
3828.319911980576
 10
-944.7759424197611
 20
3833.422842683586
 10
-945.9622639354236
 20
3837.467363593987
 10
-947.8829677086414
 20
3839.501519085972
 10
-950.262952959437
 20
3839.744413492768
 10
-952.8271108923092
 20
3838.415151147604
 10
-957.4075416843722
 20
3831.916565518778
 10
-959.4234297984378
 20
3821.758580834261
 10
-960.1050378496656
 20
3816.314509453653
 10
-961.9538664241988
 20
3813.376924314767
 10
-964.6759301688353
 20
3813.149163216225
 10
-967.9772196838026
 20
3815.8345479256
 10
-972.8299137605459
 20
3818.66613578252
 10
-980.5011063444295
 20
3818.416243823758
 10
-985.6456215830455
 20
3818.045373569723
 10
-991.0947347278982
 20
3819.088529821227
 10
-1006.267110643507
 20
3826.466706930245
 10
-1033.910711230744
 20
3841.26689003045
 10
-1041.77326642123
 20
3845.69431249557
 10
-1045.755594885261
 20
3850.013316990644
 10
-1046.02179843422
 20
3854.566134304457
 10
-1042.735962848444
 20
3859.695011256842
 10
-1040.190809721648
 20
3862.985391644407
 10
-1039.160694726781
 20
3866.159130134878
 10
-1041.296663397498
 20
3876.152227486712
 10
-1043.301506120264
 20
3885.528177626822
 10
-1043.075292017745
 20
3892.770619861909
 10
-1043.011223938892
 20
3897.711805317428
 10
-1046.189290812018
 20
3900.284884527888
 10
-1051.900631806204
 20
3900.284924605506
 10
-1059.436362043955
 20
3897.507016709065
 10
-1071.918888603633
 20
3892.730325825578
 10
-1089.497644888725
 20
3887.660964134733
 10
-1107.479878577207
 20
3881.929215617868
 10
-1113.15635204443
 20
3878.64754008876
 10
-1116.825249495394
 20
3874.772307033408
 10
-1118.63820058701
 20
3870.06626497352
 10
-1118.746842991714
 20
3864.292146399753
 10
-1114.457752430118
 20
3848.590633719788
 10
-1112.728884179384
 20
3844.968033932212
 10
-1110.208426880306
 20
3843.148365831953
 10
-1098.201309031368
 20
3843.472497568812
 10
-1084.436058255617
 20
3845.104073396032
 10
-1077.279149671155
 20
3828.601617551868
 10
-1071.332849638378
 20
3816.397261717646
 10
-1067.085295519247
 20
3810.22439489932
 10
-1064.940125027621
 20
3806.919875128406
 10
-1064.048341936278
 20
3801.611218000789
 10
-1063.213813728865
 20
3796.338967380637
 10
-1061.20650222488
 20
3793.119636592841
 10
-1059.412323489159
 20
3787.072597461472
 10
-1059.085730986605
 20
3775.002557753531
 10
-1058.537509260939
 20
3761.123141877427
 10
-1055.896081682107
 20
3751.334704885581
 10
-1053.990214642776
 20
3747.20184489135
 10
-1053.577367092485
 20
3743.941683027152
 10
-1057.680361246379
 20
3736.209340014946
 10
-1064.870141492468
 20
3729.754406926772
 10
-1074.293102677552
 20
3725.331176580411
 10
-1082.000838032797
 20
3722.202589533478
 10
-1085.571737694187
 20
3717.709816505753
 10
-1085.287595403769
 20
3710.883131455965
 10
-1081.430212919118
 20
3700.752800327316
 10
-1078.068654683406
 20
3692.479794228048
 10
-1077.346664425089
 20
3687.443881316518
 10
-1079.387512879146
 20
3684.939639421358
 10
-1084.314470780558
 20
3684.261654386725
 10
-1091.849231139973
 20
3680.618166145065
 10
-1101.820766733755
 20
3671.85936321668
 10
-1111.672470252111
 20
3662.280524147262
 10
-1118.911385656886
 20
3656.663301429306
 10
-1122.951457951778
 20
3652.415739294652
 10
-1125.112531241908
 20
3646.130118108097
 10
-1126.108764619196
 20
3640.235510185985
 10
-1127.608685473918
 20
3637.06875321643
 10
-1129.714082938235
 20
3636.525388897968
 10
-1132.526762175359
 20
3638.500982975703
 10
-1135.79473917491
 20
3641.15137190974
 10
-1137.963371103645
 20
3641.609683508982
 10
-1138.879144656644
 20
3639.936082292366
 10
-1138.388586606603
 20
3636.19074880988
 10
-1135.663741475333
 20
3632.076444752412
 10
-1130.875379989719
 20
3630.515557826407
 10
-1124.123896580842
 20
3628.853571103256
 10
-1116.360798005197
 20
3624.879947497681
 10
-1108.964946666994
 20
3620.906323892105
 10
-1103.096052544076
 20
3619.244337168955
 10
-1098.983207311874
 20
3618.469684921637
 10
-1096.75387382413
 20
3616.160380556534
 10
-1096.391355745517
 20
3612.274807475944
 10
-1097.878948725188
 20
3606.771357097693
 10
-1099.121410967023
 20
3602.856182689043
 10
-1098.992000341088
 20
3600.415744360463
 10
-1097.22164374103
 20
3598.888827222796
 10
-1093.541260044977
 20
3597.714232417926
 10
-1086.962615368033
 20
3597.552342891012
 10
-1081.384973304823
 20
3600.507995019731
 10
-1076.638276510048
 20
3604.176627958422
 10
-1074.067241258065
 20
3604.149014480171
 10
-1073.348160634756
 20
3600.016114408325
 10
-1074.157367803622
 20
3591.368871535176
 10
-1074.72679860431
 20
3579.998330526779
 10
-1073.615382155192
 20
3577.354658601383
 10
-1071.425813679233
 20
3575.904177495238
 10
-1067.871041251005
 20
3572.7155060846
 10
-1066.95026601138
 20
3568.014185168018
 10
-1068.543679931504
 20
3563.447541076272
 10
-1072.531442920427
 20
3560.662876093571
 10
-1076.525570234961
 20
3558.874356317398
 10
-1078.186843576526
 20
3556.653190648039
 10
-1081.476518598029
 20
3555.389920107354
 10
-1089.38736731724
 20
3555.912339863068
 10
-1097.286216797861
 20
3556.187536829327
 10
-1105.245150642188
 20
3554.676145760563
 10
-1112.966095580062
 20
3551.597832076645
 10
-1120.150978341329
 20
3547.172269212962
 10
-1126.501733671356
 20
3541.61911457386
 10
-1131.720288299985
 20
3535.158033579209
 10
-1135.508584988109
 20
3528.008691648873
 10
-1137.56855046557
 20
3520.390762218247
 10
-1140.57439580207
 20
3511.522387084441
 10
-1147.974487352172
 20
3505.864870330153
 10
-1159.79255106526
 20
3499.563915447257
 10
-1166.798839948764
 20
3494.736101555272
 10
-1169.53441786592
 20
3490.900280828673
 10
-1168.540348679962
 20
3487.575305441941
 10
-1167.195688514269
 20
3485.283627212882
 10
-1167.224760817785
 20
3482.939992360887
 10
-1171.885523185762
 20
3476.502028135835
 10
-1179.894409772165
 20
3470.623771881538
 10
-1187.034573928162
 20
3469.791896812384
 10
-1189.920587189236
 20
3471.177885016932
 10
-1192.159467165397
 20
3473.716922299344
 10
-1194.122557026565
 20
3482.109359697865
 10
-1192.874836601354
 20
3486.04728216204
 10
-1189.875347574941
 20
3490.165473748375
 10
-1187.164297159512
 20
3495.002962377153
 10
-1188.249422691746
 20
3501.303789011674
 10
-1193.930272634767
 20
3524.745419761581
 10
-1197.319981388799
 20
3537.66589047544
 10
-1201.172017519316
 20
3545.483775153795
 10
-1203.639620456832
 20
3547.44862843012
 10
-1205.995366764746
 20
3547.667820934105
 10
-1213.325466764172
 20
3542.028331092033
 10
-1219.835185955057
 20
3536.636256411979
 10
-1224.294117442819
 20
3534.39353700009
 10
-1229.022258300831
 20
3532.571440196228
 10
-1234.960558841215
 20
3528.272274121669
 10
-1240.04047697643
 20
3523.246741312993
 10
-1242.19346260341
 20
3519.245544306784
 10
-1239.701548583301
 20
3515.354280204553
 10
-1233.710361619261
 20
3510.807690952453
 10
-1227.595855827099
 20
3506.380484906466
 10
-1225.447471110574
 20
3503.025860098529
 10
-1227.298327612537
 20
3501.299989653563
 10
-1233.18158555346
 20
3501.759046696485
 10
-1237.594251439928
 20
3502.1054936506
 10
-1241.82109344649
 20
3501.266717215764
 10
-1249.221008655077
 20
3496.535225868955
 10
-1254.388800973763
 20
3488.567955880252
 10
-1256.331964243659
 20
3478.368306504896
 10
-1258.158661957975
 20
3453.993532562697
 10
-1259.985351656767
 20
3440.669408103931
 10
-1249.675560973825
 20
3442.603553909958
 10
-1243.392761251522
 20
3443.072558217469
 10
-1239.688827947602
 20
3441.988883494977
 10
-1239.107734560309
 20
3439.771132438603
 10
-1242.19346260341
 20
3436.837875682374
 10
-1244.594977550165
 20
3432.696399000445
 10
-1244.844428655135
 20
3426.01449835055
 10
-1243.153377643992
 20
3418.82732314958
 10
-1239.733362195833
 20
3413.170022814425
 10
-1235.64446734767
 20
3410.54271057237
 10
-1229.459978020355
 20
3408.375970307168
 10
-1213.220848152236
 20
3405.638797300846
 10
-1195.849221008352
 20
3405.38770301357
 10
-1182.178353021105
 20
3408.051886663449
 10
-1173.874102411469
 20
3410.417612298045
 10
-1168.348072303688
 20
3409.71457073714
 10
-1163.712406539601
 20
3407.949384149701
 10
-1158.069381851692
 20
3407.189440387896
 10
-1153.188417023778
 20
3405.795027868213
 10
-1151.707052105819
 20
3401.302166669729
 10
-1152.892564053614
 20
3397.027039149965
 10
-1157.501009100099
 20
3397.292489239722
 10
-1161.322369822412
 20
3397.190411548716
 10
-1165.999395687448
 20
3395.108002605623
 10
-1176.237351249322
 20
3386.738802209554
 10
-1184.848668546414
 20
3375.658190699498
 10
-1187.492404595997
 20
3370.186513856163
 10
-1188.467156370465
 20
3365.339470723446
 10
-1187.610713721968
 20
3358.965839089522
 10
-1185.551798278078
 20
3355.747911018328
 10
-1183.148608086924
 20
3350.365030143659
 10
-1181.468594451557
 20
3338.787368009579
 10
-1181.482341074256
 20
3327.237319353749
 10
-1182.398739838083
 20
3323.708805780309
 10
-1184.011054362477
 20
3321.615094949166
 10
-1186.386446718342
 20
3320.909039551447
 10
-1189.592095007625
 20
3321.543476247232
 10
-1198.762815685582
 20
3326.645220652773
 10
-1207.825943992407
 20
3331.576026005436
 10
-1215.16913334161
 20
3333.62681370856
 10
-1222.737606992613
 20
3336.388193595669
 10
-1230.493499612685
 20
3343.035635510295
 10
-1236.193835293188
 20
3351.114064778061
 10
-1237.572232797039
 20
3354.922696849153
 10
-1237.595622094436
 20
3358.168422755635
 10
-1237.812650407092
 20
3363.624469328264
 10
-1242.292430271321
 20
3367.612945698773
 10
-1245.842922410033
 20
3369.299532063362
 10
-1247.497166137541
 20
3368.849708903442
 10
-1246.664056677778
 20
3358.208011425906
 10
-1246.072711436005
 20
3348.693152264583
 10
-1247.370985767552
 20
3343.820675875991
 10
-1252.135348775988
 20
3343.944251200861
 10
-1258.851090965846
 20
3346.692557769241
 10
-1264.49955819417
 20
3350.47208547472
 10
-1266.062080286956
 20
3353.689348257469
 10
-1264.132880058892
 20
3355.084466143215
 10
-1261.792251028186
 20
3354.712978693874
 10
-1259.933042350799
 20
3354.371533426385
 10
-1259.159664571708
 20
3355.832747318416
 10
-1262.363805942586
 20
3358.312990736396
 10
-1270.066106772939
 20
3360.422099388067
 10
-1275.917414837431
 20
3361.795791779658
 10
-1279.987801841972
 20
3364.037669561586
 10
-1283.162157527747
 20
3367.891869883432
 10
-1286.325379651463
 20
3374.102513863731
 10
-1292.337423007494
 20
3383.850304136212
 10
-1295.831886637361
 20
3385.890318975832
 10
-1300.497819017956
 20
3386.798894588782
 10
-1305.460958992176
 20
3387.064032073124
 10
-1308.054141135424
 20
3386.06757426118
 10
-1308.989929450452
 20
3382.985870010847
 10
-1308.980920002105
 20
3376.99525214897
 10
-1309.819327722863
 20
3368.306440771262
 10
-1311.412116432158
 20
3366.265985077853
 10
-1314.008568908969
 20
3365.246162015083
 10
-1316.780954109761
 20
3365.009118940398
 10
-1318.173771540279
 20
3366.102596648056
 10
-1317.698715512572
 20
3374.4814317033
 10
-1317.210233483103
 20
3382.970888997537
 10
-1318.863018385346
 20
3383.7020249681
 10
-1322.231518064356
 20
3382.930594961206
 10
-1337.255093802828
 20
3375.719958323126
 10
-1346.113257159773
 20
3371.386469777198
 10
-1352.882735418772
 20
3370.728010557662
 10
-1358.236055042995
 20
3373.883233188987
 10
-1362.845782573231
 20
3380.990790195631
 10
-1368.418871819127
 20
3388.755572031197
 10
-1375.02079357614
 20
3392.63031613962
 10
-1381.561757277393
 20
3392.319706590803
 10
-1386.951924262869
 20
3387.52843547018
 10
-1390.766006889898
 20
3383.18888718853
 10
-1394.352368496003
 20
3381.858190064669
 10
-1396.902202688488
 20
3383.495521037719
 10
-1397.60670307466
 20
3388.060041015755
 10
-1397.895478337626
 20
3398.933258872328
 10
-1399.607257492385
 20
3400.947728238744
 10
-1402.665460227994
 20
3401.480311678179
 10
-1412.35258100356
 20
3398.046156846673
 10
-1424.805995182105
 20
3390.00196989504
 10
-1435.555894210556
 20
3380.690616858333
 10
-1438.895217384245
 20
3376.604399194998
 10
-1440.132485566891
 20
3373.454971787121
 10
-1435.355794683404
 20
3369.121170635778
 10
-1423.873212688367
 20
3362.715364690767
 10
-1414.929018718342
 20
3358.133651414953
 10
-1410.051412394748
 20
3354.537302466643
 10
-1408.019885994452
 20
3350.594739014397
 10
-1407.613931794319
 20
3344.974374211253
 10
-1407.947072979525
 20
3339.887827238154
 10
-1409.167757044173
 20
3336.290861094538
 10
-1411.607882767338
 20
3333.61483851654
 10
-1415.599356943614
 20
3331.291130255816
 10
-1425.016835510665
 20
3328.451943682676
 10
-1433.256224504627
 20
3329.935961738893
 10
-1440.957996310434
 20
3336.048559836476
 10
-1448.76262331302
 20
3347.095153465052
 10
-1454.23563874877
 20
3354.161574805402
 10
-1456.651910274177
 20
3354.395123111868
 10
-1459.725623047642
 20
3352.889110459333
 10
-1464.017006048942
 20
3348.888618819187
 10
-1466.622379803341
 20
3344.086478648779
 10
-1468.868457719552
 20
3339.87700628151
 10
-1471.306467344528
 20
3341.22979418797
 10
-1473.263056616186
 20
3347.045753794092
 10
-1474.064889503488
 20
3356.225796525809
 10
-1475.147898937534
 20
3367.668084484515
 10
-1476.849201803157
 20
3370.314369470551
 10
-1479.632632395249
 20
3371.772489370534
 10
-1484.063814140863
 20
3375.763923469194
 10
-1487.743179865439
 20
3383.096372016987
 10
-1489.680331492756
 20
3391.069821974263
 10
-1488.884862931065
 20
3396.984268316889
 10
-1487.400596393622
 20
3401.818157975644
 10
-1486.696272348966
 20
3409.509389368127
 10
-1487.26494969045
 20
3429.146532072564
 10
-1489.865858798293
 20
3447.260957773615
 10
-1491.701822457706
 20
3453.048790907986
 10
-1493.773963515272
 20
3455.217927814697
 10
-1497.811294501147
 20
3452.389962974375
 10
-1502.472674064429
 20
3445.624243995869
 10
-1506.291044996499
 20
3437.498058239447
 10
-1507.799358104262
 20
3430.588661003284
 10
-1505.495135581019
 20
3417.657233068883
 10
-1503.316700667117
 20
3414.069276373614
 10
-1500.817765048475
 20
3413.300098728806
 10
-1499.360094017805
 20
3412.879756664099
 10
-1497.948087424171
 20
3410.88325008571
 10
-1495.581568252754
 20
3403.627598267993
 10
-1494.359208943706
 20
3394.46482898929
 10
-1494.922010906509
 20
3386.32666804085
 10
-1497.518984392344
 20
3380.621074176969
 10
-1500.610635907267
 20
3378.804981000165
 10
-1502.925014098708
 20
3380.829614050302
 10
-1503.19019967619
 20
3386.64619085173
 10
-1502.717620445226
 20
3392.382892962079
 10
-1505.542851992056
 20
3388.766970105529
 10
-1508.269412445342
 20
3375.909108645259
 10
-1509.210026105481
 20
3354.992560151455
 10
-1508.347443566029
 20
3335.216468348189
 10
-1507.234568291646
 20
3328.630810088236
 10
-1505.664439467115
 20
3325.779944897445
 10
-1501.864760735706
 20
3322.393153793945
 10
-1497.919015120655
 20
3316.177780654817
 10
-1495.228235964004
 20
3309.793808995655
 10
-1495.193464623322
 20
3305.901214316533
 10
-1498.040963294268
 20
3305.670751986592
 10
-1502.432380028097
 20
3307.578037773571
 10
-1507.161490764445
 20
3310.202368240906
 10
-1509.666694522417
 20
3309.882260296814
 10
-1510.652900479881
 20
3305.710300579244
 10
-1510.824993768134
 20
3296.779051679575
 10
-1511.805853371464
 20
3285.676084874648
 10
-1513.049822531705
 20
3282.565612910687
 10
-1514.812051390995
 20
3281.020276100156
 10
-1518.133187341999
 20
3277.924648885607
 10
-1520.521180100711
 20
3272.627662360119
 10
-1522.960816876946
 20
3267.550397363163
 10
-1526.760142925323
 20
3266.128547706744
 10
-1531.837768620833
 20
3268.354963543958
 10
-1538.112304338471
 20
3274.222487012368
 10
-1544.700134805277
 20
3280.058501458138
 10
-1547.093522011263
 20
3280.663144453296
 10
-1549.086605961143
 20
3279.826989094625
 10
-1552.866181759764
 20
3278.330779427255
 10
-1557.122929684281
 20
3278.741150180805
 10
-1559.32102667718
 20
3280.376092527868
 10
-1560.738147174768
 20
3283.585708501256
 10
-1561.723599673029
 20
3296.646146285419
 10
-1561.92339461029
 20
3305.79455174612
 10
-1563.035652689368
 20
3311.147302268178
 10
-1565.829687818971
 20
3314.399424562367
 10
-1571.07480589228
 20
3317.245945339453
 10
-1576.542250539239
 20
3319.583704812766
 10
-1580.682621078933
 20
3320.103687849356
 10
-1585.144293875712
 20
3318.622194683022
 10
-1591.575629262879
 20
3314.955509516527
 10
-1600.166314602637
 20
3310.261659067791
 10
-1605.790831446923
 20
3308.527083764369
 10
-1608.862468199816
 20
3309.72607782259
 10
-1609.794505249874
 20
3313.832911412212
 10
-1610.234437253869
 20
3317.709867805103
 10
-1611.678810531152
 20
3319.210494025887
 10
-1614.314539072818
 20
3318.364479573384
 10
-1618.328504807866
 20
3315.201521961942
 10
-1624.398516429414
 20
3312.33776780946
 10
-1633.923274762183
 20
3313.16840047248
 10
-1643.10198691701
 20
3316.623852549766
 10
-1645.455785452727
 20
3319.535499454801
 10
-1647.038145966027
 20
3323.820349804498
 10
-1648.227280930417
 20
3331.283579632735
 10
-1647.308902332301
 20
3337.997374050397
 10
-1644.062960006685
 20
3344.669295373611
 10
-1638.269443866194
 20
3352.006865840883
 10
-1626.595996227008
 20
3367.120568124912
 10
-1622.635622281678
 20
3373.488861420225
 10
-1621.747197694657
 20
3376.378818318833
 10
-1642.267819408152
 20
3379.913439721133
 10
-1662.016474074682
 20
3383.111569449429
 10
-1655.640012960984
 20
3389.032772878316
 10
-1649.263543831763
 20
3394.953976307204
 10
-1654.916123023611
 20
3407.412825010639
 10
-1660.630902677353
 20
3423.4063031319
 10
-1658.809022292625
 20
3425.848456782495
 10
-1653.970603863128
 20
3426.819337059141
 10
-1647.221901840885
 20
3426.278096854391
 10
-1639.669162662395
 20
3424.183913107365
 10
-1632.416107874272
 20
3421.426909696056
 10
-1632.416107874272
 20
3440.793825058765
 10
-1633.600914456004
 20
3457.830723943803
 10
-1636.448405111427
 20
3471.593137224255
 10
-1642.395065842759
 20
3495.784115213979
 10
-1644.765737055317
 20
3505.279889413992
 10
-1646.311474642021
 20
3507.037878061381
 10
-1648.220123067985
 20
3507.041188472562
 10
-1651.845239729921
 20
3507.955246703544
 10
-1654.978331501028
 20
3513.030259338414
 10
-1656.815184883542
 20
3517.030085690114
 10
-1659.050217408452
 20
3519.028163311096
 10
-1662.617093277074
 20
3519.40650403298
 10
-1668.449492721771
 20
3518.547103656334
 10
-1679.288949193615
 20
3515.657283021624
 10
-1686.509308661628
 20
3511.139237048494
 10
-1691.132774799039
 20
3503.986127822141
 10
-1694.181567310129
 20
3493.191117427772
 10
-1695.903638396984
 20
3478.612555535154
 10
-1695.64914552777
 20
3465.457029596423
 10
-1695.043837244166
 20
3458.688224641393
 10
-1695.754477521293
 20
3453.639366659508
 10
-1698.237021394501
 20
3448.911802919184
 10
-1702.947439930187
 20
3443.106888704362
 10
-1710.371209336531
 20
3436.314750560599
 10
-1715.629673256368
 20
3434.32404722118
 10
-1719.397939151415
 20
3439.576146815406
 10
-1723.244669005415
 20
3450.204418291182
 10
-1726.831431387692
 20
3460.30473930007
 10
-1730.393802532141
 20
3465.496265583662
 10
-1731.913337372719
 20
3466.056630827338
 10
-1733.123769582889
 20
3465.156279141439
 10
-1734.213319684062
 20
3458.66206998841
 10
-1735.754416282694
 20
3450.794344785304
 10
-1739.458702269645
 20
3443.581944732069
 10
-1743.772713093616
 20
3433.807286425016
 10
-1746.646719100577
 20
3419.362687975648
 10
-1750.856103297088
 20
3398.549395454794
 10
-1759.843597124734
 20
3378.20267853785
 10
-1761.904107657789
 20
3373.172288321969
 10
-1762.300868052536
 20
3368.958928425833
 10
-1761.054029334903
 20
3365.738090719631
 10
-1758.183734515294
 20
3363.685267073555
 10
-1756.217021637532
 20
3362.610738063307
 10
-1755.793978341425
 20
3361.220221088016
 10
-1759.917115505724
 20
3355.993923463743
 10
-1763.379941864574
 20
3351.784451096475
 10
-1764.632655960888
 20
3346.728258910641
 10
-1763.739678556553
 20
3338.415616047963
 10
-1760.765422397929
 20
3324.436783634637
 10
-1760.490786518311
 20
3319.076482489496
 10
-1762.319953013846
 20
3316.687119076276
 10
-1765.62624421544
 20
3317.465666867985
 10
-1769.782958407428
 20
3321.609091322109
 10
-1773.652316084098
 20
3325.138767146448
 10
-1778.503591413192
 20
3321.580812555414
 10
-1781.85684556662
 20
3315.826259874363
 10
-1783.411416260154
 20
3306.554407337166
 10
-1783.204158870571
 20
3293.142801455581
 10
-1781.271904728076
 20
3274.968996756887
 10
-1780.150020005347
 20
3259.888166134485
 10
-1781.410292740265
 20
3256.938958486611
 10
-1784.130713302596
 20
3255.364549372564
 10
-1791.428125997435
 20
3251.190160951391
 10
-1800.128431635756
 20
3244.479316246354
 10
-1807.424778265977
 20
3237.613659721602
 10
-1810.510329967562
 20
3232.974819810233
 10
-1812.207657133559
 20
3229.284320523598
 10
-1816.216629197504
 20
3224.760351078645
 10
-1820.210756512039
 20
3220.012644327917
 10
-1821.872029853604
 20
3215.782403739415
 10
-1827.576204969835
 20
3203.505587573297
 10
-1840.257740945476
 20
3185.186685869296
 10
-1844.399257705021
 20
3181.301778077153
 10
-1845.845851282298
 20
3181.780849882104
 10
-1847.389200243016
 20
3183.772835705271
 10
-1850.330007622325
 20
3193.655647470098
 10
-1851.207298647289
 20
3196.141902530658
 10
-1853.590345828038
 20
3190.827947142047
 10
-1857.200289104103
 20
3182.710057452386
 10
-1862.138572940136
 20
3174.632429736965
 10
-1874.714680735973
 20
3159.839532747566
 10
-1888.747762211942
 20
3148.932433273413
 10
-1895.507261144258
 20
3145.712036421
 10
-1901.666902348909
 20
3144.394276351972
 10
-1910.762293137578
 20
3141.855094790138
 10
-1922.324669668459
 20
3134.913707599926
 10
-1936.455308080213
 20
3123.496428074353
 10
-1953.255468480456
 20
3107.529553475389
 10
-1978.600144805444
 20
3082.05480123602
 10
-1993.63503044749
 20
3083.82211193717
 10
-2007.566755629562
 20
3084.130332860001
 10
-2018.400032132834
 20
3080.349699012286
 10
-2028.194120068705
 20
3076.631626325019
 10
-2038.244833003025
 20
3078.769013743385
 10
-2045.716190572031
 20
3080.645191283895
 10
-2051.384095444696
 20
3079.677413014819
 10
-2056.189369684769
 20
3075.393797055733
 10
-2061.072859402568
 20
3067.322477557257
 10
-2065.181857183518
 20
3061.68439844731
 10
-2069.267529791259
 20
3059.339881887736
 10
-2072.18063552156
 20
3058.259365281479
 10
-2074.865491206389
 20
3055.327511241852
 10
-2079.030870179215
 20
3045.7679815684
 10
-2080.724486157859
 20
3034.377698325773
 10
-2080.319646115485
 20
3029.157388297509
 10
-2078.907158590445
 20
3024.873042925789
 10
-2077.256842469422
 20
3019.75207729504
 10
-2078.929786413115
 20
3016.056271731887
 10
-2081.910799657999
 20
3010.703657473728
 10
-2081.862818734688
 20
3004.508299096629
 10
-2079.035559260427
 20
2998.527668576959
 10
-2073.678744867985
 20
2993.819237891085
 10
-2069.255233978303
 20
2990.620386765679
 10
-2066.572245910435
 20
2987.271917879744
 10
-2065.509868433723
 20
2984.041485591985
 10
-2065.948165270935
 20
2981.196736245579
 10
-2067.767224191412
 20
2979.005316183705
 10
-2070.847108917925
 20
2977.734879765065
 10
-2075.067915235338
 20
2977.653073332838
 10
-2080.309698850896
 20
2979.02753521468
 10
-2086.337653020954
 20
2984.280700873522
 10
-2094.643314362716
 20
2994.534647404659
 10
-2100.349926198073
 20
3002.159494232014
 10
-2104.266334997336
 20
3005.909420609431
 10
-2107.805773729223
 20
3006.631418883272
 10
-2112.381475362457
 20
3005.172457353328
 10
-2129.598370841858
 20
2997.803954981101
 10
-2138.918035976374
 20
2991.579347958971
 10
-2141.600406848936
 20
2987.860385548602
 10
-2143.489272963051
 20
2983.184658198363
 10
-2146.460924076557
 20
2969.305899595181
 10
-2149.183997777146
 20
2954.330400966301
 10
-2138.223835537822
 20
2947.077354193702
 10
-2131.33939864165
 20
2941.662347101086
 10
-2127.860661468771
 20
2936.898689458712
 10
-2127.883858393606
 20
2933.027343932229
 10
-2131.505215775049
 20
2930.289297233854
 10
-2134.55312657856
 20
2927.495967470314
 10
-2135.647798599212
 20
2923.352238426299
 10
-2134.746821702484
 20
2919.59343084891
 10
-2131.807777738332
 20
2917.954865485249
 10
-2128.606826545784
 20
2916.916037616403
 10
-2126.44080767769
 20
2914.420236067425
 10
-2121.403259599378
 20
2909.97049838505
 10
-2111.292814984385
 20
2904.237691819091
 10
-2092.663920926872
 20
2895.047661745168
 10
-2086.330936012312
 20
2893.252785658908
 10
-2078.002294164848
 20
2892.505562532802
 10
-2068.881197592507
 20
2891.65654225901
 10
-2060.648701948704
 20
2889.615653727336
 10
-2053.803188434355
 20
2888.261535243984
 10
-2049.34355158053
 20
2891.736424965612
 10
-2045.665067563532
 20
2895.042716167206
 10
-2042.05657509721
 20
2893.212483607053
 10
-2038.091784598465
 20
2890.715632024505
 10
-2033.590434960659
 20
2889.677862204753
 10
-2028.431299407289
 20
2887.506897758697
 10
-2022.890416534574
 20
2882.286251078449
 10
-2019.603595039415
 20
2878.992993117968
 10
-2015.936797655593
 20
2876.925773591794
 10
-2011.951936286155
 20
2876.071302762063
 10
-2007.710970927291
 20
2876.416298906436
 10
-1998.708407915578
 20
2880.65153316604
 10
-1989.424588201885
 20
2889.525166483224
 10
-1983.695092047108
 20
2897.460662937012
 10
-1982.182490634305
 20
2904.01501256241
 10
-1985.108148674313
 20
2911.367828555265
 10
-1992.693406831398
 20
2921.69874014247
 10
-2001.30092477038
 20
2932.514695099589
 10
-1994.296711907446
 20
2938.011741074611
 10
-1987.535682010153
 20
2941.58914132551
 10
-1981.113973266637
 20
2942.471025245405
 10
-1975.705290422015
 20
2942.382309431973
 10
-1971.378198263791
 20
2943.627553060441
 10
-1967.39666333658
 20
2952.120112362249
 10
-1963.248918515322
 20
2968.446282799402
 10
-1960.495049173676
 20
2985.139347790966
 10
-1960.695148700828
 20
2994.732582740482
 10
-1962.019305157561
 20
2998.301542645198
 10
-1961.062043255238
 20
3000.672526463171
 10
-1958.044447161376
 20
3001.659173274424
 10
-1953.187609059014
 20
3001.075114143459
 10
-1949.47956379157
 20
3000.408976052471
 10
-1947.401066423917
 20
3001.081831152102
 10
-1946.290844287792
 20
3008.398857832798
 10
-1945.052309652442
 20
3015.699276348926
 10
-1943.380079090335
 20
3017.718074098
 10
-1940.895595460455
 20
3018.864181732566
 10
-1936.669947766885
 20
3021.452939306874
 10
-1934.083658973795
 20
3025.695900531074
 10
-1933.075987444559
 20
3028.394895599251
 10
-1931.546858022423
 20
3029.623931839324
 10
-1924.995434063081
 20
3028.201248568468
 10
-1918.217435302666
 20
3026.712461275805
 10
-1913.475379495962
 20
3028.481190724603
 10
-1911.562923696364
 20
3029.346634805924
 10
-1909.716443670198
 20
3028.780530447463
 10
-1906.344272881453
 20
3023.656775414556
 10
-1903.604631093913
 20
3013.716219818869
 10
-1901.743250209673
 20
2999.565125791297
 10
-1901.846113421976
 20
2984.945564496285
 10
-1903.617359745135
 20
2979.956037418901
 10
-1906.875525743997
 20
2974.879301446492
 10
-1911.684390938571
 20
2966.657410340199
 10
-1911.064726852486
 20
2964.010460065717
 10
-1908.606085270175
 20
2960.910464390893
 10
-1905.279995725685
 20
2956.444727723731
 10
-1904.159521735081
 20
2952.137522079161
 10
-1905.240415070939
 20
2946.939591392342
 10
-1908.518419490314
 20
2939.801679598432
 10
-1913.158678149332
 20
2930.826553723453
 10
-1898.081382372765
 20
2917.321462791989
 10
-1885.931107275192
 20
2907.783270441934
 10
-1877.888771909475
 20
2903.816363845001
 10
-1874.040535137068
 20
2902.650730395336
 10
-1873.039973377123
 20
2899.371219057556
 10
-1874.854735977037
 20
2894.303893309665
 10
-1879.452488315253
 20
2887.774816629672
 10
-1884.797199267303
 20
2880.052372788914
 10
-1888.260779085356
 20
2872.711660236454
 10
-1895.04725826957
 20
2859.98700876023
 10
-1904.587919400845
 20
2845.463938336387
 10
-1907.931322475965
 20
2837.503962474013
 10
-1907.326503139291
 20
2835.230936367998
 10
-1905.258081284601
 20
2833.098406356836
 10
-1902.001414188623
 20
2829.596384088366
 10
-1902.092117851868
 20
2825.81495670383
 10
-1906.247822087902
 20
2820.159820560004
 10
-1915.186140679245
 20
2811.03668804471
 10
-1924.413635309726
 20
2800.604155651334
 10
-1928.81424584894
 20
2791.965264953609
 10
-1928.521575041582
 20
2784.598838601954
 10
-1923.669241663394
 20
2777.983699246788
 10
-1919.675114348859
 20
2772.837284329118
 10
-1918.013841007294
 20
2767.648451261402
 10
-1916.718404171046
 20
2763.963610934316
 10
-1913.605455410344
 20
2762.431347442515
 10
-1911.014573722323
 20
2761.58763344524
 10
-1910.972868953866
 20
2759.558407500171
 10
-1913.001036849841
 20
2758.005992982442
 10
-1915.381254550817
 20
2758.311384425498
 10
-1917.233040853499
 20
2757.126225160736
 10
-1917.988391720373
 20
2751.994302309443
 10
-1920.162538329234
 20
2744.138247708467
 10
-1927.178413778773
 20
2736.473058751639
 10
-1932.151284598449
 20
2731.960888157189
 10
-1934.867641290396
 20
2727.765507080129
 10
-1935.932976495258
 20
2722.349089255386
 10
-1935.952774838154
 20
2714.173816433421
 10
-1934.579875983384
 20
2703.808702607697
 10
-1931.474045007496
 20
2694.70015032954
 10
-1927.200199971482
 20
2688.054872606241
 10
-1922.323258936334
 20
2685.079606491664
 10
-1919.620680929179
 20
2687.281679184189
 10
-1916.998699010212
 20
2693.152689405297
 10
-1911.626061974499
 20
2707.769068537503
 10
-1910.193126849164
 20
2715.761210695441
 10
-1910.690097317956
 20
2726.364032884295
 10
-1911.47478500062
 20
2736.556476304078
 10
-1910.740995891799
 20
2743.559278434886
 10
-1908.42475809892
 20
2746.618667467963
 10
-1905.181733423837
 20
2748.175498539107
 10
-1902.295006781176
 20
2747.95087151023
 10
-1901.047639038996
 20
2745.665910289813
 10
-1899.539502272749
 20
2741.52810471762
 10
-1895.754187359345
 20
2738.014860716333
 10
-1890.800321345744
 20
2735.847254774599
 10
-1885.786539294431
 20
2735.746339334492
 10
-1880.140685126749
 20
2735.735734796981
 10
-1875.748202328303
 20
2732.921468486217
 10
-1870.223582952647
 20
2729.771760535019
 10
-1861.963161225179
 20
2728.498943505919
 10
-1854.660626610863
 20
2729.206225278724
 10
-1854.069906579919
 20
2730.248980754056
 10
-1855.238890518381
 20
2731.892187105787
 10
-1857.927152800672
 20
2735.239694128909
 10
-1858.060939902406
 20
2737.803844046257
 10
-1855.405901964773
 20
2740.029201834376
 10
-1849.727705160011
 20
2742.360332469806
 10
-1840.089134409919
 20
2745.154455770166
 10
-1838.967025252533
 20
2744.087301041484
 10
-1838.838231821902
 20
2741.223594982141
 10
-1837.981789173405
 20
2738.228001500122
 10
-1835.922873729515
 20
2736.982044490068
 10
-1833.383595981399
 20
2738.228001500122
 10
-1831.378761274157
 20
2741.223594982141
 10
-1829.364107550702
 20
2744.477657033002
 10
-1827.176086070766
 20
2745.310325638976
 10
-1825.4196444194
 20
2743.82181087411
 10
-1824.699730181654
 20
2740.112306781399
 10
-1826.039709281657
 20
2735.818446983357
 10
-1829.260811500133
 20
2733.009126250554
 10
-1832.062004492167
 20
2730.83851448753
 10
-1831.0818502549
 20
2727.758084705423
 10
-1828.210096610025
 20
2721.460223814576
 10
-1825.203417659088
 20
2711.144285225156
 10
-1821.872029853604
 20
2690.833974815675
 10
-1820.679448214135
 20
2684.981696872847
 10
-1817.811453849753
 20
2680.577904170827
 10
-1814.410787875179
 20
2675.764806779877
 10
-1811.932660555386
 20
2668.922122745302
 10
-1810.011596083614
 20
2663.06878675338
 10
-1807.9484324123
 20
2660.634135632724
 10
-1805.413539155506
 20
2661.608270211889
 10
-1802.623920579319
 20
2664.28430080541
 10
-1797.011242663154
 20
2673.263706969905
 10
-1792.571885083632
 20
2684.615732119155
 10
-1790.767326245057
 20
2695.383746230581
 10
-1789.518323336095
 20
2699.948274224138
 10
-1786.295674121596
 20
2704.181424447649
 10
-1781.885917870136
 20
2707.323445511867
 10
-1777.07560186582
 20
2708.614553965458
 10
-1772.251547254327
 20
2710.364190437424
 10
-1765.985363712114
 20
2714.442448685983
 10
-1759.759474206233
 20
2718.077809186874
 10
-1755.785842585134
 20
2717.270149014032
 10
-1751.612159530024
 20
2715.199915651045
 10
-1745.665506814216
 20
2714.306713812052
 10
-1741.553503211976
 20
2713.393497211031
 10
-1736.903874406057
 20
2710.491797570585
 10
-1724.316368535888
 20
2697.394239897372
 10
-1713.292226388468
 20
2685.471597649965
 10
-1706.643245493339
 20
2680.48176598269
 10
-1704.146385895268
 20
2678.399870033097
 10
-1703.108616075515
 20
2673.471894160207
 10
-1699.793844450122
 20
2663.334942209199
 10
-1691.826093530012
 20
2648.729520297534
 10
-1683.848443438454
 20
2634.85434463333
 10
-1680.515292217813
 20
2626.469858634061
 10
-1677.379370966933
 20
2621.296231014312
 10
-1669.883141228693
 20
2615.144917938515
 10
-1661.573808777195
 20
2608.297777272908
 10
-1658.387477899402
 20
2601.794991509798
 10
-1658.715184559715
 20
2598.67033206935
 10
-1660.323347042968
 20
2595.628881777731
 10
-1667.380622671073
 20
2589.791761189728
 10
-1675.065954638304
 20
2583.482806814439
 10
-1678.787562171409
 20
2576.340390296357
 10
-1683.126669599269
 20
2552.372091563313
 10
-1683.69079412344
 20
2542.286390869178
 10
-1684.474071073978
 20
2534.445181017612
 10
-1686.802332152017
 20
2531.891058520087
 10
-1691.605530371519
 20
2533.922055895836
 10
-1696.568982951153
 20
2535.993347307918
 10
-1699.213103745861
 20
2534.932252314956
 10
-1699.301162286371
 20
2531.157622094298
 10
-1696.596420087887
 20
2525.088323854336
 10
-1693.439602367399
 20
2518.194741245918
 10
-1691.970661510772
 20
2511.746525166387
 10
-1692.313381246489
 20
2506.974779860863
 10
-1694.591585380645
 20
2505.11061758999
 10
-1697.100460248353
 20
2501.769691311612
 10
-1699.206386737218
 20
2493.737607800375
 10
-1701.211229459984
 20
2485.259099711156
 10
-1703.479045475763
 20
2480.846121219275
 10
-1705.21454256438
 20
2476.955201784551
 10
-1705.936316403565
 20
2469.730433778647
 10
-1706.680357366866
 20
2461.043738499127
 10
-1708.469935192132
 20
2453.637987989476
 10
-1715.107253500655
 20
2430.164190944005
 10
-1718.813663601317
 20
2399.778784377899
 10
-1719.50998815358
 20
2378.463223127261
 10
-1717.935659194767
 20
2375.548257795522
 10
-1714.611701779511
 20
2375.036402499703
 10
-1709.391063114788
 20
2376.961362515867
 10
-1705.421671705589
 20
2382.105653319827
 10
-1702.209851463256
 20
2387.039504571398
 10
-1698.657106962458
 20
2388.888950341236
 10
-1695.043925414924
 20
2387.630937983928
 10
-1691.650778001337
 20
2383.24239080749
 10
-1688.431439198017
 20
2378.870059034972
 10
-1684.983056812406
 20
2382.535461717717
 10
-1682.53957258492
 20
2393.003607081735
 10
-1682.036590473549
 20
2413.210356928374
 10
-1681.523011840189
 20
2434.959261422739
 10
-1679.993890433577
 20
2440.178264920681
 10
-1677.291713202594
 20
2443.718417034155
 10
-1673.557737716823
 20
2448.849281836354
 10
-1672.003912466968
 20
2454.081935770713
 10
-1668.267812867485
 20
2461.117609563148
 10
-1659.284919950293
 20
2470.581570150628
 10
-1648.104186536952
 20
2483.024860723067
 10
-1639.383561546711
 20
2497.470172554021
 10
-1632.074662606783
 20
2509.680403766925
 10
-1623.243046663471
 20
2518.49872195685
 10
-1613.711579337582
 20
2523.31354268534
 10
-1608.94053939812
 20
2524.028527376171
 10
-1604.303110218877
 20
2523.513289529461
 10
-1584.735422025047
 20
2520.014721951592
 10
-1578.174627918804
 20
2520.332922201106
 10
-1573.175786803183
 20
2522.000471697524
 10
-1567.464894678309
 20
2523.876649238034
 10
-1562.95647534883
 20
2521.926953316534
 10
-1560.041646280989
 20
2518.381719361199
 10
-1559.023851145649
 20
2514.745300811214
 10
-1559.920058805931
 20
2511.909472742396
 10
-1562.747230109433
 20
2510.766018246089
 10
-1564.270259718232
 20
2510.027612195767
 10
-1565.236354727385
 20
2507.949804163128
 10
-1565.562554469292
 20
2500.600434845353
 10
-1563.855464395745
 20
2490.366807666136
 10
-1560.244711551814
 20
2478.8978360299
 10
-1556.06819901693
 20
2462.941125114659
 10
-1554.886927281034
 20
2458.74693835059
 10
-1552.047211683348
 20
2456.100917876827
 10
-1548.933557556583
 20
2453.091185011459
 10
-1547.098732101499
 20
2448.022176003646
 10
-1546.165989685379
 20
2444.652570182401
 10
-1544.11798336889
 20
2442.536087249166
 10
-1534.153525482306
 20
2440.619254973769
 10
-1525.315545213383
 20
2440.821791220046
 10
-1522.952649058561
 20
2441.652736488482
 10
-1522.135795080333
 20
2442.935140083617
 10
-1520.266334548465
 20
2444.920545162041
 10
-1515.773473349983
 20
2445.219924962517
 10
-1512.674968562519
 20
2444.377493448993
 10
-1510.691735690947
 20
2442.70503845223
 10
-1509.230169115885
 20
2435.6368456812
 10
-1508.245069300656
 20
2429.197470724023
 10
-1506.913089693045
 20
2428.682032489226
 10
-1504.785024328439
 20
2429.650604295122
 10
-1502.38669154449
 20
2430.497941308991
 10
-1499.743941404291
 20
2430.005483579896
 10
-1492.789921749137
 20
2424.608816004911
 10
-1485.39725257374
 20
2419.020577419713
 10
-1482.166828301503
 20
2418.30295562167
 10
-1478.85501440426
 20
2418.806378586831
 10
-1469.170362409912
 20
2421.575132755504
 10
-1463.238682691889
 20
2422.363619796279
 10
-1459.713559684865
 20
2421.10555934583
 10
-1457.248553776943
 20
2417.734679056358
 10
-1453.831680413974
 20
2413.376222154914
 10
-1449.912442134938
 20
2412.108262533017
 10
-1445.514436640841
 20
2413.929213117027
 10
-1440.661261632692
 20
2418.837478817778
 10
-1435.462184726021
 20
2423.932289795543
 10
-1433.618566241723
 20
2423.610819212466
 10
-1431.567377762429
 20
2421.591660764837
 10
-1426.270391236941
 20
2418.638477417337
 10
-1417.830413768898
 20
2418.088139593484
 10
-1409.068075994676
 20
2417.452612786511
 10
-1406.652606021612
 20
2415.573429424711
 10
-1404.806021793642
 20
2412.32528283015
 10
-1401.110576929045
 20
2407.465174394225
 10
-1394.889280318096
 20
2407.622823709239
 10
-1379.336928513822
 20
2409.921739955965
 10
-1371.38154554638
 20
2411.639218147889
 10
-1364.166316013369
 20
2415.119053447479
 10
-1358.116319153851
 20
2418.288463555291
 10
-1353.660345394238
 20
2417.866871068928
 10
-1350.53463592022
 20
2413.694686916701
 10
-1348.475407870916
 20
2405.612330042449
 10
-1347.048877148809
 20
2398.490938242348
 10
-1345.863421309678
 20
2396.519768733554
 10
-1343.89205942832
 20
2395.499761313744
 10
-1336.178224259737
 20
2395.987714318666
 10
-1321.080649208868
 20
2399.303728350192
 10
-1316.968549420346
 20
2399.926574599082
 10
-1314.547244146218
 20
2398.8509394466
 10
-1313.114220850125
 20
2395.217125941732
 10
-1311.966966995709
 20
2388.165413086894
 10
-1311.892037882593
 20
2375.472575223203
 10
-1317.169939446771
 20
2363.174197299032
 10
-1321.574253157815
 20
2354.097586881782
 10
-1323.797358583847
 20
2346.344082887695
 10
-1323.756535522967
 20
2340.427688772872
 10
-1321.369071788802
 20
2336.862448071031
 10
-1319.059374663051
 20
2333.720651441469
 10
-1318.644579340564
 20
2329.474724473596
 10
-1319.945498794845
 20
2325.741502447027
 10
-1322.782921952827
 20
2324.137796594807
 10
-1325.91397778098
 20
2323.197014608677
 10
-1326.871776723374
 20
2320.808532903035
 10
-1325.683347125046
 20
2317.623171903577
 10
-1322.375733362085
 20
2314.291744020476
 10
-1318.904025803264
 20
2308.868569109475
 10
-1317.099242530032
 20
2300.588709737665
 10
-1315.560975411175
 20
2291.99143563764
 10
-1312.741755506924
 20
2285.78852663746
 10
-1310.47075732834
 20
2281.653013504972
 10
-1313.066945292877
 20
2278.722105297111
 10
-1320.390688982215
 20
2276.109309168006
 10
-1325.039908996439
 20
2273.850238088299
 10
-1332.879579867504
 20
2268.01713327754
 10
-1351.588701299126
 20
2250.911669604998
 10
-1355.246377017274
 20
2246.344047619392
 10
-1357.242162198552
 20
2241.96672217577
 10
-1357.58877747866
 20
2237.802745919546
 10
-1356.298943493296
 20
2233.875131418515
 10
-1353.385396909206
 20
2230.20690727152
 10
-1348.860858362089
 20
2226.82111810845
 10
-1335.029695937093
 20
2220.988943098409
 10
-1326.719081001845
 20
2217.729662941789
 10
-1326.117668262632
 20
2216.552414998661
 10
-1327.731401534676
 20
2215.562586024602
 10
-1338.339161285969
 20
2211.119918033899
 10
-1336.808444790192
 20
2210.473922953315
 10
-1330.858834346234
 20
2210.662183552345
 10
-1321.910223822795
 20
2210.289277355355
 10
-1317.107730969355
 20
2208.170974898299
 10
-1317.275359611052
 20
2202.744000629187
 10
-1319.984205757536
 20
2194.16820813198
 10
-1323.746019156214
 20
2186.239244329795
 10
-1327.072541538971
 20
2182.752780192321
 10
-1331.773814362412
 20
2184.739724251246
 10
-1337.360778479382
 20
2189.482357175636
 10
-1342.033155340823
 20
2195.153348024827
 10
-1343.9906744132
 20
2199.925405935765
 10
-1344.469088945229
 20
2202.693855514548
 10
-1346.288885293863
 20
2204.353934543121
 10
-1356.260068204613
 20
2205.374382816719
 10
-1366.895048673508
 20
2204.063740532506
 10
-1369.671850427715
 20
2201.874308320444
 10
-1371.812420008887
 20
2198.172226602439
 10
-1374.690666227748
 20
2190.081822142653
 10
-1373.203778614139
 20
2188.68163043057
 10
-1369.439977365648
 20
2187.588144707387
 10
-1365.317545567412
 20
2184.855532533904
 10
-1363.784576709548
 20
2180.00425720481
 10
-1362.950761883722
 20
2174.03290064576
 10
-1360.802056546259
 20
2168.541112854114
 10
-1357.867613492561
 20
2164.519548402845
 10
-1354.676553455938
 20
2162.958877895973
 10
-1348.587809556112
 20
2159.772763437312
 10
-1338.516248245325
 20
2152.111822707908
 10
-1326.226711443508
 20
2143.759142305647
 10
-1314.961502428635
 20
2139.556827800811
 10
-1309.179520626374
 20
2138.901021719536
 10
-1305.295366293433
 20
2139.427817951048
 10
-1302.372449562442
 20
2141.493763008995
 10
-1299.474188581552
 20
2145.455411422551
 10
-1291.935540693268
 20
2154.962142843105
 10
-1289.876617233854
 20
2163.220440456861
 10
-1288.723271581624
 20
2180.411445795552
 10
-1287.793975840582
 20
2196.509101674959
 10
-1285.833715459189
 20
2210.708136548225
 10
-1282.989623385705
 20
2222.219085480717
 10
-1279.408824552868
 20
2230.252491553322
 10
-1273.874314021287
 20
2233.161132637067
 10
-1263.898890898637
 20
2234.994547360026
 10
-1252.221900398091
 20
2234.665470045204
 10
-1248.735083577585
 20
2232.823005796282
 10
-1245.592357147304
 20
2229.494663889705
 10
-1239.888534714105
 20
2224.688283507398
 10
-1232.825287521037
 20
2224.373698258955
 10
-1226.681493006226
 20
2224.123052840992
 10
-1225.417853751464
 20
2222.669445680706
 10
-1225.343902532208
 20
2220.411031873922
 10
-1228.717612301454
 20
2213.721973361595
 10
-1236.707726531961
 20
2204.540207292338
 10
-1248.273060790991
 20
2191.484803256893
 10
-1251.370844181346
 20
2186.305885391674
 10
-1252.702254686792
 20
2181.808327096455
 10
-1252.284958520992
 20
2177.828772003534
 10
-1250.13660586656
 20
2174.20384771416
 10
-1240.717403961969
 20
2167.36443401315
 10
-1232.3371581746
 20
2163.939384816271
 10
-1229.63065256096
 20
2163.936731678013
 10
-1227.678880618889
 20
2165.031580040181
 10
-1225.225280800822
 20
2165.987246853338
 10
-1221.537202202267
 20
2165.63909259273
 10
-1212.248821655737
 20
2161.985440667349
 10
-1203.3962691652
 20
2155.978791758593
 10
-1198.562042854462
 20
2149.527297329975
 10
-1197.181425050619
 20
2146.205768618322
 10
-1194.68103060671
 20
2144.277321849461
 10
-1182.758027660749
 20
2143.164975599625
 10
-1172.810177938732
 20
2143.995616278169
 10
-1168.673254074117
 20
2145.992675927675
 10
-1165.867468187152
 20
2147.98973557718
 10
-1159.12128303927
 20
2148.820376255724
 10
-1152.245374660036
 20
2149.538038131384
 10
-1147.430858521438
 20
2152.031587318276
 10
-1144.106195740119
 20
2156.811853125216
 10
-1141.69982338616
 20
2164.389696923119
 10
-1135.863448241837
 20
2179.051323685144
 10
-1133.960049983725
 20
2182.580775074827
 10
-1134.378901161072
 20
2184.64344979921
 10
-1145.389969989763
 20
2187.065019585611
 10
-1163.840358340271
 20
2190.420798628923
 10
-1167.588521302531
 20
2192.188285671588
 10
-1168.673254074117
 20
2194.323733333282
 10
-1167.51616517244
 20
2196.671303807288
 10
-1164.448047234337
 20
2198.731277300272
 10
-1154.997785176416
 20
2201.575016690725
 10
-1145.160485553681
 20
2202.028110184207
 10
-1141.608574667321
 20
2201.099776305979
 10
-1139.774158003933
 20
2199.263724475809
 10
-1138.182467421349
 20
2197.907970825676
 10
-1134.558817600202
 20
2196.979292279939
 10
-1121.863502939768
 20
2196.5038835692
 10
-1108.605562658047
 20
2197.221681708759
 10
-1100.531333524563
 20
2198.806342677286
 10
-1095.81216203728
 20
2201.931747561413
 10
-1092.619426756258
 20
2207.271769432251
 10
-1090.395447638171
 20
2211.035250059804
 10
-1088.335369943382
 20
2212.311000770485
 10
-1086.469740831719
 20
2211.190663043779
 10
-1084.829115478535
 20
2207.765910421268
 10
-1082.34506468692
 20
2194.369766484398
 10
-1081.127650955835
 20
2172.855829044147
 10
-1077.932350707312
 20
2165.505578018793
 10
-1070.410671682151
 20
2155.782170968615
 10
-1064.14864018108
 20
2149.402704033627
 10
-1059.226403422973
 20
2146.120627728345
 10
-1053.560847098675
 20
2145.08551104685
 10
-1045.068816821414
 20
2145.446930998752
 10
-1033.046846207541
 20
2147.42561105301
 10
-1030.138028782281
 20
2149.257959711351
 10
-1028.617259551092
 20
2151.919538316111
 10
-1025.786377060237
 20
2155.773690544815
 10
-1020.026702459709
 20
2155.589894592341
 10
-1016.287156185146
 20
2154.922466002078
 10
-1014.219311448144
 20
2155.692397106089
 10
-1013.149736031382
 20
2163.900501512065
 10
-1012.40834820634
 20
2171.745735156397
 10
-1010.312841897947
 20
2175.21448498707
 10
-1007.056214879586
 20
2174.217409979821
 10
-1002.831456909118
 20
2168.665177125915
 10
-998.7168001686196
 20
2162.637936337443
 10
-995.8979329474004
 20
2160.131177567923
 10
-992.782651669377
 20
2162.411449707127
 10
-988.9343668038298
 20
2168.074897948761
 10
-985.3655030853946
 20
2175.355429951235
 10
-983.0884531866129
 20
2182.486977419534
 10
-982.5560060110765
 20
2187.154889634419
 10
-983.8890436677813
 20
2190.446953281907
 10
-988.047489212832
 20
2193.467555197059
 10
-995.9912496712865
 20
2197.321090230459
 10
-1007.783471336804
 20
2204.037585879521
 10
-1009.620148377802
 20
2207.13577806157
 10
-1009.722562720793
 20
2211.029783472818
 10
-1008.855251022511
 20
2214.888753031111
 10
-1006.605734446746
 20
2217.109694265814
 10
-993.3558337350346
 20
2218.831412669638
 10
-977.7903605188901
 20
2219.895064614578
 10
-969.1913710968481
 20
2221.733336744741
 10
-965.8471263917668
 20
2225.091143715482
 10
-966.0459033575504
 20
2230.713408197682
 10
-966.3677346391823
 20
2237.293551777509
 10
-963.6324613119173
 20
2241.45230191245
 10
-957.0734306208308
 20
2243.720382440502
 10
-945.9239898109986
 20
2244.628517199663
 10
-935.8193804970692
 20
2244.037620827203
 10
-929.9467751867977
 20
2241.627625456649
 10
-928.448273079725
 20
2237.524190448966
 10
-931.4659573443449
 20
2231.852967149596
 10
-933.0536642117795
 20
2229.145972589027
 10
-932.6200083626387
 20
2226.412470692441
 10
-924.0036573168262
 20
2217.663566935505
 10
-913.6726495433395
 20
2210.485801959052
 10
-909.5158471805941
 20
2209.238658651528
 10
-905.5642181713377
 20
2209.341650112207
 10
-899.4746807346912
 20
2209.797300557666
 10
-895.1597000323845
 20
2208.119723641425
 10
-891.8669310188336
 20
2203.705815348824
 10
-888.8440286484538
 20
2195.952487696252
 10
-878.5709971560075
 20
2173.330885071854
 10
-874.3556013169168
 20
2162.733104647244
 10
-872.0086079605996
 20
2149.862386287376
 10
-871.6964995088998
 20
2136.374520715785
 10
-873.5857583836637
 20
2123.925298655999
 10
-874.9176498205166
 20
2120.421384723997
 10
-877.2635370345991
 20
2118.666842751686
 10
-889.5537792024788
 20
2118.996617417047
 10
-902.3321587323195
 20
2119.169111481472
 10
-912.9727981607627
 20
2117.254756002818
 10
-918.1639236681816
 20
2115.770257015195
 10
-922.9637713988859
 20
2115.520316963294
 10
-935.588741825612
 20
2119.056004430213
 10
-947.7284123856749
 20
2122.766302059743
 10
-950.4523277162261
 20
2121.762774556126
 10
-952.9395125775058
 20
2118.82696084792
 10
-955.2037937474477
 20
2113.385406341672
 10
-955.1309807325205
 20
2107.818721499004
 10
-952.2241030639323
 20
2090.852519530705
 10
-949.8657116332834
 20
2081.735526906365
 10
-945.3117881772362
 20
2074.935749968764
 10
-939.2139466583058
 20
2071.103464088003
 10
-932.2237769924388
 20
2070.888952649706
 10
-926.8889732273615
 20
2070.86845695627
 10
-924.0800051775906
 20
2066.822725701831
 10
-922.7113946278601
 20
2064.114047881339
 10
-920.4457027257925
 20
2062.382526492347
 10
-911.8699903838198
 20
2061.229533523148
 10
-899.6112973161991
 20
2062.115842011982
 10
-888.7740451133009
 20
2064.536530090804
 10
-879.7044643101076
 20
2068.382378237226
 10
-872.7487613950316
 20
2073.544166928855
 10
-865.9180926300935
 20
2078.729465150733
 10
-863.1611292964
 20
2079.05473509192
 10
-860.3238424023164
 20
2078.057179153266
 10
-854.9744103069613
 20
2075.993927311194
 10
-849.5266277389996
 20
2075.527087195013
 10
-843.854562809669
 20
2076.664618219497
 10
-837.8323156922997
 20
2079.4144717839
 10
-822.2799638880262
 20
2087.507353040428
 10
-814.477292673159
 20
2092.041157532642
 10
-808.1581665986263
 20
2097.245332312221
 10
-803.4716343227904
 20
2102.726924358051
 10
-800.566760535062
 20
2108.09300469559
 10
-799.5925858782814
 20
2112.950636334772
 10
-800.6981590108109
 20
2116.90685823896
 10
-804.0325366065381
 20
2119.568757464657
 10
-809.744767323826
 20
2120.543372975227
 10
-815.6623477361181
 20
2121.087306395853
 10
-817.6050701522251
 20
2122.818611365712
 10
-815.5702734183648
 20
2125.886536931252
 10
-809.5553124118024
 20
2130.440324123402
 10
-803.5726058715617
 20
2135.898494809741
 10
-801.0806918514527
 20
2141.080963551845
 10
-800.2031763918322
 20
2143.593108753116
 10
-797.6849794703639
 20
2146.383609036881
 10
-788.3616993347772
 20
2152.241890606766
 10
-779.4130888113377
 20
2157.706778301748
 10
-774.4345670476366
 20
2163.292548105726
 10
-773.626554191763
 20
2168.621700926777
 10
-777.1894543607591
 20
2173.316745688507
 10
-780.3385371011281
 20
2175.820057782947
 10
-780.7799279303881
 20
2177.520118242437
 10
-771.3700480795576
 20
2181.596252377284
 10
-762.3086831878902
 20
2182.940824372219
 10
-751.5761457832093
 20
2179.492441986608
 10
-740.647436457863
 20
2175.887123667568
 10
-730.2383174084552
 20
2174.343197589162
 10
-722.0921088744814
 20
2173.412795705886
 10
-716.9216153243969
 20
2170.378054407386
 10
-714.2032707826365
 20
2164.657351281822
 10
-713.4135012581118
 20
2155.669063917356
 10
-712.24353942579
 20
2146.155270820652
 10
-709.1860901493851
 20
2140.348585175149
 10
-705.2181174878346
 20
2134.596693647881
 10
-701.6191634944061
 20
2125.695446852448
 10
-698.3335042501464
 20
2118.105010667219
 10
-693.9288779336889
 20
2112.72336418316
 10
-688.8917306315491
 20
2109.969366593139
 10
-683.7085084302418
 20
2110.261853043458
 10
-678.6002714507144
 20
2110.383801217071
 10
-671.6766466604444
 20
2108.624618256689
 10
-666.8265656443427
 20
2107.292197795289
 10
-662.170267922922
 20
2107.652944443222
 10
-647.6270544886737
 20
2114.992598946587
 10
-639.4639251847188
 20
2120.341942871185
 10
-633.45603386983
 20
2125.613087349103
 10
-628.7078782497892
 20
2131.75533486789
 10
-624.3239720614235
 20
2139.718011961663
 10
-617.1501026293628
 20
2152.167666859714
 10
-614.6691458297957
 20
2152.53252547117
 10
-611.5116628208618
 20
2150.140909695863
 10
-606.3785937497177
 20
2147.002960517552
 10
-601.6034017691144
 20
2147.500548181649
 10
-596.8727520522659
 20
2151.791137646128
 10
-591.8732857258164
 20
2160.032209900012
 10
-588.4908710981147
 20
2169.072982911963
 10
-588.5602775155798
 20
2176.162120245741
 10
-592.0796614078212
 20
2181.292712520142
 10
-599.0471631734008
 20
2184.457882416055
 10
-604.8425308998062
 20
2187.218076005695
 10
-608.8564565572369
 20
2191.363127611078
 10
-612.6671325868044
 20
2195.254399728832
 10
-617.9729602346469
 20
2197.400267570998
 10
-622.9065870515617
 20
2199.69388555673
 10
-624.3409409245455
 20
2205.374382816719
 10
-623.9952554451567
 20
2208.958227548463
 10
-622.7121865615758
 20
2211.227718808641
 10
-615.8578399403964
 20
2213.178833477789
 10
-604.9385889327088
 20
2215.723193067765
 10
-594.4090286280945
 20
2220.677540012772
 10
-586.4742375403689
 20
2226.727809400087
 10
-584.1689649835559
 20
2229.753252691397
 10
-583.3392861678244
 20
2232.55989623937
 10
-581.2754171304482
 20
2238.2283702142
 10
-576.2700353477
 20
2243.288185416628
 10
-572.6304747125257
 20
2246.201339240069
 10
-570.4820899960002
 20
2249.690809198833
 10
-569.2007845275759
 20
2262.324268064882
 10
-568.2824860846937
 20
2274.350831573686
 10
-566.3782942897618
 20
2275.482751731762
 10
-562.8384627972256
 20
2274.664350757511
 10
-554.7449162522512
 20
2273.295700130163
 10
-544.2954630888946
 20
2273.125025589559
 10
-533.7670009109912
 20
2274.068284372432
 10
-525.4364673999955
 20
2276.041441731041
 10
-520.1985071891181
 20
2279.909027977031
 10
-517.796022364027
 20
2286.257923705619
 10
-515.5426984146274
 20
2292.427255678109
 10
-509.9915636874329
 20
2294.953099408939
 10
-501.5791596200228
 20
2297.500857580853
 10
-500.5256232656643
 20
2304.78307284325
 10
-501.0040778753102
 20
2318.519860495266
 10
-502.5561717721013
 20
2332.463432620982
 10
-504.7235612947031
 20
2340.365969242386
 10
-506.2286040689025
 20
2343.992143953415
 10
-504.5143080397833
 20
2347.75192140914
 10
-502.2777685964666
 20
2349.225936092104
 10
-499.0889689374535
 20
2349.79431685922
 10
-491.3962546731336
 20
2348.683645853784
 10
-484.5195126794633
 20
2345.358894901707
 10
-482.3506723471189
 20
2343.159659704479
 10
-481.5420743580343
 20
2340.75901844978
 10
-480.3664615816874
 20
2336.521708169605
 10
-477.5408773518258
 20
2332.818832914779
 10
-475.0005415546167
 20
2328.40409100774
 10
-475.8470850316657
 20
2321.448652604938
 10
-476.7445270825572
 20
2314.888387523242
 10
-475.4257570575755
 20
2310.669456838315
 10
-472.2703099915954
 20
2302.587669066226
 10
-468.5565656869855
 20
2287.732924297966
 10
-465.8130764481941
 20
2273.090783273424
 10
-465.5683945796709
 20
2265.646814748012
 10
-468.204868565017
 20
2265.595210808106
 10
-472.6461258235942
 20
2267.363226875319
 10
-477.4974011526885
 20
2269.010008150506
 10
-480.2894003393371
 20
2267.3208167408
 10
-480.6097247025625
 20
2262.976403036422
 10
-478.4768500238929
 20
2257.427400438462
 10
-474.9697058359441
 20
2252.649290807327
 10
-471.1672457179022
 20
2250.617588065515
 10
-468.5092019589794
 20
2248.95631472395
 10
-467.4035727177856
 20
2244.962187409415
 10
-467.921928603115
 20
2241.131448524678
 10
-469.6098856222108
 20
2239.583194063615
 10
-472.6668058740687
 20
2240.281899226339
 10
-477.2920434421605
 20
2243.19204722849
 10
-480.2872842411491
 20
2245.012685207086
 10
-482.544495719417
 20
2245.011322568101
 10
-487.5339747036605
 20
2238.243567646642
 10
-496.0269668437344
 20
2221.33251247961
 10
-497.4297716164594
 20
2216.643479360461
 10
-497.0209077813181
 20
2214.253362488037
 10
-495.071556527326
 20
2214.31309416871
 10
-492.700179948705
 20
2216.767190949231
 10
-490.0071484299673
 20
2219.491675381946
 10
-487.2398931641773
 20
2216.685184128918
 10
-485.204871995661
 20
2212.245826549396
 10
-484.5178775126817
 20
2207.677899973899
 10
-485.1812823101774
 20
2203.725525520962
 10
-487.1974750141339
 20
2201.132832324645
 10
-489.3591654995693
 20
2198.992928031918
 10
-489.9212540807864
 20
2196.672490104757
 10
-488.9447308756373
 20
2194.791583405418
 10
-486.4905539398832
 20
2193.970264780634
 10
-482.1242257944211
 20
2192.343634531376
 10
-476.5936027917091
 20
2188.566535529497
 10
-473.4605510982198
 20
2185.317771739631
 10
-471.5111597666109
 20
2181.432246752183
 10
-470.2312730458356
 20
2168.868771421287
 10
-469.2465259136374
 20
2156.982182998313
 10
-467.5328550953465
 20
2154.965894108075
 10
-464.5758723897361
 20
2154.475776911824
 10
-460.2986207562605
 20
2153.023748809655
 10
-458.9204717336367
 20
2148.517814292442
 10
-459.9727336197681
 20
2144.260000303308
 10
-463.8689513154856
 20
2144.595794626772
 10
-473.6419664402331
 20
2147.516098297122
 10
-476.8648400893889
 20
2147.14509979471
 10
-479.1339305733945
 20
2145.333823947492
 10
-481.2766643458956
 20
2136.731956952536
 10
-481.0019803731363
 20
2120.393506733473
 10
-479.1887246916294
 20
2107.473388702646
 10
-477.14244171268
 20
2105.07023858911
 10
-473.7659024636593
 20
2104.086156745357
 10
-469.2719752005589
 20
2102.655690401241
 10
-467.4035727177856
 20
2100.480838426317
 10
-466.6144925282769
 20
2099.430235753537
 10
-464.4502611219109
 20
2099.629653961197
 10
-457.2143114608086
 20
2103.055817315833
 10
-448.1316894009787
 20
2109.31373685338
 10
-439.6383846554908
 20
2116.957844983561
 10
-432.4850509944826
 20
2123.295342637817
 10
-429.8308065936705
 20
2124.342025719636
 10
-427.6924092193509
 20
2123.9125780203
 10
-424.6658437547593
 20
2118.441069502957
 10
-422.8107390253731
 20
2106.512327442212
 10
-421.1894070371085
 20
2095.968539583493
 10
-419.230869993255
 20
2090.790311053289
 10
-416.5478258167233
 20
2091.053588936193
 10
-412.1474797897824
 20
2093.558231607524
 10
-400.2881040688866
 20
2103.339294317805
 10
-387.8391545368984
 20
2116.228873204327
 10
-378.9870348846275
 20
2128.322374349377
 10
-371.7619141956925
 20
2143.465774147751
 10
-372.7284981517757
 20
2145.597286187436
 10
-376.4788653829821
 20
2145.992675927675
 10
-381.2536646029371
 20
2147.487202335121
 10
-386.0743126169678
 20
2150.977914700018
 10
-389.3335526959702
 20
2154.975480674108
 10
-389.4240800176995
 20
2157.990607986751
 10
-381.2263557145777
 20
2158.79168741485
 10
-364.4424107182538
 20
2158.19172548538
 10
-345.867998173562
 20
2156.610382943557
 10
-332.2988792408608
 20
2154.467296488025
 10
-323.7267017447245
 20
2153.645849614866
 10
-320.6423042785152
 20
2155.109884971148
 10
-317.4534485108377
 20
2158.041506560594
 10
-311.880054675051
 20
2164.024918466898
 10
-311.880054675051
 20
2153.684019537486
 10
-310.9946278937957
 20
2145.841038255241
 10
-309.6910152236385
 20
2144.668206865528
 10
-307.6385041829765
 20
2144.96904549127
 10
-304.6429107009562
 20
2147.120219609953
 10
-303.3969536909019
 20
2150.005182837457
 10
-300.5811804617303
 20
2159.432512482815
 10
-294.1616840026843
 20
2171.157443829057
 10
-287.1801791176554
 20
2180.417497515749
 10
-284.429211395495
 20
2182.634927951186
 10
-282.6783966415842
 20
2182.450218229039
 10
-277.0258174497353
 20
2173.562758133921
 10
-272.3873302213976
 20
2168.070297038307
 10
-268.064838973628
 20
2165.786578224023
 10
-266.026419223173
 20
2164.678913039876
 10
-263.8098544642683
 20
2161.489183580143
 10
-259.2791760261962
 20
2149.663032203905
 10
-256.7752467364512
 20
2136.90612626136
 10
-256.6508217660949
 20
2121.48075637942
 10
-259.1073873278342
 20
2100.225375678767
 10
-264.3464136033294
 20
2069.978437280084
 10
-265.9727953713609
 20
2055.572409529509
 10
-266.8781727904577
 20
2033.303337641517
 10
-266.4912233964007
 20
1963.560051772587
 10
-263.1160948795059
 20
1857.516520234275
 10
-256.68334074469
 20
1711.940675572042
 10
-254.6770472121816
 20
1659.334931500459
 10
-254.6894632579899
 20
1622.701280133599
 10
-256.8602994556709
 20
1598.136963108618
 10
-261.329258363256
 20
1581.739214047147
 10
-265.1388282505891
 20
1565.503971707895
 10
-267.0479255458661
 20
1540.439942905106
 10
-267.0159836849584
 20
1507.780355997611
 10
-265.0024361037372
 20
1468.758447359765
 10
-258.1678878254538
 20
1341.511932597527
 10
-255.8414863488533
 20
1291.518543801261
 10
-253.1953777043325
 20
1255.870080420388
 10
-249.5524986424541
 20
1227.696285019702
 10
-244.2358099603507
 20
1200.126916195041
 10
-234.3738465719916
 20
1148.378584650291
 10
-224.1704459316665
 20
1082.777352580978
 10
-214.5901961301226
 20
1016.326394871809
 10
-207.2410031538634
 20
965.4277889669144
 10
-204.4005821901146
 20
932.343691922523
 10
-201.5431843477204
 20
880.5967791254227
 10
-198.1319218511585
 20
821.3741322835181
 10
-193.9592968451431
 20
770.3164663314835
 10
-188.6149385761252
 20
709.5209092784143
 10
-188.9775047478781
 20
680.8402522530118
 10
-191.4836463220929
 20
642.7730405499882
 10
-195.6015733961558
 20
601.6731234914186
 10
-200.7995040829744
 20
563.8943423838536
 10
-206.8043414834328
 20
522.1645093847193
 10
-209.8117338159561
 20
481.1257828320892
 10
-210.3680432047727
 20
426.0597219337971
 10
-209.0196237585869
 20
342.2478778821541
 10
-206.5397330236376
 20
221.7426026898369
 10
-216.9371894864403
 20
166.6024462928671
 10
-232.7016160098844
 20
87.42683710747503
 10
-241.5099067799868
 20
38.37471924426854
 10
-243.941680327727
 20
21.84941915830058
 10
-245.8671533373918
 20
16.73570757626345
 10
-249.2786562996562
 20
12.96606301118442
 10
-254.9359325882406
 20
9.974084530235757
 10
-263.5987095458165
 20
7.193355169543281
  0
ENDBLK
  5
17EB
330
17E9
100
AcDbEntity
  8
0
100
AcDbBlockEnd
  0
ENDSEC
  0
SECTION
  2
ENTITIES
  0
INSERT
  5
182C
330
6F
100
AcDbEntity
  8
0
  6
Continuous
100
AcDbBlockReference
  2
Gingko
 10
276.3290996632254
 20
107.97844
 30
0.0
  0
ENDSEC
  0
SECTION
  2
OBJECTS
  0
DICTIONARY
  5
C
330
0
100
AcDbDictionary
281
     1
  3
ACAD_CIP_PREVIOUS_PRODUCT_INFO
350
17B0
  3
ACAD_COLOR
350
62
  3
ACAD_DETAILVIEWSTYLE
350
69
  3
ACAD_GROUP
350
D
  3
ACAD_LAYOUT
350
61
  3
ACAD_MATERIAL
350
10
  3
ACAD_MLEADERSTYLE
350
65
  3
ACAD_MLINESTYLE
350
5E
  3
ACAD_PLOTSETTINGS
350
60
  3
ACAD_PLOTSTYLENAME
350
E
  3
ACAD_RENDER_ACTIVE_RAPIDRT_SETTINGS
350
17B8
  3
ACAD_RENDER_ACTIVE_SETTINGS
350
1891
  3
ACAD_RENDER_RAPIDRT_SETTINGS
350
17B1
  3
ACAD_SCALELIST
350
42
  3
ACAD_SECTIONVIEWSTYLE
350
67
  3
ACAD_TABLESTYLE
350
63
  3
ACAD_VISUALSTYLE
350
29
  3
ACDB_RECOMPOSE_DATA
350
1884
  3
AcDbVariableDictionary
350
17C0
  3
AcDsDecomposeData
350
188A
  0
DICTIONARY
  5
17D5
330
2
100
AcDbDictionary
280
     1
281
     1
  3
ACAD_LAYERSTATES
360
17D6
  0
DICTIONARY
  5
17BC
330
54
100
AcDbDictionary
280
     1
281
     1
  3
ADSK_XREC_LAYER_RECONCILED
360
17BD
  0
DICTIONARY
  5
17D0
330
6F
100
AcDbDictionary
280
     1
281
     1
  3
ACAD_SORTENTS
360
17D1
  0
DICTIONARY
  5
1871
330
17E9
100
AcDbDictionary
280
     1
281
     1
  0
XRECORD
  5
17B0
102
{ACAD_REACTORS
330
C
102
}
330
C
100
AcDbXrecord
280
     1
300
AOEM
300
2019
300

  0
DICTIONARY
  5
62
102
{ACAD_REACTORS
330
C
102
}
330
C
100
AcDbDictionary
281
     1
  0
DICTIONARY
  5
69
102
{ACAD_REACTORS
330
C
102
}
330
C
100
AcDbDictionary
281
     1
  3
Imperial24
350
6A
  0
DICTIONARY
  5
D
102
{ACAD_REACTORS
330
C
102
}
330
C
100
AcDbDictionary
281
     1
  0
DICTIONARY
  5
61
102
{ACAD_REACTORS
330
C
102
}
330
C
100
AcDbDictionary
281
     1
  3
Model
350
72
  3
Présentation1
350
6E
  0
DICTIONARY
  5
10
102
{ACAD_REACTORS
330
C
102
}
330
C
100
AcDbDictionary
281
     1
  3
ByBlock
350
19
  3
ByLayer
350
11
  3
Global
350
21
  0
DICTIONARY
  5
65
102
{ACAD_REACTORS
330
C
102
}
330
C
100
AcDbDictionary
281
     1
  3
Standard
350
66
  0
DICTIONARY
  5
5E
102
{ACAD_REACTORS
330
C
102
}
330
C
100
AcDbDictionary
281
     1
  3
Standard
350
5F
  0
DICTIONARY
  5
60
102
{ACAD_REACTORS
330
C
102
}
330
C
100
AcDbDictionary
281
     1
  0
ACDBDICTIONARYWDFLT
  5
E
102
{ACAD_REACTORS
330
C
102
}
330
C
100
AcDbDictionary
281
     1
  3
Normal
350
F
100
AcDbDictionaryWithDefault
340
F
  0
RAPIDRTRENDERSETTINGS
  5
17B8
102
{ACAD_REACTORS
330
C
102
}
330
C
100
AcDbRenderSettings
 90
        2
  1
Moyenne
290
     1
290
     0
290
     1
290
     1
  1

  1
Applique 5 niveaux de rendu
 90
        0
100
AcDbRapidRTRenderSettings
 90
        3
 70
     0
 90
        5
 90
        1
 70
     1
 70
     2
 40
3.0
 40
3.0
290
     1
  0
MENTALRAYRENDERSETTINGS
  5
1891
102
{ACAD_XDICTIONARY
360
1892
102
}
102
{ACAD_REACTORS
330
C
102
}
330
C
100
AcDbRenderSettings
 90
        2
  1
Moyen
290
     1
290
     1
290
     1
290
     1
  1

  1

 90
        0
100
AcDbMentalRayRenderSettings
 90
        2
 90
        0
 90
        1
 70
     2
 40
3.0
 40
3.0
 40
0.0500000007450581
 40
0.0500000007450581
 40
0.0500000007450581
 40
0.0500000007450581
 70
     0
290
     0
290
     1
 90
        5
 90
        5
 90
        5
290
     0
 90
      500
290
     0
 40
1.0
 90
    10000
 90
        5
 90
        5
 90
        5
290
     0
 90
      200
290
     0
290
     0
290
     0
 40
1.0
 40
1.0
 40
1500.0
 70
     0
 70
     0
 40
10.0
 70
     0
 70
     0
290
     0
  1

 90
       32
 70
     0
 90
     1048
290
     0
 40
1.0
  0
DICTIONARY
  5
17B1
102
{ACAD_REACTORS
330
C
102
}
330
C
100
AcDbDictionary
281
     1
  3
Bas
350
17B2
  3
Elevé
350
17B4
  3
Moyenne
350
17B3
  3
Temps d'un déjeuner
350
17B6
  3
Temps d'une nuit
350
17B7
  3
Temps d'une pause café
350
17B5
  0
DICTIONARY
  5
42
102
{ACAD_REACTORS
330
C
102
}
330
C
100
AcDbDictionary
281
     1
  3
A0
350
43
  3
A1
350
44
  3
A2
350
45
  3
A3
350
46
  3
A4
350
47
  3
A5
350
48
  3
A6
350
49
  3
A7
350
4A
  3
A8
350
4B
  3
A9
350
4C
  3
B0
350
4D
  3
B1
350
4E
  3
B2
350
4F
  3
B3
350
50
  3
B4
350
51
  3
B5
350
52
  3
B6
350
53
  0
DICTIONARY
  5
67
102
{ACAD_REACTORS
330
C
102
}
330
C
100
AcDbDictionary
281
     1
  3
Imperial24
350
68
  0
DICTIONARY
  5
63
102
{ACAD_REACTORS
330
C
102
}
330
C
100
AcDbDictionary
281
     1
  3
Standard
350
64
  0
DICTIONARY
  5
29
102
{ACAD_REACTORS
330
C
102
}
330
C
100
AcDbDictionary
281
     1
  3
2dWireframe
350
2F
  3
Basic
350
2E
  3
Brighten
350
35
  3
ColorChange
350
39
  3
Conceptual
350
32
  3
Dim
350
34
  3
EdgeColorOff
350
41
  3
Facepattern
350
38
  3
Flat
350
2A
  3
FlatWithEdges
350
2B
  3
Gouraud
350
2C
  3
GouraudWithEdges
350
2D
  3
Hidden
350
31
  3
JitterOff
350
3F
  3
Linepattern
350
37
  3
OverhangOff
350
40
  3
Realistic
350
33
  3
Shaded
350
3E
  3
Shaded with edges
350
3D
  3
Shades of Gray
350
3A
  3
Sketchy
350
3B
  3
Thicken
350
36
  3
Wireframe
350
30
  3
X-Ray
350
3C
  0
XRECORD
  5
1884
102
{ACAD_REACTORS
330
C
102
}
330
C
100
AcDbXrecord
280
     1
 90
        1
330
64
  0
DICTIONARY
  5
17C0
102
{ACAD_REACTORS
330
C
102
}
330
C
100
AcDbDictionary
281
     1
  3
CANNOSCALE
350
17C6
  3
CMLEADERSTYLE
350
17C2
  3
CTABLESTYLE
350
17C1
  3
CVIEWDETAILSTYLE
350
17C3
  3
CVIEWSECTIONSTYLE
350
17C4
  3
LAYEREVAL
350
17C8
  3
LAYERNOTIFY
350
17C9
  3
LIGHTINGUNITS
350
17C7
  3
MSLTSCALE
350
17C5
  0
DICTIONARY
  5
188A
102
{ACAD_REACTORS
330
C
102
}
330
C
100
AcDbDictionary
281
     1
  3
AcDsRecords
350
188C
  3
AcDsSchemas
350
188B
1001
ACAD
1070
     2
  0
DICTIONARY
  5
17D6
102
{ACAD_REACTORS
330
17D5
102
}
330
17D5
100
AcDbDictionary
281
     1
  0
XRECORD
  5
17BD
102
{ACAD_REACTORS
330
17BC
102
}
330
17BC
100
AcDbXrecord
280
     1
290
     1
  0
SORTENTSTABLE
  5
17D1
102
{ACAD_REACTORS
330
17D0
102
}
330
17D0
100
AcDbSortentsTable
330
6F
  0
ACDBDETAILVIEWSTYLE
  5
6A
102
{ACAD_XDICTIONARY
360
188F
102
}
102
{ACAD_REACTORS
330
69
102
}
330
69
100
AcDbModelDocViewStyle
 70
     0
  3
Imperial24
290
     0
100
AcDbDetailViewStyle
 70
     0
 71
     0
 90
        3
 71
     1
340
55
 62
   256
 40
0.24
340
0
 62
   256
 40
0.24
300

 40
0.36
280
     3
 71
     2
340
5C
 90
       25
 62
   256
 71
     3
340
55
 62
   256
 40
0.24
 90
        1
 40
0.75
 90
        1
300
%<\AcVar ViewType \f "%tc1">% %<\AcVar ViewDetailId>%\PECHELLE %<\AcVar ViewScale \f "%sn">%
 71
     4
340
5C
 90
       25
 62
   256
340
5C
 90
       25
 62
   256
280
     0
  0
LAYOUT
  5
72
102
{ACAD_REACTORS
330
61
102
}
330
61
100
AcDbPlotSettings
  1

  2
AutoCAD PDF (General Documentation).pc3
  4

  6

 40
0.0
 41
0.0
 42
0.0
 43
0.0
 44
0.0
 45
0.0
 46
0.0
 47
0.0
 48
0.0
 49
0.0
140
0.0
141
0.0
142
1.0
143
1.0
 70
  1712
 72
     0
 73
     0
 74
     0
  7

 75
     0
147
1.0
 76
     0
 77
     2
 78
   300
148
0.0
149
0.0
100
AcDbLayout
  1
Model
 70
     1
 71
     0
 10
0.0
 20
0.0
 11
12.0
 21
9.0
 12
0.0
 22
0.0
 32
0.0
 14
0.0
 24
0.0
 34
0.0
 15
0.0
 25
0.0
 35
0.0
146
0.0
 13
0.0
 23
0.0
 33
0.0
 16
1.0
 26
0.0
 36
0.0
 17
0.0
 27
1.0
 37
0.0
 76
     0
330
6F
331
17AF
  0
LAYOUT
  5
6E
102
{ACAD_REACTORS
330
61
102
}
330
61
100
AcDbPlotSettings
  1

  2
AutoCAD PDF (General Documentation).pc3
  4

  6

 40
0.0
 41
0.0
 42
0.0
 43
0.0
 44
0.0
 45
0.0
 46
0.0
 47
0.0
 48
0.0
 49
0.0
140
0.0
141
0.0
142
1.0
143
1.0
 70
   688
 72
     0
 73
     0
 74
     5
  7

 75
    16
147
1.0
 76
     0
 77
     2
 78
   300
148
0.0
149
0.0
100
AcDbLayout
  1
Présentation1
 70
     1
 71
     1
 10
0.0
 20
0.0
 11
12.0
 21
9.0
 12
0.0
 22
0.0
 32
0.0
 14
1.000000000000000E+20
 24
1.000000000000000E+20
 34
1.000000000000000E+20
 15
-1.000000000000000E+20
 25
-1.000000000000000E+20
 35
-1.000000000000000E+20
146
0.0
 13
0.0
 23
0.0
 33
0.0
 16
1.0
 26
0.0
 36
0.0
 17
0.0
 27
1.0
 37
0.0
 76
     0
330
6B
  0
MATERIAL
  5
19
102
{ACAD_XDICTIONARY
360
1A
102
}
102
{ACAD_REACTORS
330
10
102
}
330
10
100
AcDbMaterial
  1
ByBlock
 72
     0
 43
0.0208333333333333
 43
0.0
 43
0.0
 43
0.0
 43
0.0
 43
0.0208333333333333
 43
0.0
 43
0.0
 43
0.0
 43
0.0
 43
1.0
 43
0.0
 43
0.0
 43
0.0
 43
0.0
 43
1.0
 77
     0
 47
0.0208333333333333
 47
0.0
 47
0.0
 47
0.0
 47
0.0
 47
0.0208333333333333
 47
0.0
 47
0.0
 47
0.0
 47
0.0
 47
1.0
 47
0.0
 47
0.0
 47
0.0
 47
0.0
 47
1.0
171
     0
 49
0.0208333333333333
 49
0.0
 49
0.0
 49
0.0
 49
0.0
 49
0.0208333333333333
 49
0.0
 49
0.0
 49
0.0
 49
0.0
 49
1.0
 49
0.0
 49
0.0
 49
0.0
 49
0.0
 49
1.0
175
     0
142
0.0208333333333333
142
0.0
142
0.0
142
0.0
142
0.0
142
0.0208333333333333
142
0.0
142
0.0
142
0.0
142
0.0
142
1.0
142
0.0
142
0.0
142
0.0
142
0.0
142
1.0
179
     0
144
0.0208333333333333
144
0.0
144
0.0
144
0.0
144
0.0
144
0.0208333333333333
144
0.0
144
0.0
144
0.0
144
0.0
144
1.0
144
0.0
144
0.0
144
0.0
144
0.0
144
1.0
147
0.0208333333333333
147
0.0
147
0.0
147
0.0
147
0.0
147
0.0208333333333333
147
0.0
147
0.0
147
0.0
147
0.0
147
1.0
147
0.0
147
0.0
147
0.0
147
0.0
147
1.0
  0
MATERIAL
  5
11
102
{ACAD_XDICTIONARY
360
12
102
}
102
{ACAD_REACTORS
330
10
102
}
330
10
100
AcDbMaterial
  1
ByLayer
 72
     0
 43
0.0208333333333333
 43
0.0
 43
0.0
 43
0.0
 43
0.0
 43
0.0208333333333333
 43
0.0
 43
0.0
 43
0.0
 43
0.0
 43
1.0
 43
0.0
 43
0.0
 43
0.0
 43
0.0
 43
1.0
 77
     0
 47
0.0208333333333333
 47
0.0
 47
0.0
 47
0.0
 47
0.0
 47
0.0208333333333333
 47
0.0
 47
0.0
 47
0.0
 47
0.0
 47
1.0
 47
0.0
 47
0.0
 47
0.0
 47
0.0
 47
1.0
171
     0
 49
0.0208333333333333
 49
0.0
 49
0.0
 49
0.0
 49
0.0
 49
0.0208333333333333
 49
0.0
 49
0.0
 49
0.0
 49
0.0
 49
1.0
 49
0.0
 49
0.0
 49
0.0
 49
0.0
 49
1.0
175
     0
142
0.0208333333333333
142
0.0
142
0.0
142
0.0
142
0.0
142
0.0208333333333333
142
0.0
142
0.0
142
0.0
142
0.0
142
1.0
142
0.0
142
0.0
142
0.0
142
0.0
142
1.0
179
     0
144
0.0208333333333333
144
0.0
144
0.0
144
0.0
144
0.0
144
0.0208333333333333
144
0.0
144
0.0
144
0.0
144
0.0
144
1.0
144
0.0
144
0.0
144
0.0
144
0.0
144
1.0
147
0.0208333333333333
147
0.0
147
0.0
147
0.0
147
0.0
147
0.0208333333333333
147
0.0
147
0.0
147
0.0
147
0.0
147
1.0
147
0.0
147
0.0
147
0.0
147
0.0
147
1.0
  0
MATERIAL
  5
21
102
{ACAD_XDICTIONARY
360
22
102
}
102
{ACAD_REACTORS
330
10
102
}
330
10
100
AcDbMaterial
  1
Global
 72
     0
 43
0.0208333333333333
 43
0.0
 43
0.0
 43
0.0
 43
0.0
 43
0.0208333333333333
 43
0.0
 43
0.0
 43
0.0
 43
0.0
 43
1.0
 43
0.0
 43
0.0
 43
0.0
 43
0.0
 43
1.0
 77
     0
 47
0.0208333333333333
 47
0.0
 47
0.0
 47
0.0
 47
0.0
 47
0.0208333333333333
 47
0.0
 47
0.0
 47
0.0
 47
0.0
 47
1.0
 47
0.0
 47
0.0
 47
0.0
 47
0.0
 47
1.0
171
     0
 49
0.0208333333333333
 49
0.0
 49
0.0
 49
0.0
 49
0.0
 49
0.0208333333333333
 49
0.0
 49
0.0
 49
0.0
 49
0.0
 49
1.0
 49
0.0
 49
0.0
 49
0.0
 49
0.0
 49
1.0
175
     0
142
0.0208333333333333
142
0.0
142
0.0
142
0.0
142
0.0
142
0.0208333333333333
142
0.0
142
0.0
142
0.0
142
0.0
142
1.0
142
0.0
142
0.0
142
0.0
142
0.0
142
1.0
179
     0
144
0.0208333333333333
144
0.0
144
0.0
144
0.0
144
0.0
144
0.0208333333333333
144
0.0
144
0.0
144
0.0
144
0.0
144
1.0
144
0.0
144
0.0
144
0.0
144
0.0
144
1.0
147
0.0208333333333333
147
0.0
147
0.0
147
0.0
147
0.0
147
0.0208333333333333
147
0.0
147
0.0
147
0.0
147
0.0
147
1.0
147
0.0
147
0.0
147
0.0
147
0.0
147
1.0
  0
MLEADERSTYLE
  5
66
102
{ACAD_REACTORS
330
65
102
}
330
65
100
AcDbMLeaderStyle
179
     2
170
     2
171
     1
172
     0
 90
        2
 40
0.0
 41
0.0
173
     1
 91
-1056964608
340
5A
 92
       -2
290
     1
 42
0.09
291
     1
 43
0.36
  3
Standard
 44
0.18
300

342
55
174
     1
178
     6
175
     1
176
     0
 93
-1056964608
 45
0.18
292
     0
297
     0
 46
0.18
 94
-1056964608
 47
1.0
 49
1.0
140
1.0
293
     1
141
0.0
294
     1
177
     0
142
1.0
295
     0
296
     0
143
0.125
271
     0
272
     9
273
     9
298
     0
  0
MLINESTYLE
  5
5F
102
{ACAD_REACTORS
330
5E
102
}
330
5E
100
AcDbMlineStyle
  2
STANDARD
 70
     0
  3

 62
   256
 51
90.0
 52
90.0
 71
     2
 49
0.5
 62
   256
  6
BYLAYER
 49
-0.5
 62
   256
  6
BYLAYER
  0
ACDBPLACEHOLDER
  5
F
102
{ACAD_REACTORS
330
E
102
}
330
E
  0
DICTIONARY
  5
1892
330
1891
100
AcDbDictionary
280
     1
281
     1
  3
ACAD_XREC_ROUNDTRIP
360
1894
  3
ADSK_XREC_MENTALRAYSETTINGSINFO
360
1893
  0
RAPIDRTRENDERSETTINGS
  5
17B2
102
{ACAD_REACTORS
330
17B1
102
}
330
17B1
100
AcDbRenderSettings
 90
        2
  1
Bas
290
     1
290
     0
290
     1
290
     1
  1

  1
Applique 1 niveau de rendu
 90
        0
100
AcDbRapidRTRenderSettings
 90
        3
 70
     0
 90
        1
 90
        1
 70
     0
 70
     2
 40
3.0
 40
3.0
290
     1
  0
RAPIDRTRENDERSETTINGS
  5
17B4
102
{ACAD_REACTORS
330
17B1
102
}
330
17B1
100
AcDbRenderSettings
 90
        2
  1
Elevé
290
     1
290
     0
290
     1
290
     1
  1

  1
Applique 10 niveaux de rendu
 90
        2
100
AcDbRapidRTRenderSettings
 90
        3
 70
     0
 90
       10
 90
        1
 70
     2
 70
     2
 40
3.0
 40
3.0
290
     1
  0
RAPIDRTRENDERSETTINGS
  5
17B3
102
{ACAD_REACTORS
330
17B1
102
}
330
17B1
100
AcDbRenderSettings
 90
        2
  1
Moyenne
290
     1
290
     0
290
     1
290
     1
  1

  1
Applique 5 niveaux de rendu
 90
        1
100
AcDbRapidRTRenderSettings
 90
        3
 70
     0
 90
        5
 90
        1
 70
     1
 70
     2
 40
3.0
 40
3.0
290
     1
  0
RAPIDRTRENDERSETTINGS
  5
17B6
102
{ACAD_REACTORS
330
17B1
102
}
330
17B1
100
AcDbRenderSettings
 90
        2
  1
Temps d'un déjeuner
290
     1
290
     0
290
     1
290
     1
  1

  1
Effectue un rendu pendant 60 minutes
 90
        4
100
AcDbRapidRTRenderSettings
 90
        3
 70
     1
 90
        1
 90
       60
 70
     2
 70
     2
 40
3.0
 40
3.0
290
     1
  0
RAPIDRTRENDERSETTINGS
  5
17B7
102
{ACAD_REACTORS
330
17B1
102
}
330
17B1
100
AcDbRenderSettings
 90
        2
  1
Temps d'une nuit
290
     1
290
     0
290
     1
290
     1
  1

  1
Effectue un rendu pendant 12 heures
 90
        5
100
AcDbRapidRTRenderSettings
 90
        3
 70
     1
 90
        1
 90
      720
 70
     2
 70
     2
 40
3.0
 40
3.0
290
     1
  0
RAPIDRTRENDERSETTINGS
  5
17B5
102
{ACAD_REACTORS
330
17B1
102
}
330
17B1
100
AcDbRenderSettings
 90
        2
  1
Temps d'une pause café
290
     1
290
     0
290
     1
290
     1
  1

  1
Effectue un rendu pendant 10 minutes
 90
        3
100
AcDbRapidRTRenderSettings
 90
        3
 70
     1
 90
        1
 90
       10
 70
     1
 70
     2
 40
3.0
 40
3.0
290
     1
  0
SCALE
  5
43
102
{ACAD_REACTORS
330
42
102
}
330
42
100
AcDbScale
 70
     0
300
1:1
140
1.0
141
1.0
290
     1
  0
SCALE
  5
44
102
{ACAD_REACTORS
330
42
102
}
330
42
100
AcDbScale
 70
     0
300
1/128" = 1'-0"
140
0.0078125
141
12.0
290
     0
  0
SCALE
  5
45
102
{ACAD_REACTORS
330
42
102
}
330
42
100
AcDbScale
 70
     0
300
1/64" = 1'-0"
140
0.015625
141
12.0
290
     0
  0
SCALE
  5
46
102
{ACAD_REACTORS
330
42
102
}
330
42
100
AcDbScale
 70
     0
300
1/32" = 1'-0"
140
0.03125
141
12.0
290
     0
  0
SCALE
  5
47
102
{ACAD_REACTORS
330
42
102
}
330
42
100
AcDbScale
 70
     0
300
1/16" = 1'-0"
140
0.0625
141
12.0
290
     0
  0
SCALE
  5
48
102
{ACAD_REACTORS
330
42
102
}
330
42
100
AcDbScale
 70
     0
300
3/32" = 1'-0"
140
0.09375
141
12.0
290
     0
  0
SCALE
  5
49
102
{ACAD_REACTORS
330
42
102
}
330
42
100
AcDbScale
 70
     0
300
1/8" = 1'-0"
140
0.125
141
12.0
290
     0
  0
SCALE
  5
4A
102
{ACAD_REACTORS
330
42
102
}
330
42
100
AcDbScale
 70
     0
300
3/16" = 1'-0"
140
0.1875
141
12.0
290
     0
  0
SCALE
  5
4B
102
{ACAD_REACTORS
330
42
102
}
330
42
100
AcDbScale
 70
     0
300
1/4" = 1'-0"
140
0.25
141
12.0
290
     0
  0
SCALE
  5
4C
102
{ACAD_REACTORS
330
42
102
}
330
42
100
AcDbScale
 70
     0
300
3/8" = 1'-0"
140
0.375
141
12.0
290
     0
  0
SCALE
  5
4D
102
{ACAD_REACTORS
330
42
102
}
330
42
100
AcDbScale
 70
     0
300
1/2" = 1'-0"
140
0.5
141
12.0
290
     0
  0
SCALE
  5
4E
102
{ACAD_REACTORS
330
42
102
}
330
42
100
AcDbScale
 70
     0
300
3/4" = 1'-0"
140
0.75
141
12.0
290
     0
  0
SCALE
  5
4F
102
{ACAD_REACTORS
330
42
102
}
330
42
100
AcDbScale
 70
     0
300
1" = 1'-0"
140
1.0
141
12.0
290
     0
  0
SCALE
  5
50
102
{ACAD_REACTORS
330
42
102
}
330
42
100
AcDbScale
 70
     0
300
1-1/2" = 1'-0"
140
1.5
141
12.0
290
     0
  0
SCALE
  5
51
102
{ACAD_REACTORS
330
42
102
}
330
42
100
AcDbScale
 70
     0
300
3" = 1'-0"
140
3.0
141
12.0
290
     0
  0
SCALE
  5
52
102
{ACAD_REACTORS
330
42
102
}
330
42
100
AcDbScale
 70
     0
300
6" = 1'-0"
140
6.0
141
12.0
290
     0
  0
SCALE
  5
53
102
{ACAD_REACTORS
330
42
102
}
330
42
100
AcDbScale
 70
     0
300
1'-0" = 1'-0"
140
12.0
141
12.0
290
     0
  0
ACDBSECTIONVIEWSTYLE
  5
68
102
{ACAD_XDICTIONARY
360
188D
102
}
102
{ACAD_REACTORS
330
67
102
}
330
67
100
AcDbModelDocViewStyle
 70
     0
  3
Imperial24
290
     0
100
AcDbSectionViewStyle
 70
     0
 71
     0
 90
       78
 71
     1
340
55
 62
   256
 40
0.24
340
0
340
0
 62
   256
 40
0.24
300
I, O, Q, S, X, Z
 40
0.48
 90
        3
 40
0.18
 90
        1
 71
     2
340
5C
 90
       25
 62
   256
340
5C
 90
       50
 62
   256
 40
0.24
 40
0.0
 40
0.24
 71
     3
340
55
 62
   256
 40
0.24
 90
        1
 40
0.75
 90
        1
300
%<\AcVar ViewType \f "%tc1">% %<\AcVar ViewSectionStartId>%-%<\AcVar ViewSectionEndId>%\PECHELLE %<\AcVar ViewScale \f "%sn">%
 71
     4
 62
   256
 62
   257
300
ANSI31
 40
1.0
 90
        0
290
     0
290
     0
 90
        6
 40
0.0
 40
1.570796326794896
 40
0.2617993877991494
 40
1.308996938995747
 40
-0.2617993877991494
 40
1.832595714594046
  0
TABLESTYLE
  5
64
102
{ACAD_XDICTIONARY
360
1882
102
}
102
{ACAD_REACTORS
330
63
102
}
330
63
100
AcDbTableStyle
280
     0
  3
Standard
 70
     0
 71
     0
 40
0.06
 41
0.06
280
     0
281
     0
  7
Standard
140
0.18
170
     2
 62
     0
 63
     7
283
     0
 90
      512
 91
        0
  1

274
    -2
284
     1
 64
     0
275
    -2
285
     1
 65
     0
276
    -2
286
     1
 66
     0
277
    -2
287
     1
 67
     0
278
    -2
288
     1
 68
     0
279
    -2
289
     1
 69
     0
  7
Standard
140
0.25
170
     5
 62
     0
 63
     7
283
     0
 90
      512
 91
        0
  1

274
    -2
284
     1
 64
     0
275
    -2
285
     1
 65
     0
276
    -2
286
     1
 66
     0
277
    -2
287
     1
 67
     0
278
    -2
288
     1
 68
     0
279
    -2
289
     1
 69
     0
  7
Standard
140
0.18
170
     5
 62
     0
 63
     7
283
     0
 90
      512
 91
        0
  1

274
    -2
284
     1
 64
     0
275
    -2
285
     1
 65
     0
276
    -2
286
     1
 66
     0
277
    -2
287
     1
 67
     0
278
    -2
288
     1
 68
     0
279
    -2
289
     1
 69
     0
  0
VISUALSTYLE
  5
2F
102
{ACAD_REACTORS
330
29
102
}
330
29
100
AcDbVisualStyle
  2
2dWireframe
 70
     4
177
     3
291
     0
 70
    58
 90
        0
176
     1
 90
        2
176
     1
 90
        0
176
     1
 90
        0
176
     1
 40
0.6
176
     1
 40
30.0
176
     1
 62
     7
420
 16777215
176
     1
 90
        1
176
     1
 90
        4
176
     1
 62
     7
176
     1
 62
   257
176
     1
 90
        1
176
     1
 90
        1
176
     1
 40
1.0
176
     1
 90
        0
176
     1
 62
   257
176
     1
 40
1.0
176
     1
 90
        1
176
     1
 90
        6
176
     1
 90
        2
176
     1
 62
     7
176
     1
 90
        5
176
     1
 90
        0
176
     1
 90
        0
176
     1
290
     0
176
     1
 90
        1
176
     1
 40
0.0
176
     1
 90
        0
176
     1
290
     1
176
     1
290
     1
176
     1
290
     0
176
     1
290
     0
176
     1
290
     0
176
     1
290
     0
176
     1
290
     0
176
     1
290
     0
176
     1
290
     0
176
     1
 90
       50
176
     1
 40
0.0
176
     1
 40
1.0
176
     1
 90
        0
176
     1
 62
    18
420
        0
176
     1
 90
       50
176
     1
 90
        3
176
     1
 62
     5
420
      255
176
     1
290
     0
176
     1
 90
       50
176
     1
 90
       50
176
     1
 90
       50
176
     1
290
     0
176
     1
 90
       50
176
     1
 62
   256
176
     0
 40
1.0
176
     0
 90
        2
176
     1
  1
strokes_ogs.tif
176
     1
290
     0
176
     1
 40
1.0
176
     1
 40
1.0
176
     1
1001
ACAD
1000
AcDbSavedByObjectVersion
1070
     0
  0
VISUALSTYLE
  5
2E
102
{ACAD_REACTORS
330
29
102
}
330
29
100
AcDbVisualStyle
  2
Basic
 70
     7
177
     3
291
     1
 70
    58
 90
        1
176
     1
 90
        0
176
     1
 90
        1
176
     1
 90
        0
176
     1
 40
0.6
176
     1
 40
30.0
176
     1
 62
     7
420
 16777215
176
     1
 90
        0
176
     1
 90
        4
176
     1
 62
     7
176
     1
 62
   257
176
     1
 90
        1
176
     1
 90
        1
176
     1
 40
1.0
176
     1
 90
        8
176
     1
 62
     7
176
     1
 40
1.0
176
     1
 90
        1
176
     1
 90
        6
176
     1
 90
        2
176
     1
 62
     7
176
     1
 90
        5
176
     1
 90
        0
176
     1
 90
        0
176
     1
290
     0
176
     1
 90
        1
176
     1
 40
0.0
176
     1
 90
        0
176
     1
290
     0
176
     1
290
     1
176
     1
290
     1
176
     1
290
     0
176
     1
290
     0
176
     1
290
     0
176
     1
290
     0
176
     1
290
     0
176
     1
290
     0
176
     1
 90
       50
176
     1
 40
0.0
176
     1
 40
1.0
176
     1
 90
        0
176
     1
 62
    18
420
        0
176
     1
 90
       50
176
     1
 90
        3
176
     1
 62
     5
420
      255
176
     1
290
     0
176
     1
 90
       50
176
     1
 90
       50
176
     1
 90
       50
176
     1
290
     0
176
     1
 90
       50
176
     1
 62
   256
176
     0
 40
1.0
176
     0
 90
        2
176
     1
  1
strokes_ogs.tif
176
     1
290
     0
176
     1
 40
1.0
176
     1
 40
1.0
176
     1
1001
ACAD
1000
AcDbSavedByObjectVersion
1070
     0
  0
VISUALSTYLE
  5
35
102
{ACAD_REACTORS
330
29
102
}
330
29
100
AcDbVisualStyle
  2
Brighten
 70
    12
177
     3
291
     1
 70
    58
 90
        2
176
     1
 90
        2
176
     1
 90
        0
176
     1
 90
        0
176
     1
 40
0.6
176
     1
 40
30.0
176
     1
 62
     7
420
 16777215
176
     1
 90
        1
176
     1
 90
        4
176
     1
 62
     7
176
     1
 62
   257
176
     1
 90
        1
176
     1
 90
        1
176
     1
 40
1.0
176
     1
 90
        8
176
     1
 62
     7
176
     1
 40
1.0
176
     1
 90
        1
176
     1
 90
        6
176
     1
 90
        2
176
     1
 62
     7
176
     1
 90
        5
176
     1
 90
        0
176
     1
 90
        0
176
     1
290
     0
176
     1
 90
        1
176
     1
 40
50.0
176
     1
 90
        0
176
     1
290
     0
176
     1
290
     1
176
     1
290
     1
176
     1
290
     0
176
     1
290
     0
176
     1
290
     0
176
     1
290
     0
176
     1
290
     0
176
     1
290
     0
176
     1
 90
       50
176
     1
 40
0.0
176
     1
 40
1.0
176
     1
 90
        0
176
     1
 62
    18
420
        0
176
     1
 90
       50
176
     1
 90
        3
176
     1
 62
     5
420
      255
176
     1
290
     0
176
     1
 90
       50
176
     1
 90
       50
176
     1
 90
       50
176
     1
290
     0
176
     1
 90
       50
176
     1
 62
   256
176
     0
 40
1.0
176
     0
 90
        2
176
     1
  1
strokes_ogs.tif
176
     1
290
     0
176
     1
 40
1.0
176
     1
 40
1.0
176
     1
1001
ACAD
1000
AcDbSavedByObjectVersion
1070
     0
  0
VISUALSTYLE
  5
39
102
{ACAD_REACTORS
330
29
102
}
330
29
100
AcDbVisualStyle
  2
ColorChange
 70
    16
177
     3
291
     1
 70
    58
 90
        2
176
     1
 90
        2
176
     1
 90
        3
176
     1
 90
        0
176
     1
 40
0.6
176
     1
 40
30.0
176
     1
 62
     8
420
  8421504
176
     1
 90
        1
176
     1
 90
        4
176
     1
 62
     7
176
     1
 62
   257
176
     1
 90
        1
176
     1
 90
        1
176
     1
 40
1.0
176
     1
 90
        8
176
     1
 62
     8
420
  8421504
176
     1
 40
1.0
176
     1
 90
        1
176
     1
 90
        6
176
     1
 90
        2
176
     1
 62
     7
176
     1
 90
        5
176
     1
 90
        0
176
     1
 90
        0
176
     1
290
     0
176
     1
 90
        1
176
     1
 40
0.0
176
     1
 90
        0
176
     1
290
     0
176
     1
290
     1
176
     1
290
     1
176
     1
290
     0
176
     1
290
     0
176
     1
290
     0
176
     1
290
     0
176
     1
290
     0
176
     1
290
     0
176
     1
 90
       50
176
     1
 40
0.0
176
     1
 40
1.0
176
     1
 90
        0
176
     1
 62
    18
420
        0
176
     1
 90
       50
176
     1
 90
        3
176
     1
 62
     5
420
      255
176
     1
290
     0
176
     1
 90
       50
176
     1
 90
       50
176
     1
 90
       50
176
     1
290
     0
176
     1
 90
       50
176
     1
 62
   256
176
     0
 40
1.0
176
     0
 90
        2
176
     1
  1
strokes_ogs.tif
176
     1
290
     0
176
     1
 40
1.0
176
     1
 40
1.0
176
     1
1001
ACAD
1000
AcDbSavedByObjectVersion
1070
     0
  0
VISUALSTYLE
  5
32
102
{ACAD_REACTORS
330
29
102
}
330
29
100
AcDbVisualStyle
  2
Conceptual
 70
     9
177
     3
291
     0
 70
    58
 90
        3
176
     1
 90
        2
176
     1
 90
        0
176
     1
 90
        0
176
     1
 40
0.6
176
     1
 40
30.0
176
     1
 62
     7
420
 16777215
176
     1
 90
        2
176
     1
 90
        2
176
     1
 62
     7
176
     1
 62
   257
176
     1
 90
        1
176
     1
 90
        1
176
     1
 40
179.0
176
     1
 90
        8
176
     1
 62
     7
176
     1
 40
1.0
176
     1
 90
        1
176
     1
 90
        6
176
     1
 90
        2
176
     1
 62
     7
176
     1
 90
        3
176
     1
 90
        0
176
     1
 90
        0
176
     1
290
     0
176
     1
 90
        1
176
     1
 40
0.0
176
     1
 90
        0
176
     1
290
     0
176
     1
290
     1
176
     1
290
     1
176
     1
290
     0
176
     1
290
     0
176
     1
290
     0
176
     1
290
     0
176
     1
290
     0
176
     1
290
     0
176
     1
 90
       50
176
     1
 40
0.0
176
     1
 40
1.0
176
     1
 90
        0
176
     1
 62
    18
420
        0
176
     1
 90
       50
176
     1
 90
        3
176
     1
 62
     5
420
      255
176
     1
290
     0
176
     1
 90
       50
176
     1
 90
       50
176
     1
 90
       50
176
     1
290
     0
176
     1
 90
       50
176
     1
 62
   256
176
     0
 40
1.0
176
     0
 90
        2
176
     1
  1
strokes_ogs.tif
176
     1
290
     0
176
     1
 40
1.0
176
     1
 40
1.0
176
     1
1001
ACAD
1000
AcDbSavedByObjectVersion
1070
     0
  0
VISUALSTYLE
  5
34
102
{ACAD_REACTORS
330
29
102
}
330
29
100
AcDbVisualStyle
  2
Dim
 70
    11
177
     3
291
     1
 70
    58
 90
        2
176
     1
 90
        2
176
     1
 90
        0
176
     1
 90
        0
176
     1
 40
0.6
176
     1
 40
30.0
176
     1
 62
     7
420
 16777215
176
     1
 90
        1
176
     1
 90
        4
176
     1
 62
     7
176
     1
 62
   257
176
     1
 90
        1
176
     1
 90
        1
176
     1
 40
1.0
176
     1
 90
        8
176
     1
 62
     7
176
     1
 40
1.0
176
     1
 90
        1
176
     1
 90
        6
176
     1
 90
        2
176
     1
 62
     7
176
     1
 90
        5
176
     1
 90
        0
176
     1
 90
        0
176
     1
290
     0
176
     1
 90
        1
176
     1
 40
-50.0
176
     1
 90
        0
176
     1
290
     0
176
     1
290
     1
176
     1
290
     1
176
     1
290
     0
176
     1
290
     0
176
     1
290
     0
176
     1
290
     0
176
     1
290
     0
176
     1
290
     0
176
     1
 90
       50
176
     1
 40
0.0
176
     1
 40
1.0
176
     1
 90
        0
176
     1
 62
    18
420
        0
176
     1
 90
       50
176
     1
 90
        3
176
     1
 62
     5
420
      255
176
     1
290
     0
176
     1
 90
       50
176
     1
 90
       50
176
     1
 90
       50
176
     1
290
     0
176
     1
 90
       50
176
     1
 62
   256
176
     0
 40
1.0
176
     0
 90
        2
176
     1
  1
strokes_ogs.tif
176
     1
290
     0
176
     1
 40
1.0
176
     1
 40
1.0
176
     1
1001
ACAD
1000
AcDbSavedByObjectVersion
1070
     0
  0
VISUALSTYLE
  5
41
102
{ACAD_REACTORS
330
29
102
}
330
29
100
AcDbVisualStyle
  2
EdgeColorOff
 70
    22
177
     3
291
     1
 70
    58
 90
        2
176
     0
 90
        2
176
     0
 90
        0
176
     0
 90
        0
176
     0
 40
0.6
176
     0
 40
30.0
176
     0
 62
     7
420
 16777215
176
     0
 90
        1
176
     0
 90
        4
176
     0
 62
     7
176
     0
 62
   257
176
     0
 90
        1
176
     0
 90
        1
176
     0
 40
1.0
176
     0
 90
        8
176
     2
 62
     7
176
     0
 40
1.0
176
     0
 90
        1
176
     0
 90
        6
176
     0
 90
        2
176
     0
 62
     7
176
     0
 90
        5
176
     0
 90
        0
176
     0
 90
        0
176
     0
290
     0
176
     0
 90
        1
176
     0
 40
0.0
176
     0
 90
        0
176
     0
290
     0
176
     1
290
     1
176
     1
290
     1
176
     1
290
     0
176
     1
290
     0
176
     1
290
     0
176
     1
290
     0
176
     1
290
     0
176
     1
290
     0
176
     1
 90
       50
176
     0
 40
0.0
176
     0
 40
1.0
176
     0
 90
        0
176
     0
 62
    18
420
        0
176
     0
 90
       50
176
     0
 90
        3
176
     0
 62
     5
420
      255
176
     0
290
     0
176
     1
 90
       50
176
     0
 90
       50
176
     0
 90
       50
176
     0
290
     0
176
     1
 90
       50
176
     0
 62
   256
176
     0
 40
1.0
176
     0
 90
        2
176
     0
  1
strokes_ogs.tif
176
     0
290
     0
176
     1
 40
1.0
176
     0
 40
1.0
176
     0
1001
ACAD
1000
AcDbSavedByObjectVersion
1070
     0
  0
VISUALSTYLE
  5
38
102
{ACAD_REACTORS
330
29
102
}
330
29
100
AcDbVisualStyle
  2
Facepattern
 70
    15
177
     3
291
     1
 70
    58
 90
        2
176
     1
 90
        2
176
     1
 90
        0
176
     1
 90
        0
176
     1
 40
0.6
176
     1
 40
30.0
176
     1
 62
     7
420
 16777215
176
     1
 90
        1
176
     1
 90
        4
176
     1
 62
     7
176
     1
 62
   257
176
     1
 90
        1
176
     1
 90
        1
176
     1
 40
1.0
176
     1
 90
        8
176
     1
 62
     7
176
     1
 40
1.0
176
     1
 90
        1
176
     1
 90
        6
176
     1
 90
        2
176
     1
 62
     7
176
     1
 90
        5
176
     1
 90
        0
176
     1
 90
        0
176
     1
290
     0
176
     1
 90
        1
176
     1
 40
0.0
176
     1
 90
        0
176
     1
290
     0
176
     1
290
     1
176
     1
290
     1
176
     1
290
     0
176
     1
290
     0
176
     1
290
     0
176
     1
290
     0
176
     1
290
     0
176
     1
290
     0
176
     1
 90
       50
176
     1
 40
0.0
176
     1
 40
1.0
176
     1
 90
        0
176
     1
 62
    18
420
        0
176
     1
 90
       50
176
     1
 90
        3
176
     1
 62
     5
420
      255
176
     1
290
     0
176
     1
 90
       50
176
     1
 90
       50
176
     1
 90
       50
176
     1
290
     0
176
     1
 90
       50
176
     1
 62
   256
176
     0
 40
1.0
176
     0
 90
        2
176
     1
  1
strokes_ogs.tif
176
     1
290
     0
176
     1
 40
1.0
176
     1
 40
1.0
176
     1
1001
ACAD
1000
AcDbSavedByObjectVersion
1070
     0
  0
VISUALSTYLE
  5
2A
102
{ACAD_REACTORS
330
29
102
}
330
29
100
AcDbVisualStyle
  2
Flat
 70
     0
177
     3
291
     1
 70
    58
 90
        2
176
     1
 90
        1
176
     1
 90
        1
176
     1
 90
        2
176
     1
 40
0.6
176
     1
 40
30.0
176
     1
 62
     7
420
 16777215
176
     1
 90
        0
176
     1
 90
        0
176
     1
 62
     7
176
     1
 62
   257
176
     1
 90
        1
176
     1
 90
        1
176
     1
 40
1.0
176
     1
 90
        8
176
     1
 62
     7
176
     1
 40
1.0
176
     1
 90
        1
176
     1
 90
        6
176
     1
 90
        2
176
     1
 62
     7
176
     1
 90
        5
176
     1
 90
        0
176
     1
 90
        0
176
     1
290
     0
176
     1
 90
       13
176
     1
 40
0.0
176
     1
 90
        0
176
     1
290
     0
176
     1
290
     1
176
     1
290
     1
176
     1
290
     0
176
     1
290
     0
176
     1
290
     0
176
     1
290
     0
176
     1
290
     0
176
     1
290
     0
176
     1
 90
       50
176
     1
 40
0.0
176
     1
 40
1.0
176
     1
 90
        0
176
     1
 62
    18
420
        0
176
     1
 90
       50
176
     1
 90
        3
176
     1
 62
     5
420
      255
176
     1
290
     0
176
     1
 90
       50
176
     1
 90
       50
176
     1
 90
       50
176
     1
290
     0
176
     1
 90
       50
176
     1
 62
   256
176
     0
 40
1.0
176
     0
 90
        2
176
     1
  1
strokes_ogs.tif
176
     1
290
     0
176
     1
 40
1.0
176
     1
 40
1.0
176
     1
1001
ACAD
1000
AcDbSavedByObjectVersion
1070
     0
  0
VISUALSTYLE
  5
2B
102
{ACAD_REACTORS
330
29
102
}
330
29
100
AcDbVisualStyle
  2
FlatWithEdges
 70
     1
177
     3
291
     1
 70
    58
 90
        2
176
     1
 90
        1
176
     1
 90
        1
176
     1
 90
        2
176
     1
 40
0.6
176
     1
 40
30.0
176
     1
 62
     7
420
 16777215
176
     1
 90
        1
176
     1
 90
        0
176
     1
 62
     7
176
     1
 62
   257
176
     1
 90
        1
176
     1
 90
        1
176
     1
 40
1.0
176
     1
 90
        0
176
     1
 62
   257
176
     1
 40
1.0
176
     1
 90
        1
176
     1
 90
        6
176
     1
 90
        2
176
     1
 62
     7
176
     1
 90
        5
176
     1
 90
        0
176
     1
 90
        0
176
     1
290
     0
176
     1
 90
       13
176
     1
 40
0.0
176
     1
 90
        0
176
     1
290
     0
176
     1
290
     1
176
     1
290
     1
176
     1
290
     0
176
     1
290
     0
176
     1
290
     0
176
     1
290
     0
176
     1
290
     0
176
     1
290
     0
176
     1
 90
       50
176
     1
 40
0.0
176
     1
 40
1.0
176
     1
 90
        0
176
     1
 62
    18
420
        0
176
     1
 90
       50
176
     1
 90
        3
176
     1
 62
     5
420
      255
176
     1
290
     0
176
     1
 90
       50
176
     1
 90
       50
176
     1
 90
       50
176
     1
290
     0
176
     1
 90
       50
176
     1
 62
   256
176
     0
 40
1.0
176
     0
 90
        2
176
     1
  1
strokes_ogs.tif
176
     1
290
     0
176
     1
 40
1.0
176
     1
 40
1.0
176
     1
1001
ACAD
1000
AcDbSavedByObjectVersion
1070
     0
  0
VISUALSTYLE
  5
2C
102
{ACAD_REACTORS
330
29
102
}
330
29
100
AcDbVisualStyle
  2
Gouraud
 70
     2
177
     3
291
     1
 70
    58
 90
        2
176
     1
 90
        2
176
     1
 90
        1
176
     1
 90
        2
176
     1
 40
0.6
176
     1
 40
30.0
176
     1
 62
     7
420
 16777215
176
     1
 90
        0
176
     1
 90
        0
176
     1
 62
     7
176
     1
 62
   257
176
     1
 90
        1
176
     1
 90
        1
176
     1
 40
1.0
176
     1
 90
        0
176
     1
 62
     7
176
     1
 40
1.0
176
     1
 90
        1
176
     1
 90
        6
176
     1
 90
        2
176
     1
 62
     7
176
     1
 90
        5
176
     1
 90
        0
176
     1
 90
        0
176
     1
290
     0
176
     1
 90
       13
176
     1
 40
0.0
176
     1
 90
        0
176
     1
290
     0
176
     1
290
     1
176
     1
290
     1
176
     1
290
     0
176
     1
290
     0
176
     1
290
     0
176
     1
290
     0
176
     1
290
     0
176
     1
290
     0
176
     1
 90
       50
176
     1
 40
0.0
176
     1
 40
1.0
176
     1
 90
        0
176
     1
 62
    18
420
        0
176
     1
 90
       50
176
     1
 90
        3
176
     1
 62
     5
420
      255
176
     1
290
     0
176
     1
 90
       50
176
     1
 90
       50
176
     1
 90
       50
176
     1
290
     0
176
     1
 90
       50
176
     1
 62
   256
176
     0
 40
1.0
176
     0
 90
        2
176
     1
  1
strokes_ogs.tif
176
     1
290
     0
176
     1
 40
1.0
176
     1
 40
1.0
176
     1
1001
ACAD
1000
AcDbSavedByObjectVersion
1070
     0
  0
VISUALSTYLE
  5
2D
102
{ACAD_REACTORS
330
29
102
}
330
29
100
AcDbVisualStyle
  2
GouraudWithEdges
 70
     3
177
     3
291
     1
 70
    58
 90
        2
176
     1
 90
        2
176
     1
 90
        1
176
     1
 90
        2
176
     1
 40
0.6
176
     1
 40
30.0
176
     1
 62
     7
420
 16777215
176
     1
 90
        1
176
     1
 90
        0
176
     1
 62
     7
176
     1
 62
   257
176
     1
 90
        1
176
     1
 90
        1
176
     1
 40
1.0
176
     1
 90
        0
176
     1
 62
   257
176
     1
 40
1.0
176
     1
 90
        1
176
     1
 90
        6
176
     1
 90
        2
176
     1
 62
     7
176
     1
 90
        5
176
     1
 90
        0
176
     1
 90
        0
176
     1
290
     0
176
     1
 90
       13
176
     1
 40
0.0
176
     1
 90
        0
176
     1
290
     0
176
     1
290
     1
176
     1
290
     1
176
     1
290
     0
176
     1
290
     0
176
     1
290
     0
176
     1
290
     0
176
     1
290
     0
176
     1
290
     0
176
     1
 90
       50
176
     1
 40
0.0
176
     1
 40
1.0
176
     1
 90
        0
176
     1
 62
    18
420
        0
176
     1
 90
       50
176
     1
 90
        3
176
     1
 62
     5
420
      255
176
     1
290
     0
176
     1
 90
       50
176
     1
 90
       50
176
     1
 90
       50
176
     1
290
     0
176
     1
 90
       50
176
     1
 62
   256
176
     0
 40
1.0
176
     0
 90
        2
176
     1
  1
strokes_ogs.tif
176
     1
290
     0
176
     1
 40
1.0
176
     1
 40
1.0
176
     1
1001
ACAD
1000
AcDbSavedByObjectVersion
1070
     0
  0
VISUALSTYLE
  5
31
102
{ACAD_REACTORS
330
29
102
}
330
29
100
AcDbVisualStyle
  2
Hidden
 70
     6
177
     3
291
     0
 70
    58
 90
        1
176
     1
 90
        2
176
     1
 90
        2
176
     1
 90
        0
176
     1
 40
0.6
176
     1
 40
30.0
176
     1
 62
     7
420
 16777215
176
     1
 90
        2
176
     1
 90
        2
176
     1
 62
     7
176
     1
 62
   257
176
     1
 90
        2
176
     1
 90
        1
176
     1
 40
40.0
176
     1
 90
        0
176
     1
 62
   257
176
     1
 40
1.0
176
     1
 90
        1
176
     1
 90
        6
176
     1
 90
        2
176
     1
 62
     7
176
     1
 90
        3
176
     1
 90
        0
176
     1
 90
        0
176
     1
290
     0
176
     1
 90
        1
176
     1
 40
0.0
176
     1
 90
        0
176
     1
290
     0
176
     1
290
     1
176
     1
290
     1
176
     1
290
     0
176
     1
290
     0
176
     1
290
     0
176
     1
290
     0
176
     1
290
     0
176
     1
290
     0
176
     1
 90
       50
176
     1
 40
0.0
176
     1
 40
1.0
176
     1
 90
        0
176
     1
 62
    18
420
        0
176
     1
 90
       50
176
     1
 90
        3
176
     1
 62
     5
420
      255
176
     1
290
     0
176
     1
 90
       50
176
     1
 90
       50
176
     1
 90
       50
176
     1
290
     0
176
     1
 90
       50
176
     1
 62
   256
176
     0
 40
1.0
176
     0
 90
        2
176
     1
  1
strokes_ogs.tif
176
     1
290
     0
176
     1
 40
1.0
176
     1
 40
1.0
176
     1
1001
ACAD
1000
AcDbSavedByObjectVersion
1070
     0
  0
VISUALSTYLE
  5
3F
102
{ACAD_REACTORS
330
29
102
}
330
29
100
AcDbVisualStyle
  2
JitterOff
 70
    20
177
     3
291
     1
 70
    58
 90
        2
176
     0
 90
        2
176
     0
 90
        0
176
     0
 90
        0
176
     0
 40
0.6
176
     0
 40
30.0
176
     0
 62
     7
420
 16777215
176
     0
 90
        1
176
     0
 90
        4
176
     0
 62
     7
176
     0
 62
   257
176
     0
 90
        1
176
     0
 90
        1
176
     0
 40
1.0
176
     0
 90
       10
176
     2
 62
     7
176
     0
 40
1.0
176
     0
 90
        1
176
     0
 90
        6
176
     0
 90
        2
176
     0
 62
     7
176
     0
 90
        5
176
     0
 90
        0
176
     0
 90
        0
176
     0
290
     0
176
     0
 90
        1
176
     0
 40
0.0
176
     0
 90
        0
176
     0
290
     0
176
     1
290
     1
176
     1
290
     1
176
     1
290
     0
176
     1
290
     0
176
     1
290
     0
176
     1
290
     0
176
     1
290
     0
176
     1
290
     0
176
     1
 90
       50
176
     0
 40
0.0
176
     0
 40
1.0
176
     0
 90
        0
176
     0
 62
    18
420
        0
176
     0
 90
       50
176
     0
 90
        3
176
     0
 62
     5
420
      255
176
     0
290
     0
176
     1
 90
       50
176
     0
 90
       50
176
     0
 90
       50
176
     0
290
     0
176
     1
 90
       50
176
     0
 62
   256
176
     0
 40
1.0
176
     0
 90
        2
176
     0
  1
strokes_ogs.tif
176
     0
290
     0
176
     1
 40
1.0
176
     0
 40
1.0
176
     0
1001
ACAD
1000
AcDbSavedByObjectVersion
1070
     0
  0
VISUALSTYLE
  5
37
102
{ACAD_REACTORS
330
29
102
}
330
29
100
AcDbVisualStyle
  2
Linepattern
 70
    14
177
     3
291
     1
 70
    58
 90
        2
176
     1
 90
        2
176
     1
 90
        0
176
     1
 90
        0
176
     1
 40
0.6
176
     1
 40
30.0
176
     1
 62
     7
420
 16777215
176
     1
 90
        1
176
     1
 90
        4
176
     1
 62
     7
176
     1
 62
   257
176
     1
 90
        7
176
     1
 90
        7
176
     1
 40
1.0
176
     1
 90
        8
176
     1
 62
     7
176
     1
 40
1.0
176
     1
 90
        1
176
     1
 90
        6
176
     1
 90
        2
176
     1
 62
     7
176
     1
 90
        5
176
     1
 90
        0
176
     1
 90
        0
176
     1
290
     0
176
     1
 90
        1
176
     1
 40
0.0
176
     1
 90
        0
176
     1
290
     0
176
     1
290
     1
176
     1
290
     1
176
     1
290
     0
176
     1
290
     0
176
     1
290
     0
176
     1
290
     0
176
     1
290
     0
176
     1
290
     0
176
     1
 90
       50
176
     1
 40
0.0
176
     1
 40
1.0
176
     1
 90
        0
176
     1
 62
    18
420
        0
176
     1
 90
       50
176
     1
 90
        3
176
     1
 62
     5
420
      255
176
     1
290
     0
176
     1
 90
       50
176
     1
 90
       50
176
     1
 90
       50
176
     1
290
     0
176
     1
 90
       50
176
     1
 62
   256
176
     0
 40
1.0
176
     0
 90
        2
176
     1
  1
strokes_ogs.tif
176
     1
290
     0
176
     1
 40
1.0
176
     1
 40
1.0
176
     1
1001
ACAD
1000
AcDbSavedByObjectVersion
1070
     0
  0
VISUALSTYLE
  5
40
102
{ACAD_REACTORS
330
29
102
}
330
29
100
AcDbVisualStyle
  2
OverhangOff
 70
    21
177
     3
291
     1
 70
    58
 90
        2
176
     0
 90
        2
176
     0
 90
        0
176
     0
 90
        0
176
     0
 40
0.6
176
     0
 40
30.0
176
     0
 62
     7
420
 16777215
176
     0
 90
        1
176
     0
 90
        4
176
     0
 62
     7
176
     0
 62
   257
176
     0
 90
        1
176
     0
 90
        1
176
     0
 40
1.0
176
     0
 90
        9
176
     2
 62
     7
176
     0
 40
1.0
176
     0
 90
        1
176
     0
 90
        6
176
     0
 90
        2
176
     0
 62
     7
176
     0
 90
        5
176
     0
 90
        0
176
     0
 90
        0
176
     0
290
     0
176
     0
 90
        1
176
     0
 40
0.0
176
     0
 90
        0
176
     0
290
     0
176
     1
290
     1
176
     1
290
     1
176
     1
290
     0
176
     1
290
     0
176
     1
290
     0
176
     1
290
     0
176
     1
290
     0
176
     1
290
     0
176
     1
 90
       50
176
     0
 40
0.0
176
     0
 40
1.0
176
     0
 90
        0
176
     0
 62
    18
420
        0
176
     0
 90
       50
176
     0
 90
        3
176
     0
 62
     5
420
      255
176
     0
290
     0
176
     1
 90
       50
176
     0
 90
       50
176
     0
 90
       50
176
     0
290
     0
176
     1
 90
       50
176
     0
 62
   256
176
     0
 40
1.0
176
     0
 90
        2
176
     0
  1
strokes_ogs.tif
176
     0
290
     0
176
     1
 40
1.0
176
     0
 40
1.0
176
     0
1001
ACAD
1000
AcDbSavedByObjectVersion
1070
     0
  0
VISUALSTYLE
  5
33
102
{ACAD_REACTORS
330
29
102
}
330
29
100
AcDbVisualStyle
  2
Realistic
 70
     8
177
     3
291
     0
 70
    58
 90
        2
176
     1
 90
        3
176
     1
 90
        0
176
     1
 90
        2
176
     1
 40
0.6
176
     1
 40
30.0
176
     1
 62
     7
420
 16777215
176
     1
 90
        0
176
     1
 90
        0
176
     1
 62
     7
176
     1
 62
   257
176
     1
 90
        1
176
     1
 90
        1
176
     1
 40
1.0
176
     1
 90
        8
176
     1
 62
   257
176
     1
 40
1.0
176
     1
 90
        1
176
     1
 90
        6
176
     1
 90
        2
176
     1
 62
     7
176
     1
 90
        3
176
     1
 90
        0
176
     1
 90
        0
176
     1
290
     0
176
     1
 90
       13
176
     1
 40
0.0
176
     1
 90
        0
176
     1
290
     0
176
     1
290
     1
176
     1
290
     1
176
     1
290
     0
176
     1
290
     0
176
     1
290
     0
176
     1
290
     0
176
     1
290
     0
176
     1
290
     0
176
     1
 90
       50
176
     1
 40
0.0
176
     1
 40
1.0
176
     1
 90
        0
176
     1
 62
    18
420
        0
176
     1
 90
       50
176
     1
 90
        3
176
     1
 62
     5
420
      255
176
     1
290
     0
176
     1
 90
       50
176
     1
 90
       50
176
     1
 90
       50
176
     1
290
     0
176
     1
 90
       50
176
     1
 62
   256
176
     0
 40
1.0
176
     0
 90
        2
176
     1
  1
strokes_ogs.tif
176
     1
290
     0
176
     1
 40
1.0
176
     1
 40
1.0
176
     1
1001
ACAD
1000
AcDbSavedByObjectVersion
1070
     0
  0
VISUALSTYLE
  5
3E
102
{ACAD_REACTORS
330
29
102
}
330
29
100
AcDbVisualStyle
  2
Shaded
 70
    27
177
     3
291
     0
 70
    58
 90
        2
176
     1
 90
        2
176
     1
 90
        1
176
     1
 90
        2
176
     1
 40
0.6
176
     1
 40
30.0
176
     1
 62
     7
420
 16777215
176
     1
 90
        0
176
     1
 90
        4
176
     1
 62
     7
176
     1
 62
   257
176
     1
 90
        1
176
     1
 90
        1
176
     1
 40
1.0
176
     1
 90
        8
176
     1
 62
   257
176
     1
 40
1.0
176
     1
 90
        1
176
     1
 90
        6
176
     1
 90
        2
176
     1
 62
     8
420
  7895160
176
     1
 90
        3
176
     1
 90
        0
176
     1
 90
        0
176
     1
290
     0
176
     1
 90
        5
176
     1
 40
0.0
176
     1
 90
        0
176
     1
290
     0
176
     1
290
     1
176
     1
290
     1
176
     1
290
     0
176
     1
290
     0
176
     1
290
     0
176
     1
290
     0
176
     1
290
     0
176
     1
290
     0
176
     1
 90
       50
176
     1
 40
0.0
176
     1
 40
1.0
176
     1
 90
        0
176
     1
 62
    18
420
        0
176
     1
 90
       50
176
     1
 90
        3
176
     1
 62
     5
420
      255
176
     1
290
     0
176
     1
 90
       50
176
     1
 90
       50
176
     1
 90
       50
176
     1
290
     0
176
     1
 90
       50
176
     1
 62
   256
176
     0
 40
1.0
176
     0
 90
        2
176
     1
  1
strokes_ogs.tif
176
     1
290
     0
176
     1
 40
1.0
176
     1
 40
1.0
176
     1
1001
ACAD
1000
AcDbSavedByObjectVersion
1070
     0
  0
VISUALSTYLE
  5
3D
102
{ACAD_REACTORS
330
29
102
}
330
29
100
AcDbVisualStyle
  2
Shaded with edges
 70
    26
177
     3
291
     0
 70
    58
 90
        2
176
     1
 90
        2
176
     1
 90
        1
176
     1
 90
        2
176
     1
 40
0.6
176
     1
 40
30.0
176
     1
 62
     7
420
 16777215
176
     1
 90
        1
176
     1
 90
        2
176
     1
 62
     7
176
     1
 62
   257
176
     1
 90
        2
176
     1
 90
        1
176
     1
 40
1.0
176
     1
 90
        8
176
     1
 62
   257
176
     1
 40
1.0
176
     1
 90
        1
176
     1
 90
        6
176
     1
 90
        2
176
     1
 62
     7
176
     1
 90
        3
176
     1
 90
        0
176
     1
 90
        0
176
     1
290
     0
176
     1
 90
        5
176
     1
 40
0.0
176
     1
 90
        0
176
     1
290
     0
176
     1
290
     1
176
     1
290
     1
176
     1
290
     0
176
     1
290
     0
176
     1
290
     0
176
     1
290
     0
176
     1
290
     0
176
     1
290
     0
176
     1
 90
       50
176
     1
 40
0.0
176
     1
 40
1.0
176
     1
 90
        0
176
     1
 62
    18
420
        0
176
     1
 90
       50
176
     1
 90
        3
176
     1
 62
     5
420
      255
176
     1
290
     0
176
     1
 90
       50
176
     1
 90
       50
176
     1
 90
       50
176
     1
290
     0
176
     1
 90
       50
176
     1
 62
   256
176
     0
 40
1.0
176
     0
 90
        2
176
     1
  1
strokes_ogs.tif
176
     1
290
     0
176
     1
 40
1.0
176
     1
 40
1.0
176
     1
1001
ACAD
1000
AcDbSavedByObjectVersion
1070
     0
  0
VISUALSTYLE
  5
3A
102
{ACAD_REACTORS
330
29
102
}
330
29
100
AcDbVisualStyle
  2
Shades of Gray
 70
    23
177
     3
291
     0
 70
    58
 90
        2
176
     1
 90
        2
176
     1
 90
        3
176
     1
 90
        0
176
     1
 40
0.6
176
     1
 40
30.0
176
     1
 62
     7
420
 16777215
176
     1
 90
        2
176
     1
 90
        2
176
     1
 62
     7
176
     1
 62
     7
176
     1
 90
        1
176
     1
 90
        1
176
     1
 40
40.0
176
     1
 90
        8
176
     1
 62
     7
176
     1
 40
1.0
176
     1
 90
        1
176
     1
 90
        6
176
     1
 90
        2
176
     1
 62
     7
176
     1
 90
        3
176
     1
 90
        0
176
     1
 90
        0
176
     1
290
     0
176
     1
 90
        1
176
     1
 40
0.0
176
     1
 90
        0
176
     1
290
     0
176
     1
290
     1
176
     1
290
     1
176
     1
290
     0
176
     1
290
     0
176
     1
290
     0
176
     1
290
     0
176
     1
290
     0
176
     1
290
     0
176
     1
 90
       50
176
     1
 40
0.0
176
     1
 40
1.0
176
     1
 90
        0
176
     1
 62
    18
420
        0
176
     1
 90
       50
176
     1
 90
        3
176
     1
 62
     5
420
      255
176
     1
290
     0
176
     1
 90
       50
176
     1
 90
       50
176
     1
 90
       50
176
     1
290
     0
176
     1
 90
       50
176
     1
 62
   256
176
     0
 40
1.0
176
     0
 90
        2
176
     1
  1
strokes_ogs.tif
176
     1
290
     0
176
     1
 40
1.0
176
     1
 40
1.0
176
     1
1001
ACAD
1000
AcDbSavedByObjectVersion
1070
     0
  0
VISUALSTYLE
  5
3B
102
{ACAD_REACTORS
330
29
102
}
330
29
100
AcDbVisualStyle
  2
Sketchy
 70
    24
177
     3
291
     0
 70
    58
 90
        1
176
     1
 90
        2
176
     1
 90
        2
176
     1
 90
        0
176
     1
 40
0.6
176
     1
 40
30.0
176
     1
 62
     7
420
 16777215
176
     1
 90
        2
176
     1
 90
        2
176
     1
 62
     7
176
     1
 62
     7
176
     1
 90
        1
176
     1
 90
        1
176
     1
 40
40.0
176
     1
 90
       11
176
     1
 62
     7
176
     1
 40
1.0
176
     1
 90
        1
176
     1
 90
        6
176
     1
 90
        2
176
     1
 62
     7
176
     1
 90
        6
176
     1
 90
        0
176
     1
 90
        0
176
     1
290
     0
176
     1
 90
        1
176
     1
 40
0.0
176
     1
 90
        0
176
     1
290
     0
176
     1
290
     1
176
     1
290
     1
176
     1
290
     0
176
     1
290
     0
176
     1
290
     0
176
     1
290
     0
176
     1
290
     0
176
     1
290
     0
176
     1
 90
       50
176
     1
 40
0.0
176
     1
 40
1.0
176
     1
 90
        0
176
     1
 62
    18
420
        0
176
     1
 90
       50
176
     1
 90
        3
176
     1
 62
     5
420
      255
176
     1
290
     0
176
     1
 90
       50
176
     1
 90
       50
176
     1
 90
       50
176
     1
290
     0
176
     1
 90
       50
176
     1
 62
   256
176
     0
 40
1.0
176
     0
 90
        2
176
     1
  1
strokes_ogs.tif
176
     1
290
     0
176
     1
 40
1.0
176
     1
 40
1.0
176
     1
1001
ACAD
1000
AcDbSavedByObjectVersion
1070
     0
  0
VISUALSTYLE
  5
36
102
{ACAD_REACTORS
330
29
102
}
330
29
100
AcDbVisualStyle
  2
Thicken
 70
    13
177
     3
291
     1
 70
    58
 90
        2
176
     1
 90
        2
176
     1
 90
        0
176
     1
 90
        0
176
     1
 40
0.6
176
     1
 40
30.0
176
     1
 62
     7
420
 16777215
176
     1
 90
        1
176
     1
 90
        4
176
     1
 62
     7
176
     1
 62
   257
176
     1
 90
        1
176
     1
 90
        1
176
     1
 40
1.0
176
     1
 90
       12
176
     1
 62
     7
176
     1
 40
1.0
176
     1
 90
        1
176
     1
 90
        6
176
     1
 90
        2
176
     1
 62
     7
176
     1
 90
        5
176
     1
 90
        0
176
     1
 90
        0
176
     1
290
     0
176
     1
 90
        1
176
     1
 40
0.0
176
     1
 90
        0
176
     1
290
     0
176
     1
290
     1
176
     1
290
     1
176
     1
290
     0
176
     1
290
     0
176
     1
290
     0
176
     1
290
     0
176
     1
290
     0
176
     1
290
     0
176
     1
 90
       50
176
     1
 40
0.0
176
     1
 40
1.0
176
     1
 90
        0
176
     1
 62
    18
420
        0
176
     1
 90
       50
176
     1
 90
        3
176
     1
 62
     5
420
      255
176
     1
290
     0
176
     1
 90
       50
176
     1
 90
       50
176
     1
 90
       50
176
     1
290
     0
176
     1
 90
       50
176
     1
 62
   256
176
     0
 40
1.0
176
     0
 90
        2
176
     1
  1
strokes_ogs.tif
176
     1
290
     0
176
     1
 40
1.0
176
     1
 40
1.0
176
     1
1001
ACAD
1000
AcDbSavedByObjectVersion
1070
     0
  0
VISUALSTYLE
  5
30
102
{ACAD_REACTORS
330
29
102
}
330
29
100
AcDbVisualStyle
  2
Wireframe
 70
     5
177
     3
291
     0
 70
    58
 90
        0
176
     1
 90
        2
176
     1
 90
        0
176
     1
 90
        0
176
     1
 40
0.6
176
     1
 40
30.0
176
     1
 62
     7
420
 16777215
176
     1
 90
        1
176
     1
 90
        4
176
     1
 62
     7
176
     1
 62
   257
176
     1
 90
        1
176
     1
 90
        1
176
     1
 40
1.0
176
     1
 90
        0
176
     1
 62
   257
176
     1
 40
1.0
176
     1
 90
        1
176
     1
 90
        6
176
     1
 90
        2
176
     1
 62
     7
176
     1
 90
        3
176
     1
 90
        0
176
     1
 90
        0
176
     1
290
     0
176
     1
 90
        1
176
     1
 40
0.0
176
     1
 90
        0
176
     1
290
     0
176
     1
290
     1
176
     1
290
     1
176
     1
290
     0
176
     1
290
     0
176
     1
290
     0
176
     1
290
     0
176
     1
290
     0
176
     1
290
     0
176
     1
 90
       50
176
     1
 40
0.0
176
     1
 40
1.0
176
     1
 90
        0
176
     1
 62
    18
420
        0
176
     1
 90
       50
176
     1
 90
        3
176
     1
 62
     5
420
      255
176
     1
290
     0
176
     1
 90
       50
176
     1
 90
       50
176
     1
 90
       50
176
     1
290
     0
176
     1
 90
       50
176
     1
 62
   256
176
     0
 40
1.0
176
     0
 90
        2
176
     1
  1
strokes_ogs.tif
176
     1
290
     0
176
     1
 40
1.0
176
     1
 40
1.0
176
     1
1001
ACAD
1000
AcDbSavedByObjectVersion
1070
     0
  0
VISUALSTYLE
  5
3C
102
{ACAD_REACTORS
330
29
102
}
330
29
100
AcDbVisualStyle
  2
X-Ray
 70
    25
177
     3
291
     0
 70
    58
 90
        2
176
     1
 90
        2
176
     1
 90
        1
176
     1
 90
        1
176
     1
 40
0.5
176
     1
 40
30.0
176
     1
 62
     7
420
 16777215
176
     1
 90
        1
176
     1
 90
        0
176
     1
 62
     7
176
     1
 62
   257
176
     1
 90
        1
176
     1
 90
        1
176
     1
 40
1.0
176
     1
 90
        8
176
     1
 62
     7
176
     1
 40
1.0
176
     1
 90
        1
176
     1
 90
        6
176
     1
 90
        2
176
     1
 62
     7
176
     1
 90
        3
176
     1
 90
        0
176
     1
 90
        0
176
     1
290
     0
176
     1
 90
       13
176
     1
 40
0.0
176
     1
 90
        0
176
     1
290
     0
176
     1
290
     1
176
     1
290
     1
176
     1
290
     0
176
     1
290
     0
176
     1
290
     0
176
     1
290
     0
176
     1
290
     0
176
     1
290
     0
176
     1
 90
       50
176
     1
 40
0.0
176
     1
 40
1.0
176
     1
 90
        0
176
     1
 62
    18
420
        0
176
     1
 90
       50
176
     1
 90
        3
176
     1
 62
     5
420
      255
176
     1
290
     0
176
     1
 90
       50
176
     1
 90
       50
176
     1
 90
       50
176
     1
290
     0
176
     1
 90
       50
176
     1
 62
   256
176
     0
 40
1.0
176
     0
 90
        2
176
     1
  1
strokes_ogs.tif
176
     1
290
     0
176
     1
 40
1.0
176
     1
 40
1.0
176
     1
1001
ACAD
1000
AcDbSavedByObjectVersion
1070
     0
  0
DICTIONARYVAR
  5
17C6
102
{ACAD_REACTORS
330
17C0
102
}
330
17C0
100
DictionaryVariables
280
     0
  1
1:1
  0
DICTIONARYVAR
  5
17C2
102
{ACAD_REACTORS
330
17C0
102
}
330
17C0
100
DictionaryVariables
280
     0
  1
STANDARD
  0
DICTIONARYVAR
  5
17C1
102
{ACAD_REACTORS
330
17C0
102
}
330
17C0
100
DictionaryVariables
280
     0
  1
STANDARD
  0
DICTIONARYVAR
  5
17C3
102
{ACAD_REACTORS
330
17C0
102
}
330
17C0
100
DictionaryVariables
280
     0
  1
Imperial24
  0
DICTIONARYVAR
  5
17C4
102
{ACAD_REACTORS
330
17C0
102
}
330
17C0
100
DictionaryVariables
280
     0
  1
Imperial24
  0
DICTIONARYVAR
  5
17C8
102
{ACAD_REACTORS
330
17C0
102
}
330
17C0
100
DictionaryVariables
280
     0
  1
1
  0
DICTIONARYVAR
  5
17C9
102
{ACAD_REACTORS
330
17C0
102
}
330
17C0
100
DictionaryVariables
280
     0
  1
15
  0
DICTIONARYVAR
  5
17C7
102
{ACAD_REACTORS
330
17C0
102
}
330
17C0
100
DictionaryVariables
280
     0
  1
0
  0
DICTIONARYVAR
  5
17C5
102
{ACAD_REACTORS
330
17C0
102
}
330
17C0
100
DictionaryVariables
280
     0
  1
0
  0
DICTIONARY
  5
188C
102
{ACAD_REACTORS
330
188A
102
}
330
188A
100
AcDbDictionary
281
     1
  0
DICTIONARY
  5
188B
102
{ACAD_REACTORS
330
188A
102
}
330
188A
100
AcDbDictionary
281
     1
  3
2316186921424
350
1885
  3
2316186921440
350
1886
  3
2316186921456
350
1887
  3
2316186921472
350
1888
  3
2316186921488
350
1889
  0
DICTIONARY
  5
188F
330
6A
100
AcDbDictionary
280
     1
281
     1
  3
ACAD_XREC_ROUNDTRIP
360
1890
  0
DICTIONARY
  5
1A
330
19
100
AcDbDictionary
280
     1
281
     1
  3
BUMPTILE
360
1C
  3
DIFFUSETILE
360
1B
  3
OPACITYTILE
360
1F
  3
REFLECTIONTILE
360
1E
  3
REFRACTIONTILE
360
20
  3
SPECULARTILE
360
1D
  0
DICTIONARY
  5
12
330
11
100
AcDbDictionary
280
     1
281
     1
  3
BUMPTILE
360
14
  3
DIFFUSETILE
360
13
  3
OPACITYTILE
360
17
  3
REFLECTIONTILE
360
16
  3
REFRACTIONTILE
360
18
  3
SPECULARTILE
360
15
  0
DICTIONARY
  5
22
330
21
100
AcDbDictionary
280
     1
281
     1
  3
BUMPTILE
360
24
  3
DIFFUSETILE
360
23
  3
OPACITYTILE
360
27
  3
REFLECTIONTILE
360
26
  3
REFRACTIONTILE
360
28
  3
SPECULARTILE
360
25
  0
XRECORD
  5
1894
102
{ACAD_REACTORS
330
1892
102
}
330
1892
100
AcDbXrecord
280
     1
102
ACAD_MENTALRAY_SETTING_RT
330
17B8
 70
     1
  0
XRECORD
  5
1893
102
{ACAD_REACTORS
330
1892
102
}
330
1892
100
AcDbXrecord
280
     1
 70
     2
 71
     3
 72
     0
  0
DICTIONARY
  5
188D
330
68
100
AcDbDictionary
280
     1
281
     1
  3
ACAD_XREC_ROUNDTRIP
360
188E
  0
DICTIONARY
  5
1882
330
64
100
AcDbDictionary
280
     1
281
     1
  3
ACAD_ROUNDTRIP_2008_TABLESTYLE_CELLSTYLEMAP
360
1883
  0
XRECORD
  5
1885
102
{ACAD_REACTORS
330
188B
102
}
330
188B
100
AcDbXrecord
280
     1
  1
AcDb_Thumbnail_Schema
102
{ATTRRECORD
341
1886
  2
AcDbDs::TreatedAsObjectData
280
     1
291
     1
102
ATTRRECORD}
102
{ATTRRECORD
341
1887
  2
AcDbDs::Legacy
280
     1
291
     1
102
ATTRRECORD}
  2
AcDbDs::ID
280
    10
 91
        8
102
{ATTRRECORD
341
1888
  2
AcDs:Indexable
280
     1
291
     1
102
ATTRRECORD}
102
{ATTRRECORD
341
1889
  2
AcDbDs::HandleAttribute
280
     7
282
     1
102
ATTRRECORD}
  2
Thumbnail_Data
280
    15
 91
        0
  0
XRECORD
  5
1886
102
{ACAD_REACTORS
330
188B
102
}
330
188B
100
AcDbXrecord
280
     1
  1
AcDbDs::TreatedAsObjectDataSchema
  2
AcDbDs::TreatedAsObjectData
280
     1
 91
        0
  0
XRECORD
  5
1887
102
{ACAD_REACTORS
330
188B
102
}
330
188B
100
AcDbXrecord
280
     1
  1
AcDbDs::LegacySchema
  2
AcDbDs::Legacy
280
     1
 91
        0
  0
XRECORD
  5
1888
102
{ACAD_REACTORS
330
188B
102
}
330
188B
100
AcDbXrecord
280
     1
  1
AcDbDs::IndexedPropertySchema
  2
AcDs:Indexable
280
     1
 91
        0
  0
XRECORD
  5
1889
102
{ACAD_REACTORS
330
188B
102
}
330
188B
100
AcDbXrecord
280
     1
  1
AcDbDs::HandleAttributeSchema
  2
AcDbDs::HandleAttribute
280
     7
 91
        1
284
     1
  0
XRECORD
  5
1890
102
{ACAD_REACTORS
330
188F
102
}
330
188F
100
AcDbXrecord
280
     1
102
DISPLAYNAME
  1
Imperial24
102
FLAGS
 90
        0
  0
XRECORD
  5
1C
102
{ACAD_REACTORS
330
1A
102
}
330
1A
100
AcDbXrecord
280
     1
270
     1
271
     1
  0
XRECORD
  5
1B
102
{ACAD_REACTORS
330
1A
102
}
330
1A
100
AcDbXrecord
280
     1
270
     1
271
     1
  0
XRECORD
  5
1F
102
{ACAD_REACTORS
330
1A
102
}
330
1A
100
AcDbXrecord
280
     1
270
     1
271
     1
  0
XRECORD
  5
1E
102
{ACAD_REACTORS
330
1A
102
}
330
1A
100
AcDbXrecord
280
     1
270
     1
271
     1
  0
XRECORD
  5
20
102
{ACAD_REACTORS
330
1A
102
}
330
1A
100
AcDbXrecord
280
     1
270
     1
271
     1
  0
XRECORD
  5
1D
102
{ACAD_REACTORS
330
1A
102
}
330
1A
100
AcDbXrecord
280
     1
270
     1
271
     1
  0
XRECORD
  5
14
102
{ACAD_REACTORS
330
12
102
}
330
12
100
AcDbXrecord
280
     1
270
     1
271
     1
  0
XRECORD
  5
13
102
{ACAD_REACTORS
330
12
102
}
330
12
100
AcDbXrecord
280
     1
270
     1
271
     1
  0
XRECORD
  5
17
102
{ACAD_REACTORS
330
12
102
}
330
12
100
AcDbXrecord
280
     1
270
     1
271
     1
  0
XRECORD
  5
16
102
{ACAD_REACTORS
330
12
102
}
330
12
100
AcDbXrecord
280
     1
270
     1
271
     1
  0
XRECORD
  5
18
102
{ACAD_REACTORS
330
12
102
}
330
12
100
AcDbXrecord
280
     1
270
     1
271
     1
  0
XRECORD
  5
15
102
{ACAD_REACTORS
330
12
102
}
330
12
100
AcDbXrecord
280
     1
270
     1
271
     1
  0
XRECORD
  5
24
102
{ACAD_REACTORS
330
22
102
}
330
22
100
AcDbXrecord
280
     1
270
     1
271
     1
  0
XRECORD
  5
23
102
{ACAD_REACTORS
330
22
102
}
330
22
100
AcDbXrecord
280
     1
270
     1
271
     1
  0
XRECORD
  5
27
102
{ACAD_REACTORS
330
22
102
}
330
22
100
AcDbXrecord
280
     1
270
     1
271
     1
  0
XRECORD
  5
26
102
{ACAD_REACTORS
330
22
102
}
330
22
100
AcDbXrecord
280
     1
270
     1
271
     1
  0
XRECORD
  5
28
102
{ACAD_REACTORS
330
22
102
}
330
22
100
AcDbXrecord
280
     1
270
     1
271
     1
  0
XRECORD
  5
25
102
{ACAD_REACTORS
330
22
102
}
330
22
100
AcDbXrecord
280
     1
270
     1
271
     1
  0
XRECORD
  5
188E
102
{ACAD_REACTORS
330
188D
102
}
330
188D
100
AcDbXrecord
280
     1
102
DISPLAYNAME
  1
Imperial24
102
FLAGS
 90
        0
  0
CELLSTYLEMAP
  5
1883
102
{ACAD_REACTORS
330
1882
102
}
330
1882
100
AcDbCellStyleMap
 90
        3
300
CELLSTYLE
  1
TABLEFORMAT_BEGIN
 90
        5
170
     1
 91
        0
 92
    32768
 62
   257
 93
        1
300
CONTENTFORMAT
  1
CONTENTFORMAT_BEGIN
 90
        0
 91
        0
 92
      512
 93
        0
300

 40
0.0
140
1.0
 94
        5
 62
     0
340
55
144
0.25
309
CONTENTFORMAT_END
171
     0
 94
        0
309
TABLEFORMAT_END
  1
CELLSTYLE_BEGIN
 90
        1
 91
        1
300
_TITLE
309
CELLSTYLE_END
300
CELLSTYLE
  1
TABLEFORMAT_BEGIN
 90
        5
170
     1
 91
        0
 92
        0
 62
   257
 93
        1
300
CONTENTFORMAT
  1
CONTENTFORMAT_BEGIN
 90
        0
 91
        0
 92
      512
 93
        0
300

 40
0.0
140
1.0
 94
        5
 62
     0
340
55
144
0.18
309
CONTENTFORMAT_END
171
     0
 94
        0
309
TABLEFORMAT_END
  1
CELLSTYLE_BEGIN
 90
        2
 91
        1
300
_HEADER
309
CELLSTYLE_END
300
CELLSTYLE
  1
TABLEFORMAT_BEGIN
 90
        5
170
     1
 91
        0
 92
        0
 62
   257
 93
        1
300
CONTENTFORMAT
  1
CONTENTFORMAT_BEGIN
 90
        0
 91
        0
 92
      512
 93
        0
300

 40
0.0
140
1.0
 94
        2
 62
     0
340
55
144
0.18
309
CONTENTFORMAT_END
171
     0
 94
        0
309
TABLEFORMAT_END
  1
CELLSTYLE_BEGIN
 90
        3
 91
        2
300
_DATA
309
CELLSTYLE_END
  0
ENDSEC
  0
SECTION
  2
ACDSDATA
 70
     2
 71
     8
  0
ACDSSCHEMA
 90
        0
  1
AcDb_Thumbnail_Schema
  2
AcDbDs::ID
280
    10
 91
        8
  2
Thumbnail_Data
280
    15
 91
        0
101
ACDSRECORD
 95
        0
 90
        1
  2
AcDbDs::TreatedAsObjectData
280
     1
291
     1
101
ACDSRECORD
 95
        0
 90
        2
  2
AcDbDs::Legacy
280
     1
291
     1
101
ACDSRECORD
  1
AcDbDs::ID
 90
        3
  2
AcDs:Indexable
280
     1
291
     1
101
ACDSRECORD
  1
AcDbDs::ID
 90
        4
  2
AcDbDs::HandleAttribute
280
     7
282
     1
  0
ACDSSCHEMA
 90
        1
  1
AcDbDs::TreatedAsObjectDataSchema
  2
AcDbDs::TreatedAsObjectData
280
     1
 91
        0
  0
ACDSSCHEMA
 90
        2
  1
AcDbDs::LegacySchema
  2
AcDbDs::Legacy
280
     1
 91
        0
  0
ACDSSCHEMA
 90
        3
  1
AcDbDs::IndexedPropertySchema
  2
AcDs:Indexable
280
     1
 91
        0
  0
ACDSSCHEMA
 90
        4
  1
AcDbDs::HandleAttributeSchema
  2
AcDbDs::HandleAttribute
280
     7
 91
        1
284
     1
  0
ACDSRECORD
 90
        0
  2
AcDbDs::ID
280
    10
320
72
  2
Thumbnail_Data
280
    15
 94
     1357
310
89504E470D0A1A0A0000000D49484452000001000000008108030000001837949D00000300504C5445D6D6D6FFFFFFD6D6D60000000000000000000000000000000000000000000000000000330000660000990000CC0000FF0033000033330033660033990033CC0033FF0066000066330066660066990066CC0066FF0099
310
000099330099660099990099CC0099FF00CC0000CC3300CC6600CC9900CCCC00CCFF00FF0000FF3300FF6600FF9900FFCC00FFFF3300003300333300663300993300CC3300FF3333003333333333663333993333CC3333FF3366003366333366663366993366CC3366FF3399003399333399663399993399CC3399FF33CC00
310
33CC3333CC6633CC9933CCCC33CCFF33FF0033FF3333FF6633FF9933FFCC33FFFF6600006600336600666600996600CC6600FF6633006633336633666633996633CC6633FF6666006666336666666666996666CC6666FF6699006699336699666699996699CC6699FF66CC0066CC3366CC6666CC9966CCCC66CCFF66FF0066
310
FF3366FF6666FF9966FFCC66FFFF9900009900339900669900999900CC9900FF9933009933339933669933999933CC9933FF9966009966339966669966999966CC9966FF9999009999339999669999999999CC9999FF99CC0099CC3399CC6699CC9999CCCC99CCFF99FF0099FF3399FF6699FF9999FFCC99FFFFCC0000CC00
310
33CC0066CC0099CC00CCCC00FFCC3300CC3333CC3366CC3399CC33CCCC33FFCC6600CC6633CC6666CC6699CC66CCCC66FFCC9900CC9933CC9966CC9999CC99CCCC99FFCCCC00CCCC33CCCC66CCCC99CCCCCCCCCCFFCCFF00CCFF33CCFF66CCFF99CCFFCCCCFFFFFF0000FF0033FF0066FF0099FF00CCFF00FFFF3300FF3333
310
FF3366FF3399FF33CCFF33FFFF6600FF6633FF6666FF6699FF66CCFF66FFFF9900FF9933FF9966FF9999FF99CCFF99FFFFCC00FFCC33FFCC66FFCC99FFCCCCFFCCFFFFFF00FFFF33FFFF66FFFF99FFFFCCFFFFFF0000000D0D0D1A1A1A2828283535354343435050505D5D5D6B6B6B787878868686939393A1A1A1AEAEAEBB
310
BBBBC9C9C9D6D6D6E4E4E4F1F1F1FFFFFF0000000000000000000000000000000000000000000000000000000000008A60A2FA000001834944415478DAED9A6D6E833010057DFF63BE935429B58D49301F5555F1DE8C441405E5C7CEB2EB35500A000000000000000000000000000000000000FC152A5274FC2F10B01CB1F1
310
370779C1971E7DA08416F5772B2C6955B0BAF6373FA4AE7E6902B4DF1822F25FB47B2623FDBB894E31A01BA7CC0680D949FF05702AC07C2D3888AF8F86A64BDF61825515C951807466DE59CEDA5D031AF8C5B0F4E4E91701AD100E47453B0135F1CBA173CA0C1B409B04B24A608CE55C13F08AFF6DF77FE74F8FDFFDE94ED5
310
188DBFBA55383657C17E289FB35CD3EF520797AFE67ED73454C0BA79F8CC8217973AC759F0EDA759834811F061BD93D50AB06D6BB30621BF21605809375D4D4325ACBE193F2CD5518DEBC27EF1C9DBC29A61AD5DB82DFE7301BDCEB5B95D18F074E427CBFD53616F0B0D6DFFEC8D325315B50DA4BE2E6638F0200001084000
310
021080802BBB432120580035800004D00511800004200001084000027205241B40000210102DA0BD13932B40712F0700000000000000000000C0BFF105F6C7F1F80721DBD10000000049454E44AE4260822F4D57B37FDAD724EA6453B37CF5D274C9CF2A4A954E828580F22AE09EB129E8CA443986BECB023C410002108000
310
6B03084000021080007B01CE06108000045005490104200001F602642EA0200001084000A7001980000420C05580AF0104980B504140716E854CFFAB2E0000FC277E003A95C5E7D1F1FEA50000000049454E44AE426082
  0
ENDSEC
  0
EOF
