  0
SECTION
  2
HEADER
  9
$ACADVER
  1
AC1027
  9
$ACADMAINTVER
 70
   125
  9
$DWGCODEPAGE
  3
ANSI_1252
  9
$LASTSAVEDBY
  1
Lebatard
  9
$REQUIREDVERSIONS
160
                 0
  9
$INSBASE
 10
0.0
 20
0.0
 30
0.0
  9
$EXTMIN
 10
-2501.982663931631
 20
55.54328199999907
 30
0.0
  9
$EXTMAX
 10
3130.771051156737
 20
4455.543282
 30
0.0
  9
$LIMMIN
 10
0.0
 20
0.0
  9
$LIMMAX
 10
12.0
 20
9.0
  9
$ORTHOMODE
 70
     0
  9
$REGENMODE
 70
     1
  9
$FILLMODE
 70
     1
  9
$QTEXTMODE
 70
     0
  9
$MIRRTEXT
 70
     0
  9
$LTSCALE
 40
1.0
  9
$ATTMODE
 70
     1
  9
$TEXTSIZE
 40
0.2
  9
$TRACEWID
 40
0.05
  9
$TEXTSTYLE
  7
Standard
  9
$CLAYER
  8
0
  9
$CELTYPE
  6
Continuous
  9
$CECOLOR
 62
   256
  9
$CELTSCALE
 40
1.0
  9
$DISPSILH
 70
     0
  9
$DIMSCALE
 40
1.0
  9
$DIMASZ
 40
0.18
  9
$DIMEXO
 40
0.0625
  9
$DIMDLI
 40
0.38
  9
$DIMRND
 40
0.0
  9
$DIMDLE
 40
0.0
  9
$DIMEXE
 40
0.18
  9
$DIMTP
 40
0.0
  9
$DIMTM
 40
0.0
  9
$DIMTXT
 40
0.18
  9
$DIMCEN
 40
0.09
  9
$DIMTSZ
 40
0.0
  9
$DIMTOL
 70
     0
  9
$DIMLIM
 70
     0
  9
$DIMTIH
 70
     1
  9
$DIMTOH
 70
     1
  9
$DIMSE1
 70
     0
  9
$DIMSE2
 70
     0
  9
$DIMTAD
 70
     0
  9
$DIMZIN
 70
     0
  9
$DIMBLK
  1

  9
$DIMASO
 70
     1
  9
$DIMSHO
 70
     1
  9
$DIMPOST
  1

  9
$DIMAPOST
  1

  9
$DIMALT
 70
     0
  9
$DIMALTD
 70
     2
  9
$DIMALTF
 40
25.4
  9
$DIMLFAC
 40
1.0
  9
$DIMTOFL
 70
     0
  9
$DIMTVP
 40
0.0
  9
$DIMTIX
 70
     0
  9
$DIMSOXD
 70
     0
  9
$DIMSAH
 70
     0
  9
$DIMBLK1
  1

  9
$DIMBLK2
  1

  9
$DIMSTYLE
  2
Standard
  9
$DIMCLRD
 70
     0
  9
$DIMCLRE
 70
     0
  9
$DIMCLRT
 70
     0
  9
$DIMTFAC
 40
1.0
  9
$DIMGAP
 40
0.09
  9
$DIMJUST
 70
     0
  9
$DIMSD1
 70
     0
  9
$DIMSD2
 70
     0
  9
$DIMTOLJ
 70
     1
  9
$DIMTZIN
 70
     0
  9
$DIMALTZ
 70
     0
  9
$DIMALTTZ
 70
     0
  9
$DIMUPT
 70
     0
  9
$DIMDEC
 70
     4
  9
$DIMTDEC
 70
     4
  9
$DIMALTU
 70
     2
  9
$DIMALTTD
 70
     2
  9
$DIMTXSTY
  7
Standard
  9
$DIMAUNIT
 70
     0
  9
$DIMADEC
 70
     0
  9
$DIMALTRND
 40
0.0
  9
$DIMAZIN
 70
     0
  9
$DIMDSEP
 70
    46
  9
$DIMATFIT
 70
     3
  9
$DIMFRAC
 70
     0
  9
$DIMLDRBLK
  1

  9
$DIMLUNIT
 70
     2
  9
$DIMLWD
 70
    -2
  9
$DIMLWE
 70
    -2
  9
$DIMTMOVE
 70
     0
  9
$DIMFXL
 40
1.0
  9
$DIMFXLON
 70
     0
  9
$DIMJOGANG
 40
0.7853981633974483
  9
$DIMTFILL
 70
     0
  9
$DIMTFILLCLR
 70
     0
  9
$DIMARCSYM
 70
     0
  9
$DIMLTYPE
  6

  9
$DIMLTEX1
  6

  9
$DIMLTEX2
  6

  9
$DIMTXTDIRECTION
 70
     0
  9
$LUNITS
 70
     2
  9
$LUPREC
 70
     4
  9
$SKETCHINC
 40
0.1
  9
$FILLETRAD
 40
0.0
  9
$AUNITS
 70
     0
  9
$AUPREC
 70
     0
  9
$MENU
  1
.
  9
$ELEVATION
 40
0.0
  9
$PELEVATION
 40
0.0
  9
$THICKNESS
 40
0.0
  9
$LIMCHECK
 70
     0
  9
$CHAMFERA
 40
0.0
  9
$CHAMFERB
 40
0.0
  9
$CHAMFERC
 40
0.0
  9
$CHAMFERD
 40
0.0
  9
$SKPOLY
 70
     0
  9
$TDCREATE
 40
2460984.336516204
  9
$TDUCREATE
 40
2460984.294849537
  9
$TDUPDATE
 40
2460984.363217593
  9
$TDUUPDATE
 40
2460984.321550926
  9
$TDINDWG
 40
0.0078472222
  9
$TDUSRTIMER
 40
0.0078472222
  9
$USRTIMER
 70
     1
  9
$ANGBASE
 50
0.0
  9
$ANGDIR
 70
     0
  9
$PDMODE
 70
     0
  9
$PDSIZE
 40
0.0
  9
$PLINEWID
 40
0.0
  9
$SPLFRAME
 70
     0
  9
$SPLINETYPE
 70
     6
  9
$SPLINESEGS
 70
     8
  9
$HANDSEED
  5
18C6
  9
$SURFTAB1
 70
     6
  9
$SURFTAB2
 70
     6
  9
$SURFTYPE
 70
     6
  9
$SURFU
 70
     6
  9
$SURFV
 70
     6
  9
$UCSBASE
  2

  9
$UCSNAME
  2

  9
$UCSORG
 10
0.0
 20
0.0
 30
0.0
  9
$UCSXDIR
 10
1.0
 20
0.0
 30
0.0
  9
$UCSYDIR
 10
0.0
 20
1.0
 30
0.0
  9
$UCSORTHOREF
  2

  9
$UCSORTHOVIEW
 70
     0
  9
$UCSORGTOP
 10
0.0
 20
0.0
 30
0.0
  9
$UCSORGBOTTOM
 10
0.0
 20
0.0
 30
0.0
  9
$UCSORGLEFT
 10
0.0
 20
0.0
 30
0.0
  9
$UCSORGRIGHT
 10
0.0
 20
0.0
 30
0.0
  9
$UCSORGFRONT
 10
0.0
 20
0.0
 30
0.0
  9
$UCSORGBACK
 10
0.0
 20
0.0
 30
0.0
  9
$PUCSBASE
  2

  9
$PUCSNAME
  2

  9
$PUCSORG
 10
0.0
 20
0.0
 30
0.0
  9
$PUCSXDIR
 10
1.0
 20
0.0
 30
0.0
  9
$PUCSYDIR
 10
0.0
 20
1.0
 30
0.0
  9
$PUCSORTHOREF
  2

  9
$PUCSORTHOVIEW
 70
     0
  9
$PUCSORGTOP
 10
0.0
 20
0.0
 30
0.0
  9
$PUCSORGBOTTOM
 10
0.0
 20
0.0
 30
0.0
  9
$PUCSORGLEFT
 10
0.0
 20
0.0
 30
0.0
  9
$PUCSORGRIGHT
 10
0.0
 20
0.0
 30
0.0
  9
$PUCSORGFRONT
 10
0.0
 20
0.0
 30
0.0
  9
$PUCSORGBACK
 10
0.0
 20
0.0
 30
0.0
  9
$USERI1
 70
     0
  9
$USERI2
 70
     0
  9
$USERI3
 70
     0
  9
$USERI4
 70
     0
  9
$USERI5
 70
     0
  9
$USERR1
 40
0.0
  9
$USERR2
 40
0.0
  9
$USERR3
 40
0.0
  9
$USERR4
 40
0.0
  9
$USERR5
 40
0.0
  9
$WORLDVIEW
 70
     1
  9
$SHADEDGE
 70
     3
  9
$SHADEDIF
 70
    70
  9
$TILEMODE
 70
     1
  9
$MAXACTVP
 70
    64
  9
$PINSBASE
 10
0.0
 20
0.0
 30
0.0
  9
$PLIMCHECK
 70
     0
  9
$PEXTMIN
 10
1.000000000000000E+20
 20
1.000000000000000E+20
 30
1.000000000000000E+20
  9
$PEXTMAX
 10
-1.000000000000000E+20
 20
-1.000000000000000E+20
 30
-1.000000000000000E+20
  9
$PLIMMIN
 10
0.0
 20
0.0
  9
$PLIMMAX
 10
12.0
 20
9.0
  9
$UNITMODE
 70
     0
  9
$VISRETAIN
 70
     1
  9
$PLINEGEN
 70
     0
  9
$PSLTSCALE
 70
     1
  9
$TREEDEPTH
 70
  3020
  9
$CMLSTYLE
  2
Standard
  9
$CMLJUST
 70
     0
  9
$CMLSCALE
 40
1.0
  9
$PROXYGRAPHICS
 70
     1
  9
$MEASUREMENT
 70
     0
  9
$CELWEIGHT
370
    -1
  9
$ENDCAPS
280
     0
  9
$JOINSTYLE
280
     0
  9
$LWDISPLAY
290
     0
  9
$INSUNITS
 70
     0
  9
$HYPERLINKBASE
  1

  9
$STYLESHEET
  1

  9
$XEDIT
290
     1
  9
$CEPSNTYPE
380
     0
  9
$PSTYLEMODE
290
     1
  9
$FINGERPRINTGUID
  2
{E5F54D96-288E-1441-A71C-10B0706C4851}
  9
$VERSIONGUID
  2
{5201AB8D-A6B0-FA4A-8515-EF8CD8E7A8B3}
  9
$EXTNAMES
290
     1
  9
$PSVPSCALE
 40
0.0
  9
$OLESTARTUP
290
     0
  9
$SORTENTS
280
   127
  9
$INDEXCTL
280
     0
  9
$HIDETEXT
280
     0
  9
$XCLIPFRAME
280
     2
  9
$HALOGAP
280
     0
  9
$OBSCOLOR
 70
   257
  9
$OBSLTYPE
280
     0
  9
$INTERSECTIONDISPLAY
280
     0
  9
$INTERSECTIONCOLOR
 70
   257
  9
$DIMASSOC
280
     1
  9
$PROJECTNAME
  1

  9
$CAMERADISPLAY
290
     0
  9
$LENSLENGTH
 40
50.0
  9
$CAMERAHEIGHT
 40
0.0
  9
$STEPSPERSEC
 40
2.0
  9
$STEPSIZE
 40
6.0
  9
$3DDWFPREC
 40
2.0
  9
$PSOLWIDTH
 40
0.25
  9
$PSOLHEIGHT
 40
4.0
  9
$LOFTANG1
 40
1.570796326794896
  9
$LOFTANG2
 40
1.570796326794896
  9
$LOFTMAG1
 40
0.0
  9
$LOFTMAG2
 40
0.0
  9
$LOFTPARAM
 70
     7
  9
$LOFTNORMALS
280
     1
  9
$LATITUDE
 40
37.795
  9
$LONGITUDE
 40
-122.394
  9
$NORTHDIRECTION
 40
0.0
  9
$TIMEZONE
 70
 -8000
  9
$LIGHTGLYPHDISPLAY
280
     1
  9
$TILEMODELIGHTSYNCH
280
     1
  9
$CMATERIAL
347
11
  9
$SOLIDHIST
280
     0
  9
$SHOWHIST
280
     1
  9
$DWFFRAME
280
     2
  9
$DGNFRAME
280
     0
  9
$REALWORLDSCALE
290
     1
  9
$INTERFERECOLOR
 62
     1
  9
$INTERFEREOBJVS
345
33
  9
$INTERFEREVPVS
346
30
  9
$CSHADOW
280
     0
  9
$SHADOWPLANELOCATION
 40
0.0
  0
ENDSEC
  0
SECTION
  2
CLASSES
  0
CLASS
  1
ACDBDICTIONARYWDFLT
  2
AcDbDictionaryWithDefault
  3
ObjectDBX Classes
 90
        0
 91
        1
280
     0
281
     0
  0
CLASS
  1
MATERIAL
  2
AcDbMaterial
  3
ObjectDBX Classes
 90
     1153
 91
        3
280
     0
281
     0
  0
CLASS
  1
VISUALSTYLE
  2
AcDbVisualStyle
  3
ObjectDBX Classes
 90
     4095
 91
       24
280
     0
281
     0
  0
CLASS
  1
SCALE
  2
AcDbScale
  3
ObjectDBX Classes
 90
     1153
 91
       17
280
     0
281
     0
  0
CLASS
  1
TABLESTYLE
  2
AcDbTableStyle
  3
ObjectDBX Classes
 90
     4095
 91
        1
280
     0
281
     0
  0
CLASS
  1
MLEADERSTYLE
  2
AcDbMLeaderStyle
  3
ACDB_MLEADERSTYLE_CLASS
 90
     4095
 91
        1
280
     0
281
     0
  0
CLASS
  1
ACDBSECTIONVIEWSTYLE
  2
AcDbSectionViewStyle
  3
ObjectDBX Classes
 90
     1025
 91
        1
280
     0
281
     0
  0
CLASS
  1
ACDBDETAILVIEWSTYLE
  2
AcDbDetailViewStyle
  3
ObjectDBX Classes
 90
     1025
 91
        1
280
     0
281
     0
  0
CLASS
  1
RAPIDRTRENDERSETTINGS
  2
AcDbRapidRTRenderSettings
  3
ObjectDBX Classes
 90
     1024
 91
        7
280
     0
281
     0
  0
CLASS
  1
SPIFILEHEADER
  2
CSPIFileHeader
  3
SPIKERNELAPP|Product Desc: CSPIFileHeader|Company: 2020 Technologies|WEB Address: www.2020spaces.com
 90
     3071
 91
        1
280
     0
281
     0
  0
CLASS
  1
SPIFILEHEADER
  2
CSPIFHVersion
  3
SPIKERNELAPP|Product Desc: CSPIFHVersion|Company: 2020 Technologies|WEB Address: www.2020spaces.com
 90
     3071
 91
        1
280
     0
281
     0
  0
CLASS
  1
DICTIONARYVAR
  2
AcDbDictionaryVar
  3
ObjectDBX Classes
 90
        0
 91
        9
280
     0
281
     0
  0
CLASS
  1
SORTENTSTABLE
  2
AcDbSortentsTable
  3
ObjectDBX Classes
 90
        0
 91
        1
280
     0
281
     0
  0
CLASS
  1
ACAD_EVALUATION_GRAPH
  2
AcDbEvalGraph
  3
ObjectDBX Classes
 90
     1153
 91
        0
280
     0
281
     0
  0
CLASS
  1
ACAECUSTOBJ
  2
AcAeEditorObj
  3
AcAeEditorObj
 90
     1024
 91
        0
280
     0
281
     0
  0
CLASS
  1
ACDB_DYNAMICBLOCKPURGEPREVENTER_VERSION
  2
AcDbDynamicBlockPurgePreventer
  3
ObjectDBX Classes
 90
     1153
 91
        0
280
     0
281
     0
  0
CLASS
  1
CELLSTYLEMAP
  2
AcDbCellStyleMap
  3
ObjectDBX Classes
 90
     1152
 91
        1
280
     0
281
     0
  0
CLASS
  1
MENTALRAYRENDERSETTINGS
  2
AcDbMentalRayRenderSettings
  3
SCENEOE
 90
     1024
 91
        1
280
     0
281
     0
  0
ENDSEC
  0
SECTION
  2
TABLES
  0
TABLE
  2
VPORT
  5
8
330
0
100
AcDbSymbolTable
 70
     1
1001
ACAD
1000
DbSaveVer
1071
      123
  0
VPORT
  5
17F6
330
8
100
AcDbSymbolTableRecord
100
AcDbViewportTableRecord
  2
*Active
 70
     0
 10
0.0
 20
0.0
 11
1.0
 21
1.0
 12
-470.7822268766467
 22
2271.246527096845
 13
0.0
 23
0.0
 14
1.0
 24
1.0
 15
0.0
 25
0.0
 16
0.0
 26
0.0
 36
1.0
 17
0.0
 27
0.0
 37
0.0
 40
10393.3325651846
 41
1.135693215339232
 42
50.0
 43
0.0
 44
0.0
 50
0.0
 51
0.0
 71
     0
 72
  1000
 73
     1
 74
     3
 75
     0
 76
     0
 77
     0
 78
     0
281
     0
 65
     1
110
0.0
120
0.0
130
0.0
111
1.0
121
0.0
131
0.0
112
0.0
122
1.0
132
0.0
 79
     0
146
0.0
348
2F
 60
     3
 61
     5
292
     1
282
     1
141
0.0
142
0.0
 63
   250
421
  3355443
1001
ACAD_NAV_VCDISPLAY
1070
     0
  0
ENDTAB
  0
TABLE
  2
LTYPE
  5
5
330
0
100
AcDbSymbolTable
 70
     1
  0
LTYPE
  5
5A
330
5
100
AcDbSymbolTableRecord
100
AcDbLinetypeTableRecord
  2
ByBlock
 70
     0
  3

 72
    65
 73
     0
 40
0.0
  0
LTYPE
  5
5B
330
5
100
AcDbSymbolTableRecord
100
AcDbLinetypeTableRecord
  2
ByLayer
 70
     0
  3

 72
    65
 73
     0
 40
0.0
  0
LTYPE
  5
5C
330
5
100
AcDbSymbolTableRecord
100
AcDbLinetypeTableRecord
  2
Continuous
 70
     0
  3
Solid line
 72
    65
 73
     0
 40
0.0
  0
ENDTAB
  0
TABLE
  2
LAYER
  5
2
102
{ACAD_XDICTIONARY
360
1822
102
}
330
0
100
AcDbSymbolTable
 70
     1
  0
LAYER
  5
54
102
{ACAD_XDICTIONARY
360
1803
102
}
330
2
100
AcDbSymbolTableRecord
100
AcDbLayerTableRecord
  2
0
 70
     0
 62
     7
  6
Continuous
370
    -3
390
F
347
21
348
0
  0
ENDTAB
  0
TABLE
  2
STYLE
  5
3
330
0
100
AcDbSymbolTable
 70
     1
  0
STYLE
  5
55
330
3
100
AcDbSymbolTableRecord
100
AcDbTextStyleTableRecord
  2
Standard
 70
     0
 40
0.0
 41
1.0
 50
0.0
 71
     0
 42
0.2
  3
txt
  4

  0
ENDTAB
  0
TABLE
  2
VIEW
  5
6
330
0
100
AcDbSymbolTable
 70
     0
  0
ENDTAB
  0
TABLE
  2
UCS
  5
7
330
0
100
AcDbSymbolTable
 70
     0
  0
ENDTAB
  0
TABLE
  2
APPID
  5
9
330
0
100
AcDbSymbolTable
 70
     6
  0
APPID
  5
56
330
9
100
AcDbSymbolTableRecord
100
AcDbRegAppTableRecord
  2
ACAD
 70
     0
  0
APPID
  5
5D
330
9
100
AcDbSymbolTableRecord
100
AcDbRegAppTableRecord
  2
AcadAnnotative
 70
     0
  0
APPID
  5
17F5
330
9
100
AcDbSymbolTableRecord
100
AcDbRegAppTableRecord
  2
ACAD_NAV_VCDISPLAY
 70
     0
  0
APPID
  5
18A1
330
9
100
AcDbSymbolTableRecord
100
AcDbRegAppTableRecord
  2
ACAUTHENVIRON
 70
     0
  0
APPID
  5
18A5
330
9
100
AcDbSymbolTableRecord
100
AcDbRegAppTableRecord
  2
AcDbDynamicBlockTrueName
 70
     0
  0
APPID
  5
18A6
330
9
100
AcDbSymbolTableRecord
100
AcDbRegAppTableRecord
  2
AcDbDynamicBlockGUID
 70
     0
  0
ENDTAB
  0
TABLE
  2
DIMSTYLE
  5
A
330
0
100
AcDbSymbolTable
 70
     1
100
AcDbDimStyleTable
 71
     0
  0
DIMSTYLE
105
57
330
A
100
AcDbSymbolTableRecord
100
AcDbDimStyleTableRecord
  2
Standard
 70
     0
340
55
  0
ENDTAB
  0
TABLE
  2
BLOCK_RECORD
  5
1
330
0
100
AcDbSymbolTable
 70
     1
  0
BLOCK_RECORD
  5
6F
102
{ACAD_XDICTIONARY
360
181D
102
}
330
1
100
AcDbSymbolTableRecord
100
AcDbBlockTableRecord
  2
*Model_Space
340
72
 70
     0
280
     1
281
     0
  0
BLOCK_RECORD
  5
6B
330
1
100
AcDbSymbolTableRecord
100
AcDbBlockTableRecord
  2
*Paper_Space
340
6E
 70
     0
280
     1
281
     0
  0
BLOCK_RECORD
  5
1836
102
{ACAD_XDICTIONARY
360
18A2
102
}
330
1
100
AcDbSymbolTableRecord
100
AcDbBlockTableRecord
  2
Cerisier
340
0
310
2800000020000000200000000100200000000000001000000100000001000000000000000000000080D8427CD6D6D6FFD6D6D6FFD6D6D6FFD6D6D6FFD6D6D6FFD6D6D6FFD6D6D6FFD6D6D6FFD6D6D6FFD6D6D6FFD6D6D6FFD6D6D6FFD6D6D6FFD6D6D6FFD6D6D6FFD6D6D6FFD6D6D6FFD6D6D6FFD6D6D6FFD6D6D6FFD6D6D6
310
FFD6D6D6FFD6D6D6FFD6D6D6FFD6D6D6FFD6D6D6FFD6D6D6FFD6D6D6FFD6D6D6FFD6D6D6FFD6D6D6FFD6D6D6FFD6D6D6FFD6D6D6FFD6D6D6FFD6D6D6FFD6D6D6FFD6D6D6FFD6D6D6FFD6D6D6FFD6D6D6FFD6D6D6FFD6D6D6FFD6D6D6FFD6D6D6FFD6D6D6FFD6D6D6FFD6D6D6FFD6D6D6FFD6D6D6FFD6D6D6FFD6D6D6FFD6D6
310
D6FFD6D6D6FFD6D6D6FFD6D6D6FFD6D6D6FFD6D6D6FFD6D6D6FFD6D6D6FFD6D6D6FFD6D6D6FFD6D6D6FFD6D6D6FFD6D6D6FFD6D6D6FFD6D6D6FFD6D6D6FFD6D6D6FFD6D6D6FFD6D6D6FFD6D6D6FFD6D6D6FFD6D6D6FFD6D6D6FFD6D6D6FFD6D6D6FFD6D6D6FFD6D6D6FFD6D6D6FFD6D6D6FFD6D6D6FFD6D6D6FFD6D6D6FFD6
310
D6D6FFD6D6D6FFD6D6D6FFD6D6D6FFD6D6D6FFD6D6D6FFD6D6D6FFD6D6D6FFD6D6D6FFD6D6D6FFD6D6D6FFD6D6D6FFD6D6D6FFD6D6D6FFD6D6D6FFD6D6D6FFD6D6D6FFD6D6D6FFD6D6D6FFD6D6D6FFD6D6D6FFD6D6D6FFD6D6D6FFD6D6D6FFD6D6D6FFD6D6D6FFD6D6D6FFD6D6D6FFD6D6D6FFD6D6D6FFD6D6D6FFD6D6D6FF
310
D6D6D6FFD6D6D6FFD6D6D6FFD6D6D6FFD6D6D6FFD6D6D6FFD6D6D6FFD6D6D6FFD6D6D6FFD6D6D6FFD6D6D6FFD6D6D6FFD6D6D6FFD6D6D6FFD6D6D6FFD6D6D6FFD6D6D6FFD6D6D6FFD6D6D6FFD6D6D6FFD6D6D6FFD6D6D6FFD6D6D6FFD6D6D6FFD6D6D6FFD6D6D6FF000000FF000000FF000000FF000000FFD6D6D6FFD6D6D6
310
FFD6D6D6FFD6D6D6FFD6D6D6FFD6D6D6FFD6D6D6FFD6D6D6FFD6D6D6FFD6D6D6FFD6D6D6FFD6D6D6FFD6D6D6FFD6D6D6FFD6D6D6FFD6D6D6FFD6D6D6FFD6D6D6FFD6D6D6FFD6D6D6FFD6D6D6FFD6D6D6FFD6D6D6FFD6D6D6FFD6D6D6FFD6D6D6FFD6D6D6FFD6D6D6FF000000FF000000FFD6D6D6FF000000FFD6D6D6FFD6D6
310
D6FFD6D6D6FFD6D6D6FFD6D6D6FFD6D6D6FFD6D6D6FFD6D6D6FFD6D6D6FFD6D6D6FFD6D6D6FFD6D6D6FFD6D6D6FFD6D6D6FFD6D6D6FFD6D6D6FFD6D6D6FFD6D6D6FFD6D6D6FFD6D6D6FFD6D6D6FFD6D6D6FFD6D6D6FFD6D6D6FFD6D6D6FFD6D6D6FFD6D6D6FFD6D6D6FFD6D6D6FF000000FFD6D6D6FF000000FFD6D6D6FFD6
310
D6D6FFD6D6D6FFD6D6D6FFD6D6D6FFD6D6D6FFD6D6D6FFD6D6D6FFD6D6D6FFD6D6D6FFD6D6D6FFD6D6D6FFD6D6D6FFD6D6D6FFD6D6D6FFD6D6D6FFD6D6D6FFD6D6D6FFD6D6D6FFD6D6D6FFD6D6D6FFD6D6D6FFD6D6D6FFD6D6D6FFD6D6D6FFD6D6D6FFD6D6D6FFD6D6D6FFD6D6D6FF000000FFD6D6D6FF000000FFD6D6D6FF
310
D6D6D6FFD6D6D6FFD6D6D6FFD6D6D6FFD6D6D6FFD6D6D6FFD6D6D6FFD6D6D6FFD6D6D6FFD6D6D6FFD6D6D6FFD6D6D6FFD6D6D6FFD6D6D6FFD6D6D6FFD6D6D6FFD6D6D6FFD6D6D6FFD6D6D6FFD6D6D6FFD6D6D6FFD6D6D6FFD6D6D6FFD6D6D6FFD6D6D6FFD6D6D6FFD6D6D6FFD6D6D6FF000000FF000000FF000000FFD6D6D6
310
FFD6D6D6FFD6D6D6FFD6D6D6FFD6D6D6FFD6D6D6FFD6D6D6FFD6D6D6FFD6D6D6FFD6D6D6FFD6D6D6FFD6D6D6FFD6D6D6FFD6D6D6FFD6D6D6FFD6D6D6FFD6D6D6FFD6D6D6FFD6D6D6FFD6D6D6FFD6D6D6FFD6D6D6FFD6D6D6FFD6D6D6FFD6D6D6FFD6D6D6FFD6D6D6FFD6D6D6FFD6D6D6FF000000FF000000FFD6D6D6FFD6D6
310
D6FFD6D6D6FFD6D6D6FFD6D6D6FFD6D6D6FFD6D6D6FFD6D6D6FFD6D6D6FFD6D6D6FFD6D6D6FFD6D6D6FFD6D6D6FFD6D6D6FFD6D6D6FFD6D6D6FFD6D6D6FFD6D6D6FFD6D6D6FFD6D6D6FFD6D6D6FFD6D6D6FFD6D6D6FFD6D6D6FFD6D6D6FFD6D6D6FFD6D6D6FFD6D6D6FFD6D6D6FFD6D6D6FF000000FF000000FFD6D6D6FFD6
310
D6D6FFD6D6D6FFD6D6D6FFD6D6D6FFD6D6D6FFD6D6D6FFD6D6D6FFD6D6D6FFD6D6D6FFD6D6D6FFD6D6D6FFD6D6D6FFD6D6D6FFD6D6D6FFD6D6D6FFD6D6D6FFD6D6D6FFD6D6D6FFD6D6D6FFD6D6D6FFD6D6D6FFD6D6D6FFD6D6D6FFD6D6D6FFD6D6D6FFD6D6D6FFD6D6D6FFD6D6D6FFD6D6D6FF000000FF000000FFD6D6D6FF
310
D6D6D6FFD6D6D6FFD6D6D6FFD6D6D6FFD6D6D6FFD6D6D6FFD6D6D6FFD6D6D6FFD6D6D6FFD6D6D6FFD6D6D6FFD6D6D6FFD6D6D6FFD6D6D6FFD6D6D6FFD6D6D6FFD6D6D6FFD6D6D6FFD6D6D6FFD6D6D6FFD6D6D6FFD6D6D6FFD6D6D6FFD6D6D6FFD6D6D6FFD6D6D6FFD6D6D6FFD6D6D6FF000000FF000000FF000000FF000000
310
FFD6D6D6FFD6D6D6FFD6D6D6FFD6D6D6FFD6D6D6FFD6D6D6FFD6D6D6FFD6D6D6FFD6D6D6FFD6D6D6FFD6D6D6FFD6D6D6FFD6D6D6FFD6D6D6FFD6D6D6FFD6D6D6FFD6D6D6FFD6D6D6FFD6D6D6FFD6D6D6FFD6D6D6FFD6D6D6FFD6D6D6FFD6D6D6FFD6D6D6FFD6D6D6FFD6D6D6FFD6D6D6FF000000FF000000FF000000FF0000
310
00FFD6D6D6FFD6D6D6FFD6D6D6FFD6D6D6FFD6D6D6FFD6D6D6FFD6D6D6FFD6D6D6FFD6D6D6FFD6D6D6FFD6D6D6FFD6D6D6FFD6D6D6FFD6D6D6FFD6D6D6FFD6D6D6FFD6D6D6FFD6D6D6FFD6D6D6FFD6D6D6FFD6D6D6FFD6D6D6FFD6D6D6FFD6D6D6FFD6D6D6FFD6D6D6FFD6D6D6FFD6D6D6FF000000FF000000FF000000FF00
310
0000FFD6D6D6FFD6D6D6FFD6D6D6FFD6D6D6FFD6D6D6FFD6D6D6FFD6D6D6FFD6D6D6FFD6D6D6FFD6D6D6FFD6D6D6FFD6D6D6FFD6D6D6FFD6D6D6FFD6D6D6FFD6D6D6FFD6D6D6FFD6D6D6FFD6D6D6FFD6D6D6FFD6D6D6FF000000FF000000FFD6D6D6FF000000FFD6D6D6FFD6D6D6FFD6D6D6FF000000FF000000FF000000FF
310
000000FF000000FF000000FFD6D6D6FFD6D6D6FFD6D6D6FFD6D6D6FFD6D6D6FFD6D6D6FFD6D6D6FFD6D6D6FFD6D6D6FFD6D6D6FFD6D6D6FFD6D6D6FFD6D6D6FFD6D6D6FFD6D6D6FFD6D6D6FFD6D6D6FF000000FF000000FF000000FF000000FF000000FF000000FF000000FF000000FF000000FF000000FF000000FF000000
310
FF000000FF000000FF000000FF000000FFD6D6D6FFD6D6D6FF000000FFD6D6D6FFD6D6D6FFD6D6D6FFD6D6D6FFD6D6D6FFD6D6D6FFD6D6D6FFD6D6D6FFD6D6D6FFD6D6D6FFD6D6D6FFD6D6D6FF000000FF000000FF000000FFD6D6D6FFD6D6D6FF000000FF000000FF000000FF000000FF000000FF000000FF000000FF0000
310
00FF000000FFD6D6D6FF000000FF000000FFD6D6D6FF000000FF000000FF000000FF000000FF000000FFD6D6D6FFD6D6D6FFD6D6D6FFD6D6D6FFD6D6D6FFD6D6D6FFD6D6D6FF000000FF000000FF000000FF000000FF000000FF000000FFD6D6D6FFD6D6D6FF000000FF000000FF000000FF000000FF000000FF000000FFD6
310
D6D6FFD6D6D6FF000000FF000000FF000000FF000000FF000000FF000000FF000000FF000000FF000000FF000000FF000000FFD6D6D6FFD6D6D6FFD6D6D6FFD6D6D6FFD6D6D6FFD6D6D6FF000000FF000000FF000000FFD6D6D6FFD6D6D6FF000000FF000000FF000000FF000000FF000000FF000000FFD6D6D6FFD6D6D6FF
310
D6D6D6FFD6D6D6FF000000FF000000FF000000FFD6D6D6FF000000FF000000FFD6D6D6FFD6D6D6FFD6D6D6FF000000FF000000FF000000FF000000FFD6D6D6FFD6D6D6FFD6D6D6FFD6D6D6FF000000FF000000FF000000FFD6D6D6FF000000FF000000FF000000FF000000FF000000FFD6D6D6FFD6D6D6FFD6D6D6FFD6D6D6
310
FFD6D6D6FFD6D6D6FFD6D6D6FFD6D6D6FFD6D6D6FF000000FF000000FFD6D6D6FF000000FFD6D6D6FFD6D6D6FF000000FF000000FF000000FFD6D6D6FFD6D6D6FFD6D6D6FF000000FF000000FF000000FF000000FF000000FFD6D6D6FF000000FF000000FFD6D6D6FFD6D6D6FFD6D6D6FFD6D6D6FFD6D6D6FFD6D6D6FFD6D6
310
D6FFD6D6D6FFD6D6D6FFD6D6D6FFD6D6D6FFD6D6D6FFD6D6D6FFD6D6D6FFD6D6D6FF000000FFD6D6D6FFD6D6D6FF000000FF000000FF000000FFD6D6D6FFD6D6D6FFD6D6D6FF000000FF000000FF000000FF000000FF000000FFD6D6D6FFD6D6D6FFD6D6D6FFD6D6D6FFD6D6D6FFD6D6D6FFD6D6D6FFD6D6D6FFD6D6D6FFD6
310
D6D6FFD6D6D6FFD6D6D6FFD6D6D6FFD6D6D6FFD6D6D6FFD6D6D6FFD6D6D6FFD6D6D6FFD6D6D6FFD6D6D6FFD6D6D6FF000000FF000000FF000000FFD6D6D6FFD6D6D6FFD6D6D6FFD6D6D6FFD6D6D6FF000000FFD6D6D6FF000000FF000000FF000000FFD6D6D6FF000000FF000000FF000000FF000000FFD6D6D6FFD6D6D6FF
310
000000FF000000FF000000FF000000FF000000FFD6D6D6FF000000FFD6D6D6FFD6D6D6FFD6D6D6FF000000FF000000FF000000FF000000FF000000FFD6D6D6FFD6D6D6FFD6D6D6FFD6D6D6FFD6D6D6FFD6D6D6FFD6D6D6FF000000FF000000FF000000FF000000FFD6D6D6FF000000FF000000FF000000FF000000FF000000
310
FF000000FF000000FF000000FF000000FF000000FF000000FF000000FF000000FF000000FF000000FF000000FF000000FF000000FFD6D6D6FFD6D6D6FFD6D6D6FFD6D6D6FFD6D6D6FFD6D6D6FFD6D6D6FFD6D6D6FFD6D6D6FF000000FF000000FF000000FF000000FF000000FF000000FF000000FF000000FF000000FF0000
310
00FF000000FF000000FFD6D6D6FF000000FF000000FF000000FF000000FF000000FFD6D6D6FF000000FF000000FF000000FFD6D6D6FFD6D6D6FFD6D6D6FFD6D6D6FFD6D6D6FFD6D6D6FFD6D6D6FFD6D6D6FFD6D6D6FFD6D6D6FFD6D6D6FFD6D6D6FF000000FF000000FF000000FF000000FF000000FF000000FFD6D6D6FF00
310
0000FF000000FF000000FFD6D6D6FFD6D6D6FF000000FF000000FFD6D6D6FF000000FF000000FF000000FFD6D6D6FFD6D6D6FFD6D6D6FFD6D6D6FFD6D6D6FFD6D6D6FFD6D6D6FFD6D6D6FFD6D6D6FFD6D6D6FFD6D6D6FFD6D6D6FFD6D6D6FFD6D6D6FFD6D6D6FFD6D6D6FFD6D6D6FFD6D6D6FFD6D6D6FFD6D6D6FFD6D6D6FF
310
D6D6D6FF000000FFD6D6D6FFD6D6D6FFD6D6D6FFD6D6D6FFD6D6D6FFD6D6D6FFD6D6D6FFD6D6D6FFD6D6D6FFD6D6D6FFD6D6D6FFD6D6D6FFD6D6D6FFD6D6D6FFD6D6D6FFD6D6D6FFD6D6D6FFD6D6D6FFD6D6D6FFD6D6D6FFD6D6D6FFD6D6D6FFD6D6D6FFD6D6D6FFD6D6D6FFD6D6D6FFD6D6D6FFD6D6D6FFD6D6D6FFD6D6D6
310
FFD6D6D6FFD6D6D6FFD6D6D6FFD6D6D6FFD6D6D6FFD6D6D6FFD6D6D6FFD6D6D6FFD6D6D6FFD6D6D6FFD6D6D6FFD6D6D6FFD6D6D6FFD6D6D6FFD6D6D6FFD6D6D6FFD6D6D6FFD6D6D6FFD6D6D6FFD6D6D6FFD6D6D6FFD6D6D6FFD6D6D6FFD6D6D6FFD6D6D6FFD6D6D6FFD6D6D6FFD6D6D6FFD6D6D6FFD6D6D6FFD6D6D6FFD6D6
310
D6FFD6D6D6FFD6D6D6FFD6D6D6FFD6D6D6FFD6D6D6FFD6D6D6FFD6D6D6FFD6D6D6FFD6D6D6FFD6D6D6FFD6D6D6FFD6D6D6FFD6D6D6FFD6D6D6FFD6D6D6FFD6D6D6FFD6D6D6FFD6D6D6FFD6D6D6FFD6D6D6FFD6D6D6FFD6D6D6FFD6D6D6FFD6D6D6FFD6D6D6FFD6D6D6FFD6D6D6FFD6D6D6FFD6D6D6FFD6D6D6FFD6D6D6FFD6
310
D6D6FFD6D6D6FFD6D6D6FFD6D6D6FFD6D6D6FFD6D6D6FFD6D6D6FFD6D6D6FFD6D6D6FFD6D6D6FFD6D6D6FFD6D6D6FFD6D6D6FFD6D6D6FFD6D6D6FFD6D6D6FFD6D6D6FFD6D6D6FFD6D6D6FFD6D6D6FFD6D6D6FFD6D6D6FFD6D6D6FFD6D6D6FFD6D6D6FFD6D6D6FFD6D6D6FFD6D6D6FFD6D6D6FFD6D6D6FFD6D6D6FFD6D6D6FF
310
D6D6D6FFD6D6D6FFD6D6D6FFD6D6D6FFD6D6D6FFD6D6D6FFD6D6D6FFD6D6D6FFD6D6D6FFD6D6D6FFD6D6D6FFD6D6D6FFD6D6D6FFD6D6D6FFD6D6D6FFD6D6D6FFD6D6D6FFD6D6D6FF
102
{BLKREFS
331
186B
102
}
 70
     0
280
     1
281
     0
1001
AcDbDynamicBlockGUID
1000
{2ED455E1-4FB3-6A48-BB66-507D285FF5BF}
  0
ENDTAB
  0
ENDSEC
  0
SECTION
  2
BLOCKS
  0
BLOCK
  5
70
330
6F
100
AcDbEntity
  8
0
100
AcDbBlockBegin
  2
*Model_Space
 70
     0
 10
0.0
 20
0.0
 30
0.0
  3
*Model_Space
  1

  0
ENDBLK
  5
71
330
6F
100
AcDbEntity
  8
0
100
AcDbBlockEnd
  0
BLOCK
  5
6C
330
6B
100
AcDbEntity
 67
     1
  8
0
100
AcDbBlockBegin
  2
*Paper_Space
 70
     0
 10
0.0
 20
0.0
 30
0.0
  3
*Paper_Space
  1

  0
ENDBLK
  5
6D
330
6B
100
AcDbEntity
 67
     1
  8
0
100
AcDbBlockEnd
  0
BLOCK
  5
1837
330
1836
100
AcDbEntity
  8
0
100
AcDbBlockBegin
  2
Cerisier
 70
     0
 10
0.0
 20
0.0
 30
0.0
  3
Cerisier
  1

  0
LWPOLYLINE
  5
186F
330
1836
100
AcDbEntity
  8
0
  6
ByBlock
 62
     0
370
    -2
100
AcDbPolyline
 90
      111
 70
     0
 43
0.0
 10
-101.2243050893937
 20
2627.280202601995
 10
-90.93440049168725
 20
2621.264021909158
 10
-83.79548736221636
 20
2618.761721366393
 10
-79.6972531824083
 20
2617.00947061171
 10
-76.71833224375518
 20
2612.798779672099
 10
-66.61882081355429
 20
2593.206277659585
 10
-60.89696137681653
 20
2579.882522844428
 10
-60.27085259550336
 20
2567.269207307009
 10
-59.96162789695858
 20
2555.803756258875
 10
-55.96731214700071
 20
2545.996856487034
 10
-52.40062764187746
 20
2538.160282598525
 10
-52.06925544266892
 20
2531.900469739638
 10
-52.49092724227399
 20
2528.270742610513
 10
-50.74037642658755
 20
2526.76212402188
 10
-48.4084368156648
 20
2525.260739832724
 10
-47.43861195993599
 20
2521.651035280519
 10
-49.42640085295057
 20
2518.031102118108
 10
-54.25339694841818
 20
2516.539946539157
 10
-59.06633957093958
 20
2515.539020526805
 10
-61.06818193690083
 20
2513.132554044916
 10
-62.96312132102525
 20
2510.726087563027
 10
-67.51837830455065
 20
2509.725161550675
 10
-71.97747282989325
 20
2508.712133131723
 10
-74.94979684619443
 20
2505.932143690531
 10
-76.47552107096976
 20
2501.773841779965
 10
-76.59481622173484
 20
2496.625866294147
 10
-72.77481183003487
 20
2484.915459831994
 10
-63.81113009372916
 20
2473.910054774541
 10
-56.03014227862809
 20
2468.578659734598
 10
-48.82030498981226
 20
2465.860949876607
 10
-42.88314248403662
 20
2465.899382020149
 10
-38.9201307243327
 20
2468.836451619781
 10
-35.55788320091802
 20
2471.242918101669
 10
-30.43231600186141
 20
2472.243844114022
 10
-23.78576702147643
 20
2475.24873741608
 10
-16.76866997503043
 20
2482.472840670217
 10
-9.504115899793532
 20
2490.831170266695
 10
-2.270218678944047
 20
2496.562408344142
 10
0.9496396361021197
 20
2497.771258144892
 10
4.142492102103233
 20
2497.625507693509
 10
11.57486685943308
 20
2491.995647796163
 10
22.28217409176727
 20
2477.123654223285
 10
38.5196822978312
 20
2450.460381522287
 10
57.80594416378812
 20
2422.246745139823
 10
80.29431157277963
 20
2399.305199107341
 10
112.2156114920706
 20
2369.171655486754
 10
138.2744979276697
 20
2339.764845445526
 10
157.7043080513115
 20
2312.047890670847
 10
169.7383597172386
 20
2286.983912849905
 10
178.8020287744668
 20
2264.835861637337
 10
183.3118220486046
 20
2251.51178808362
 10
185.5401426507508
 20
2235.625143422748
 10
185.3100423854555
 20
2219.9774367782
 10
182.4445344222915
 20
2207.370186932198
 10
177.4492926599816
 20
2189.297382088019
 10
174.0972737467725
 20
2178.639054347995
 10
166.0379305798876
 20
2161.602091876789
 10
150.3332663202434
 20
2126.393505948543
 10
104.6741991704159
 20
2003.727376155861
 10
80.21935005832052
 20
1932.28117134112
 10
70.04956160464349
 20
1902.606186264594
 10
57.95544220795704
 20
1874.1680903235
 10
43.70488258415457
 20
1837.151880059539
 10
27.80343106828127
 20
1780.355759167543
 10
-8.00485663438144
 20
1651.062253001898
 10
-22.62384905924569
 20
1599.862775585624
 10
-30.92298021195188
 20
1565.284557944923
 10
-36.01022151365419
 20
1545.279753114768
 10
-39.61886360398671
 20
1538.15713428692
 10
-44.29699913240916
 20
1532.0624762967
 10
-51.86439347621149
 20
1524.691434565632
 10
-56.61812799621634
 20
1521.690375785059
 10
-78.08469684643819
 20
1531.060700314849
 10
-88.12869947318654
 20
1537.014021899828
 10
-97.01036881169944
 20
1544.612275931647
 10
-104.9850627435992
 20
1554.355823999669
 10
-112.3081198330194
 20
1566.745047010743
 10
-119.2349172790684
 20
1582.28030655423
 10
-126.0208033046263
 20
1601.461954560748
 10
-140.1912436445175
 20
1652.765949249018
 10
-156.8874649345505
 20
1720.31068782269
 10
-166.5393322017423
 20
1753.945062629811
 10
-175.7746468038033
 20
1778.23636022479
 10
-192.4367920439701
 20
1818.024485219715
 10
-210.9252995837803
 20
1869.135372633333
 10
-220.6501579815947
 20
1899.59522727112
 10
-228.0606556831005
 20
1931.976206148809
 10
-232.8945191457604
 20
1964.881075316958
 10
-234.889494144529
 20
1996.912591167378
 10
-237.1537066404687
 20
2034.489742664907
 10
-241.850802283938
 20
2076.986314782045
 10
-247.1398727063895
 20
2125.595268685181
 10
-251.4984003861525
 20
2186.225186655727
 10
-254.4916355838489
 20
2251.439115691558
 10
-255.6848092426114
 20
2313.800093131808
 10
-255.1775319923365
 20
2351.020267099007
 10
-252.0584916502219
 20
2376.119170939312
 10
-244.2845257422225
 20
2397.890125457188
 10
-229.812481453034
 20
2425.126422480865
 10
-215.2727100488617
 20
2453.60540388655
 10
-201.9161541380865
 20
2483.658606072107
 10
-191.2424979708696
 20
2508.067894887371
 10
-183.1550575168355
 20
2522.973104881874
 10
-177.2244919334118
 20
2533.835444618858
 10
-171.7436954367424
 20
2548.528548588683
 10
-161.1273832343934
 20
2572.727209167147
 10
-144.364024012779
 20
2601.552688365605
 10
-127.3917461521039
 20
2625.683621829086
 10
-120.6829272472616
 20
2633.075729281457
 10
-116.1486780325742
 20
2635.798683837599
 10
-101.2243050893937
 20
2627.280202601995
  0
LWPOLYLINE
  5
1870
330
1836
100
AcDbEntity
  8
0
  6
ByBlock
 62
     0
370
    -2
100
AcDbPolyline
 90
       91
 70
     0
 43
0.0
 10
-485.8609922679477
 20
2707.353926216664
 10
-477.5899680611352
 20
2705.17830372338
 10
-466.9499629590352
 20
2699.946258527236
 10
-453.3433904522328
 20
2691.125371666559
 10
-452.922897019431
 20
2689.289630726208
 10
-455.248973772568
 20
2687.574015588629
 10
-457.0507449092413
 20
2684.97680822444
 10
-457.9510944172691
 20
2680.485144413341
 10
-457.4642067761967
 20
2668.65957674298
 10
-454.6217445769164
 20
2657.779561503941
 10
-452.5776258871844
 20
2654.469838231992
 10
-450.257141546994
 20
2653.527347622613
 10
-446.1989428622817
 20
2657.507184914875
 10
-443.9705063552039
 20
2666.465216285769
 10
-441.2417662112309
 20
2689.249064000176
 10
-438.0667727634261
 20
2699.476882189567
 10
-436.0255227207496
 20
2700.215109674635
 10
-433.5290270833049
 20
2698.213701952167
 10
-426.7120592186122
 20
2686.524535068715
 10
-419.0454309359417
 20
2667.231879114036
 10
-407.3410322127386
 20
2639.972739160107
 10
-395.7502589574008
 20
2612.572030991073
 10
-383.9441729742796
 20
2578.439062144797
 10
-374.9312992532884
 20
2547.041169578751
 10
-371.7201531255958
 20
2527.845670932917
 10
-371.29465646325
 20
2500.789702665193
 10
-370.1068047725928
 20
2491.178566322686
 10
-369.4288478519136
 20
2489.369589762771
 10
-368.7557203033814
 20
2490.326877568406
 10
-365.844429892268
 20
2494.716554698515
 10
-361.2407246473688
 20
2495.102334604326
 10
-356.0799030316418
 20
2491.820911453156
 10
-351.4972828255343
 20
2485.208969753574
 10
-347.0322095374743
 20
2467.188283493602
 10
-344.9227204663659
 20
2439.383376193389
 10
-345.2920998243678
 20
2406.120467033038
 10
-348.2636704586146
 20
2371.725765533907
 10
-352.0727025167973
 20
2329.836129590661
 10
-353.8449758483987
 20
2286.540953177877
 10
-354.8501517082402
 20
2251.253146228938
 10
-356.8162180853399
 20
2228.615280775778
 10
-359.4637668247845
 20
2214.985710798814
 10
-364.7077405701314
 20
2223.504192034416
 10
-386.5844776555052
 20
2260.615811374505
 10
-405.2080047817883
 20
2295.059434413481
 10
-419.3853221476172
 20
2322.183129796188
 10
-436.0619458454791
 20
2348.167054717328
 10
-464.3910138809908
 20
2393.873816746475
 10
-490.6211208766746
 20
2438.156290683413
 10
-499.6195644336919
 20
2454.902611880094
 10
-503.3277109077328
 20
2467.597437560602
 10
-501.9049585558666
 20
2477.845973756502
 10
-495.5107249526506
 20
2487.253407181868
 10
-489.7462704535803
 20
2495.002453529591
 10
-487.5212434832381
 20
2503.463223768043
 10
-488.7142529433488
 20
2514.974032279378
 10
-493.2039173943787
 20
2531.873212763243
 10
-499.7665608630893
 20
2548.433139512555
 10
-503.3459176407247
 20
2553.327331492071
 10
-507.3207517034432
 20
2556.304214435678
 10
-514.2658621286726
 20
2562.20453849072
 10
-519.7338801066428
 20
2570.785637365576
 10
-524.0463548936157
 20
2577.591739142938
 10
-529.7439419059453
 20
2580.93156872085
 10
-536.7231380397845
 20
2580.778612846223
 10
-544.8804305325463
 20
2577.106348607231
 10
-551.010603725532
 20
2574.934406095524
 10
-555.6294828577158
 20
2577.233699150736
 10
-558.9175608837037
 20
2584.216671853595
 10
-561.0553307581019
 20
2596.095748967339
 10
-561.8211919105931
 20
2605.021732624669
 10
-560.8572685476271
 20
2610.223652197364
 10
-557.1276120500458
 20
2613.591965412195
 10
-549.5962641399448
 20
2617.017139654679
 10
-536.2606387280528
 20
2624.161848030727
 10
-525.695537187946
 20
2633.38326369975
 10
-517.7121793624153
 20
2644.892536470743
 10
-512.1217657767626
 20
2658.900806493953
 10
-506.1490301157553
 20
2673.794512924002
 10
-502.6606587093608
 20
2677.846018098919
 10
-498.4206341633305
 20
2680.285604414989
 10
-490.0009715405901
 20
2683.485140732042
 10
-499.177078040135
 20
2691.380072753569
 10
-506.1034601601802
 20
2699.259666689159
 10
-506.092381580476
 20
2702.699850620275
 10
-504.1723198024453
 20
2707.088146549949
 10
-500.0817450068622
 20
2712.284850400725
 10
-498.1933059576469
 20
2712.462938328002
 10
-496.2160547546561
 20
2711.125907331737
 10
-491.6186276935475
 20
2708.461755210852
 10
-485.8609922679477
 20
2707.353926216664
  0
LWPOLYLINE
  5
1871
330
1836
100
AcDbEntity
  8
0
  6
ByBlock
 62
     0
370
    -2
100
AcDbPolyline
 90
      119
 70
     0
 43
0.0
 10
-1527.565614525227
 20
3313.869790191593
 10
-1523.463111180442
 20
3312.11753943691
 10
-1520.536163944829
 20
3307.906848497299
 10
-1516.076316037432
 20
3300.51409390906
 10
-1508.286587058745
 20
3291.115227789882
 10
-1500.697895183775
 20
3280.71842021034
 10
-1499.733981479555
 20
3276.281251034542
 10
-1500.32351259623
 20
3271.532935070086
 10
-1499.898440918634
 20
3260.789426864141
 10
-1493.938058791577
 20
3245.844606359292
 10
-1487.498091034134
 20
3230.975114401186
 10
-1485.34120650478
 20
3220.278518716273
 10
-1487.467424521003
 20
3213.815804616019
 10
-1493.876725765316
 20
3211.648015364357
 10
-1500.325637519974
 20
3210.201154786735
 10
-1502.381578512721
 20
3205.685083328808
 10
-1500.369777981394
 20
3197.800688997304
 10
-1495.328705477413
 20
3188.425786222718
 10
-1488.711490103447
 20
3179.803483144708
 10
-1481.97129959714
 20
3174.176916879167
 10
-1475.985360432684
 20
3169.028777194697
 10
-1471.650303501554
 20
3162.032977679416
 10
-1466.970255541761
 20
3155.540611234183
 10
-1458.385322145422
 20
3153.722342962258
 10
-1450.707190298298
 20
3152.846217584917
 10
-1446.435600975918
 20
3150.740872115111
 10
-1436.859545192683
 20
3147.449761243414
 10
-1416.419884376963
 20
3143.721650144919
 10
-1392.196990009067
 20
3140.079405283191
 10
-1378.223433512846
 20
3136.80421202209
 10
-1368.993605077543
 20
3131.972048498425
 10
-1359.001904551143
 20
3123.658921825239
 10
-1347.214034959758
 20
3114.749435303161
 10
-1340.005694776308
 20
3111.835266586249
 10
-1336.565935829941
 20
3111.740707479619
 10
-1333.841725637041
 20
3109.606830079171
 10
-1330.778899186713
 20
3107.073013053777
 10
-1326.532866901732
 20
3106.018848042881
 10
-1319.240939945169
 20
3103.19087396004
 10
-1309.730157955868
 20
3096.566317940411
 10
-1301.475437709421
 20
3088.934238986077
 10
-1297.951657346448
 20
3083.083686440378
 10
-1300.498581287847
 20
3079.054019686308
 10
-1307.195065976227
 20
3076.846455725647
 10
-1316.624704854723
 20
3076.670550674581
 10
-1327.371081707723
 20
3078.735860649292
 10
-1345.181951065416
 20
3081.89536147125
 10
-1369.506899725513
 20
3083.986643809365
 10
-1395.580689603557
 20
3086.070691748005
 10
-1417.598840364126
 20
3089.22039860325
 10
-1433.508376248972
 20
3091.301046663898
 10
-1443.154284070935
 20
3089.837138402599
 10
-1455.316594202331
 20
3088.263835203435
 10
-1475.168858483864
 20
3089.172269080437
 10
-1495.545660191725
 20
3091.912406542676
 10
-1509.281543967125
 20
3095.834156146759
 10
-1533.192924514079
 20
3112.257353711858
 10
-1553.506094414536
 20
3129.65933944739
 10
-1560.825017561399
 20
3135.156043895911
 10
-1572.170516664157
 20
3140.77383036289
 10
-1584.32931101263
 20
3145.146411515599
 10
-1594.088139214124
 20
3146.907557973775
 10
-1604.872107899913
 20
3151.53224201128
 10
-1621.848162329606
 20
3162.653117356758
 10
-1653.741355303004
 20
3183.441623040113
 10
-1679.57961670146
 20
3196.277263553671
 10
-1694.912882925545
 20
3204.063158010873
 10
-1692.306229309437
 20
3196.781565910703
 10
-1687.229216617941
 20
3189.559597239056
 10
-1678.676659332472
 20
3182.419399496593
 10
-1652.32047674753
 20
3165.508512614646
 10
-1641.619988588667
 20
3157.525415575211
 10
-1640.978174689133
 20
3155.50307735386
 10
-1643.157998736183
 20
3154.41063473933
 10
-1650.877450691393
 20
3155.111280050354
 10
-1660.774215420136
 20
3158.574471110376
 10
-1683.566263408449
 20
3166.087766827394
 10
-1694.881202244264
 20
3169.658932989869
 10
-1705.699411178572
 20
3175.434243917525
 10
-1713.791487829866
 20
3181.963448813492
 10
-1716.928049134128
 20
3187.79626790467
 10
-1715.514829962879
 20
3193.440876704551
 10
-1712.090399443705
 20
3198.97209184643
 10
-1707.616923048109
 20
3203.201887782255
 10
-1703.056546930109
 20
3204.9422679402
 10
-1700.739945405124
 20
3206.049246964891
 10
-1704.283207455336
 20
3209.576320959668
 10
-1708.493898394949
 20
3214.531942552888
 10
-1710.246149149631
 20
3220.088125548766
 10
-1708.646380991104
 20
3224.319254391303
 10
-1702.579511208216
 20
3223.659069560123
 10
-1665.132269821429
 20
3219.440719236287
 10
-1639.595998722042
 20
3219.0901840884
 10
-1632.386644370441
 20
3220.500157921566
 10
-1626.921775143111
 20
3223.15818639857
 10
-1618.072027954487
 20
3227.236620152576
 10
-1608.929041289123
 20
3228.42601724232
 10
-1600.279268742343
 20
3226.748090524973
 10
-1592.90918322696
 20
3222.224562516452
 10
-1583.165693111404
 20
3217.230180382384
 10
-1569.128562760247
 20
3213.651557669314
 10
-1555.9545764341
 20
3212.403609271664
 10
-1551.302741666388
 20
3212.939524698769
 10
-1548.800489417345
 20
3214.401192131393
 10
-1548.912501874912
 20
3218.009187085858
 10
-1552.037511320999
 20
3222.064410877327
 10
-1557.217167488098
 20
3228.641532803733
 10
-1562.266498218449
 20
3238.310863080606
 10
-1565.49415114014
 20
3249.60764347715
 10
-1564.501328814249
 20
3253.744271165523
 10
-1561.724729592303
 20
3258.581437918731
 10
-1558.160594995674
 20
3267.433841262036
 10
-1558.256004071801
 20
3277.144916631745
 10
-1558.244075522599
 20
3287.456109101874
 10
-1554.378385270393
 20
3298.035640805955
 10
-1544.250766894299
 20
3314.042285705924
 10
-1540.850608799534
 20
3316.204115512356
 10
-1537.348241872658
 20
3315.730228541102
 10
-1527.565614525227
 20
3313.869790191593
  0
LWPOLYLINE
  5
1872
330
1836
100
AcDbEntity
  8
0
  6
ByBlock
 62
     0
370
    -2
100
AcDbPolyline
 90
       67
 70
     0
 43
0.0
 10
632.2441911017866
 20
2874.605785540855
 10
633.1163274177349
 20
2867.326907547832
 10
631.7232853633138
 20
2858.068431276955
 10
622.0969751335221
 20
2833.427448503586
 10
608.6786612117373
 20
2800.195147903901
 10
600.9941449346349
 20
2783.311517998349
 10
590.7489699817495
 20
2767.848776307014
 10
579.9606258847959
 20
2752.055985664439
 10
568.491881204857
 20
2731.257212735899
 10
559.3818984687429
 20
2711.450624656127
 10
555.6698595207524
 20
2698.634407877343
 10
553.3992625948355
 20
2691.960176935814
 10
547.9418885530756
 20
2683.819062839744
 10
532.8140251851289
 20
2668.492084458194
 10
511.3158336060912
 20
2649.28769976761
 10
490.7325182864995
 20
2632.445911542335
 10
478.3493126731189
 20
2624.206732215456
 10
472.0162478975132
 20
2621.117933401724
 10
466.9686171061564
 20
2616.925140115287
 10
462.5410873571634
 20
2613.602445149752
 10
457.1037938447905
 20
2612.111772508017
 10
451.9750778950935
 20
2612.580550003539
 10
448.4732904928757
 20
2615.136253743501
 10
443.4746488525741
 20
2642.439688698758
 10
442.1091342193892
 20
2662.185899967955
 10
443.8026115150485
 20
2675.839375337045
 10
448.6227885370442
 20
2683.623405656598
 10
452.226562620254
 20
2685.384156106258
 10
456.6374020591081
 20
2685.761281777184
 10
463.5561151361842
 20
2686.821831218057
 10
465.3739584233606
 20
2692.415915126542
 10
466.6400749190258
 20
2696.533061127674
 10
470.2409900139234
 20
2702.049044429804
 10
483.2627641887554
 20
2715.732703374811
 10
496.3790974702158
 20
2729.506661920213
 10
499.900801203167
 20
2735.001347691176
 10
501.110694148301
 20
2739.189195700535
 10
497.017984770229
 20
2748.752463306326
 10
487.2391919442823
 20
2761.425836915759
 10
477.0137691234756
 20
2773.611627454531
 10
470.811734872949
 20
2783.786853781246
 10
468.6672521712678
 20
2791.87674755633
 10
470.6145322907166
 20
2797.806569416444
 10
472.9787804013001
 20
2799.822088564323
 10
476.0148231537029
 20
2800.40682894383
 10
486.8711937867145
 20
2797.172791592161
 10
497.4149495019316
 20
2791.65239424389
 10
505.1041502700152
 20
2785.505878455561
 10
511.1185730713921
 20
2780.860486070292
 10
517.6361198629981
 20
2779.042478584462
 10
522.8624760587543
 20
2780.158884543583
 10
525.0033270725814
 20
2784.316703516934
 10
531.2234135161913
 20
2794.682844583347
 10
546.3284919063523
 20
2811.828834960134
 10
564.9857763439402
 20
2830.151666059084
 10
581.8624809298341
 20
2844.04829065701
 10
593.3074940750454
 20
2854.316472738801
 10
600.2317416126023
 20
2865.249089499261
 10
605.0370151921541
 20
2874.047828859274
 10
608.0133669048262
 20
2875.365213969646
 10
611.9736162636606
 20
2875.133935337548
 10
618.0451608787877
 20
2875.199102885293
 10
621.9163855914737
 20
2877.403257309218
 10
624.6882423699714
 20
2880.38451566399
 10
627.5339016136129
 20
2880.857504372025
 10
630.1527445650179
 20
2878.904004021251
 10
632.2441911017866
 20
2874.605785540855
  0
LWPOLYLINE
  5
1873
330
1836
100
AcDbEntity
  8
0
  6
ByBlock
 62
     0
370
    -2
100
AcDbPolyline
 90
       94
 70
     0
 43
0.0
 10
-1281.964175395156
 20
2870.315883239295
 10
-1263.784457910398
 20
2859.796834591978
 10
-1250.289047891664
 20
2850.001003741097
 10
-1242.310645001956
 20
2844.230589796798
 10
-1239.565349770264
 20
2843.471905091317
 10
-1237.940662051461
 20
2844.266365785659
 10
-1233.026350907584
 20
2846.228172656525
 10
-1224.22250207184
 20
2845.935985982914
 10
-1202.280326993881
 20
2837.810847449904
 10
-1167.359504034359
 20
2821.772463916188
 10
-1135.006371316467
 20
2805.327746668804
 10
-1120.767247645907
 20
2795.983616653535
 10
-1122.017765269538
 20
2793.060494280663
 10
-1125.026493093081
 20
2790.303492650888
 10
-1125.469665257482
 20
2789.352560298997
 10
-1123.529793394906
 20
2788.714368428573
 10
-1113.952462657425
 20
2788.599796403768
 10
-1100.19384219796
 20
2787.795647988899
 10
-1095.279898086364
 20
2785.694137040577
 10
-1090.761749998414
 20
2782.207523525644
 10
-1084.648354044265
 20
2774.571291311265
 10
-1083.881304866227
 20
2771.354504476903
 10
-1084.66762323913
 20
2768.492348098009
 10
-1090.981206327498
 20
2763.693082257407
 10
-1103.75073273637
 20
2759.895920795961
 10
-1128.089734869413
 20
2753.564980944098
 10
-1132.718678413151
 20
2752.953360279225
 10
-1135.957400255801
 20
2754.825717519192
 10
-1140.116339643491
 20
2757.990810754096
 10
-1145.64120899037
 20
2758.311906049376
 10
-1150.798089838425
 20
2756.095987274903
 10
-1153.853025094666
 20
2751.650028641799
 10
-1155.379010105537
 20
2748.257916281029
 10
-1158.240896039591
 20
2746.173926294855
 10
-1170.678731510693
 20
2744.835243653316
 10
-1181.884845274558
 20
2746.099071026583
 10
-1187.489534484275
 20
2749.82707587889
 10
-1187.439434577626
 20
2755.924071285229
 10
-1181.681200309881
 20
2764.294860661846
 10
-1176.013429841184
 20
2771.314942260279
 10
-1180.396616295127
 20
2770.601943415304
 10
-1200.285564487487
 20
2766.158708548091
 10
-1211.204552759749
 20
2762.865888078655
 10
-1214.634623985591
 20
2760.027791631795
 10
-1217.053347413987
 20
2756.192082121875
 10
-1222.244932130288
 20
2749.901612408601
 10
-1229.53462791692
 20
2746.174351279604
 10
-1241.87279480566
 20
2743.226956482323
 10
-1247.057541131001
 20
2743.525025331209
 10
-1251.383518842496
 20
2747.190866505246
 10
-1254.717698054995
 20
2753.486764432813
 10
-1256.927077859582
 20
2761.675003542289
 10
-1257.439406633123
 20
2780.77764302049
 10
-1255.476344125499
 20
2790.216621904716
 10
-1251.856449598065
 20
2798.59707968437
 10
-1247.814429310044
 20
2807.839213359903
 10
-1247.952220956129
 20
2811.015588008141
 10
-1249.450833085674
 20
2813.725908926747
 10
-1251.453100436384
 20
2818.427679402454
 10
-1250.10504881288
 20
2823.321117999915
 10
-1247.624741230871
 20
2828.508877853476
 10
-1247.07033896719
 20
2832.812418301978
 10
-1248.391075661832
 20
2835.748734519555
 10
-1251.53615597856
 20
2836.834840997828
 10
-1256.09524748357
 20
2838.336225186985
 10
-1260.470339909795
 20
2841.94592973919
 10
-1263.644270895727
 20
2844.248159052666
 10
-1268.880208565822
 20
2845.838026998293
 10
-1286.441486312236
 20
2847.057018480552
 10
-1303.529128214748
 20
2848.100529896492
 10
-1307.111208758275
 20
2849.604261160513
 10
-1308.173834829172
 20
2851.939813141801
 10
-1310.224656687443
 20
2856.038056980353
 10
-1315.155580871505
 20
2859.037406163186
 10
-1322.319249362599
 20
2859.02724516419
 10
-1330.076128951945
 20
2855.914965943081
 10
-1336.293926273158
 20
2850.935216806617
 10
-1338.840367277343
 20
2845.3226557203
 10
-1339.794699507225
 20
2842.929605234235
 10
-1343.08895912956
 20
2841.488491609467
 10
-1359.284722242789
 20
2840.899858756011
 10
-1373.723550110354
 20
2842.071580343699
 10
-1379.729077208237
 20
2844.099404731809
 10
-1377.156074657245
 20
2847.76149831306
 10
-1370.972082941059
 20
2852.859808535722
 10
-1353.437637186291
 20
2866.649520493066
 10
-1346.005687413711
 20
2872.063449502995
 10
-1340.462282936533
 20
2874.316158434481
 10
-1336.172380634973
 20
2875.915501608258
 10
-1331.749583670684
 20
2879.761169283545
 10
-1325.123482251968
 20
2883.390838460204
 10
-1314.602733665655
 20
2883.02332323985
 10
-1300.209050768917
 20
2878.66340470091
 10
-1281.964175395156
 20
2870.315883239295
  0
LWPOLYLINE
  5
1874
330
1836
100
AcDbEntity
  8
0
  6
ByBlock
 62
     0
370
    -2
100
AcDbPolyline
 90
       49
 70
     0
 43
0.0
 10
2279.810461606789
 20
3105.095443112225
 10
2311.601436089333
 20
3106.328922710923
 10
2328.127286788778
 20
3106.29357170681
 10
2332.584053556746
 20
3104.857403359121
 10
2335.45318354902
 20
3102.315009368795
 10
2347.106468197424
 20
3092.825428323217
 10
2352.521662502855
 20
3088.331929350702
 10
2354.773096480094
 20
3083.260876104436
 10
2358.03961618882
 20
3076.101032476081
 10
2365.684415709388
 20
3066.684336314938
 10
2374.475389438989
 20
3058.477040502971
 10
2381.180393139836
 20
3054.945446215865
 10
2383.811502696493
 20
3054.28308816722
 10
2384.89758985728
 20
3052.554201914983
 10
2383.190319874769
 20
3047.093109256671
 10
2377.569886911854
 20
3040.954793742246
 10
2369.547546394356
 20
3036.53189053177
 10
2363.147614132008
 20
3033.421369202122
 10
2358.071451410011
 20
3029.21963191847
 10
2352.565532519434
 20
3025.70447681415
 10
2345.130173210119
 20
3024.241428181093
 10
2335.309219965331
 20
3020.976724316295
 10
2323.694270873027
 20
3011.913480243814
 10
2316.48683861154
 20
3005.164712772575
 10
2311.786710122363
 20
3002.124043481656
 10
2307.975273036852
 20
3002.234356000228
 10
2303.433914986364
 20
3004.938553274952
 10
2295.983227249855
 20
3008.357014690153
 10
2289.030863107662
 20
3006.669506498468
 10
2279.865941434007
 20
3002.557257480692
 10
2271.136088238294
 20
3000.175440114239
 10
2263.212518039938
 20
2999.59080598092
 10
2256.466416382124
 20
3000.870125980033
 10
2252.311263222197
 20
3002.95038769091
 10
2250.009835584496
 20
3006.078748721267
 10
2249.270004747877
 20
3019.98900180739
 10
2249.116247197474
 20
3040.925295937175
 10
2247.036613304977
 20
3044.047378783741
 10
2243.01062653248
 20
3044.68578314654
 10
2236.810070069832
 20
3045.980064540563
 10
2232.329726307044
 20
3049.826688431535
 10
2229.606955267044
 20
3056.171353359038
 10
2228.679126631502
 20
3064.9597675214
 10
2225.101363546675
 20
3089.878033525936
 10
2223.180876783895
 20
3099.899173904943
 10
2223.568037890141
 20
3105.984771993015
 10
2231.017025687654
 20
3107.764289382837
 10
2246.738312646227
 20
3107.259137056306
 10
2279.810461606789
 20
3105.095443112225
  0
LWPOLYLINE
  5
1875
330
1836
100
AcDbEntity
  8
0
  6
ByBlock
 62
     0
370
    -2
100
AcDbPolyline
 90
       71
 70
     0
 43
0.0
 10
1820.163435016864
 20
3728.726640609556
 10
1822.776482721694
 20
3719.318830493163
 10
1821.541988954845
 20
3716.763822182789
 10
1818.476776794677
 20
3714.490559443447
 10
1805.050368845173
 20
3704.815260062601
 10
1803.39890708719
 20
3701.098865020934
 10
1804.056696549785
 20
3696.826628562687
 10
1809.942967131881
 20
3690.40795833641
 10
1821.747874748197
 20
3684.382833646356
 10
1836.092143509133
 20
3680.385533344412
 10
1840.548379046165
 20
3681.194955433665
 10
1845.279328588381
 20
3683.827426873268
 10
1851.497821339183
 20
3689.893862012664
 10
1855.273211990992
 20
3697.153741255661
 10
1858.578801320383
 20
3703.474877482066
 10
1863.665617637337
 20
3707.283919198993
 10
1869.9454434144
 20
3710.686202217504
 10
1876.112822090403
 20
3716.030694514709
 10
1881.687260112995
 20
3721.010598191081
 10
1886.435943109733
 20
3722.037081240833
 10
1891.134149508798
 20
3718.940188399383
 10
1896.557177055851
 20
3711.549974060893
 10
1900.512249327745
 20
3705.972551486315
 10
1904.234458933476
 20
3702.810442803397
 10
1908.642188256668
 20
3701.565623838899
 10
1914.653838998432
 20
3701.740089737066
 10
1924.70011143009
 20
3700.980670967019
 10
1932.014504625877
 20
3695.777157701517
 10
1937.993199732114
 20
3690.767012496762
 10
1943.729122300542
 20
3688.682964558122
 10
1947.658695487503
 20
3687.72165871486
 10
1949.293389665394
 20
3685.408457067867
 10
1951.452824103241
 20
3681.082778777444
 10
1956.643133865295
 20
3675.285098198006
 10
1962.067706811435
 20
3669.093437438851
 10
1960.995866298481
 20
3667.649609706936
 10
1957.494986818228
 20
3666.313428680169
 10
1936.666445639776
 20
3658.178708672821
 10
1930.622476739608
 20
3654.232252000837
 10
1926.177638520842
 20
3649.668321464935
 10
1918.205832553486
 20
3641.367751159329
 10
1909.506974268209
 20
3635.371332257316
 10
1900.925662900979
 20
3632.130417879711
 10
1893.306526663998
 20
3632.09639978231
 10
1886.797122193831
 20
3632.570875936966
 10
1882.856055101161
 20
3630.77092064422
 10
1877.917993105068
 20
3628.125883178292
 10
1869.23670407566
 20
3627.519845267619
 10
1859.165193345164
 20
3628.860488634249
 10
1850.056495222041
 20
3632.055504658973
 10
1834.590179795317
 20
3638.583057909666
 10
1818.800904935666
 20
3642.349668762914
 10
1803.324051818918
 20
3643.259812237655
 10
1788.794982303423
 20
3641.21798267032
 10
1773.057082304666
 20
3638.47035002251
 10
1768.843522718
 20
3639.900761758601
 10
1764.755826228216
 20
3643.412343127532
 10
1761.378617309891
 20
3647.246623143297
 10
1759.966306060604
 20
3650.616423804749
 10
1762.483094719809
 20
3660.00294604872
 10
1768.980995625523
 20
3671.646002086917
 10
1773.771153270257
 20
3678.510993228235
 10
1778.414362779315
 20
3689.732870062785
 10
1781.813023768716
 20
3702.092595268788
 10
1782.869526195731
 20
3712.371160500695
 10
1784.025484712732
 20
3723.603623318992
 10
1789.898976776127
 20
3731.861444022355
 10
1800.058652524531
 20
3739.40578294353
 10
1808.205194834893
 20
3741.427271195384
 10
1814.764737846687
 20
3737.882145007523
 10
1820.163435016864
 20
3728.726640609556
  0
LWPOLYLINE
  5
1876
330
1836
100
AcDbEntity
  8
0
  6
ByBlock
 62
     0
370
    -2
100
AcDbPolyline
 90
       62
 70
     0
 43
0.0
 10
-1170.743474073689
 20
2897.919164252389
 10
-1150.257374015408
 20
2892.1210586882
 10
-1140.080351162254
 20
2888.099060977099
 10
-1139.430655727377
 20
2884.185347448268
 10
-1141.65498726813
 20
2878.478285207787
 10
-1145.68418074373
 20
2872.90666753853
 10
-1150.44904213716
 20
2869.399287723365
 10
-1157.613512304031
 20
2869.705952854672
 10
-1168.838740722852
 20
2872.741947313354
 10
-1185.126503375472
 20
2877.449252249541
 10
-1188.121757250726
 20
2876.826340512589
 10
-1188.91509753073
 20
2874.316158434481
 10
-1187.996802075805
 20
2871.909691952593
 10
-1185.790522728136
 20
2870.90876594024
 10
-1167.523065210219
 20
2863.838854879999
 10
-1138.121094199882
 20
2848.736867288013
 10
-1125.671813116793
 20
2842.353432160916
 10
-1119.780384765245
 20
2840.837675760252
 10
-1120.70394423581
 20
2844.099510977996
 10
-1128.699655595291
 20
2852.048850706126
 10
-1138.627521480659
 20
2862.227583157019
 10
-1138.475096836969
 20
2864.717955150582
 10
-1135.514440583774
 20
2866.77900561906
 10
-1129.758080112421
 20
2868.561497902124
 10
-1124.668713886974
 20
2868.342997788725
 10
-1121.622925461579
 20
2868.756575560612
 10
-1122.453905868094
 20
2874.258234944955
 10
-1123.487517071135
 20
2878.357541245379
 10
-1122.780168591572
 20
2880.329354575332
 10
-1113.441350885665
 20
2879.444285200775
 10
-1098.436047324053
 20
2874.876249698551
 10
-1074.767448973651
 20
2863.170576021102
 10
-1047.508309019721
 20
2849.619377095331
 10
-1015.869392148585
 20
2832.08791589255
 10
-1005.456348219885
 20
2824.70233775132
 10
-1001.508510347466
 20
2820.073877144799
 10
-1006.511411494
 20
2817.235944896591
 10
-1018.542063281936
 20
2814.68678978526
 10
-1031.131956364444
 20
2812.125706124727
 10
-1037.48375910398
 20
2809.255407424394
 10
-1040.773595021429
 20
2807.075525424878
 10
-1046.005649876318
 20
2806.168308549657
 10
-1050.752574981596
 20
2804.601331828006
 10
-1052.619397761083
 20
2800.614260136268
 10
-1053.710179071595
 20
2798.123018855719
 10
-1056.769924382494
 20
2796.675047522503
 10
-1067.520773234101
 20
2796.723437831412
 10
-1082.320896090695
 20
2800.388573917116
 10
-1098.619196433339
 20
2807.299559998757
 10
-1149.740727783168
 20
2832.657801123334
 10
-1185.991550173109
 20
2848.828866827405
 10
-1220.917328068453
 20
2864.168942466216
 10
-1239.143040493536
 20
2874.53465854788
 10
-1242.528130947204
 20
2878.690024200181
 10
-1243.433377438589
 20
2883.29804690378
 10
-1241.776960744783
 20
2889.783594275542
 10
-1237.470435744295
 20
2893.414596358914
 10
-1222.989022473142
 20
2900.031753780414
 10
-1214.521384867498
 20
2903.591995903094
 10
-1204.72326489422
 20
2904.496711163543
 10
-1190.996643854598
 20
2902.640802765107
 10
-1170.743474073689
 20
2897.919164252389
  0
LWPOLYLINE
  5
1877
330
1836
100
AcDbEntity
  8
0
  6
ByBlock
 62
     0
370
    -2
100
AcDbPolyline
 90
       64
 70
     0
 43
0.0
 10
-1012.4087606558
 20
2712.373015418633
 10
-1006.382467257687
 20
2697.744335273243
 10
-1005.133128000859
 20
2687.376388021647
 10
-1008.842819873987
 20
2679.957535506329
 10
-1017.693629524483
 20
2674.176149228512
 10
-1030.471346548516
 20
2668.16891253289
 10
-1016.841776571551
 20
2667.852028450121
 10
-999.3516354768555
 20
2667.000175497188
 10
-995.0832818338138
 20
2663.885075922746
 10
-993.469189757501
 20
2656.960297154253
 10
-994.5518384053173
 20
2647.54130221197
 10
-998.373706934665
 20
2636.943563774896
 10
-1004.553390850897
 20
2625.641297211593
 10
-1010.029976135055
 20
2618.890771848893
 10
-1015.012700164761
 20
2616.509591959564
 10
-1019.710800317637
 20
2618.31535215763
 10
-1023.384233264689
 20
2620.331460488912
 10
-1026.246602135957
 20
2619.808642319069
 10
-1028.105282594005
 20
2616.887442036311
 10
-1028.767650301395
 20
2611.708423346336
 10
-1032.076600873801
 20
2603.435061723403
 10
-1039.934105261192
 20
2593.366429298708
 10
-1049.236123151342
 20
2584.861789043677
 10
-1056.878643208257
 20
2581.280403929739
 10
-1063.161067187535
 20
2582.314333871342
 10
-1070.133820938931
 20
2585.002980567755
 10
-1076.506660423538
 20
2588.726619667641
 10
-1080.989351261188
 20
2592.865536478411
 10
-1083.594295279556
 20
2594.556879191581
 10
-1085.739251259709
 20
2591.737694566047
 10
-1095.102766374773
 20
2579.811820836203
 10
-1101.001815475568
 20
2573.066462901699
 10
-1104.749099181484
 20
2566.747876583788
 10
-1109.08920763588
 20
2561.109700507606
 10
-1116.09443408559
 20
2557.231028903069
 10
-1123.665073767475
 20
2555.867001716506
 10
-1129.701431577142
 20
2557.77280718796
 10
-1133.628879840358
 20
2564.158521778708
 10
-1133.50066966861
 20
2574.075048298276
 10
-1129.160937905242
 20
2588.366020108202
 10
-1120.453763441129
 20
2607.875099546256
 10
-1106.800075579664
 20
2632.276555119899
 10
-1093.126906030961
 20
2649.493421362309
 10
-1079.249927318927
 20
2659.70873147784
 10
-1072.177408397728
 20
2662.24800569376
 10
-1064.984821626219
 20
2663.105528329591
 10
-1052.037960672126
 20
2663.707461273939
 10
-1043.143860529707
 20
2665.396147832428
 10
-1038.395505930274
 20
2668.141549310308
 10
-1037.885833311414
 20
2671.913636671569
 10
-1041.075575661754
 20
2675.28440320745
 10
-1046.169201393434
 20
2676.687393768493
 10
-1050.724458376959
 20
2678.224128961762
 10
-1052.619397761083
 20
2681.917739025642
 10
-1050.909094932866
 20
2688.424525976105
 10
-1046.427312017179
 20
2696.576766945601
 10
-1040.14769873249
 20
2704.885537525111
 10
-1033.043924114757
 20
2711.861903646874
 10
-1027.617651229622
 20
2717.67492231225
 10
-1025.360257807154
 20
2722.93593408253
 10
-1024.385478015602
 20
2727.354577786773
 10
-1021.681551185719
 20
2726.887654770155
 10
-1017.5791057934
 20
2721.804141743749
 10
-1012.4087606558
 20
2712.373015418633
  0
LWPOLYLINE
  5
1878
330
1836
100
AcDbEntity
  8
0
  6
ByBlock
 62
     0
370
    -2
100
AcDbPolyline
 90
       41
 70
     0
 43
0.0
 10
-848.4450276513182
 20
3973.489864933635
 10
-840.3375646203651
 20
3967.010711650594
 10
-831.7011018232213
 20
3962.995098369471
 10
-824.6707529796051
 20
3960.418367543182
 10
-820.3617263643447
 20
3956.360052953538
 10
-818.1872242853998
 20
3949.865030353624
 10
-817.5604297332418
 20
3939.978156179038
 10
-816.4997160937138
 20
3931.403296852995
 10
-813.4932773925699
 20
3927.516898253024
 10
-808.6743173723531
 20
3928.370402851232
 10
-802.1760494343569
 20
3934.015224143486
 10
-797.8414368054639
 20
3937.910199708389
 10
-793.7445645086024
 20
3939.88663957686
 10
-789.9902975305615
 20
3940.028922539041
 10
-786.6834911993894
 20
3938.421408067592
 10
-781.8316817898323
 20
3930.294511643121
 10
-780.0279982217896
 20
3916.180932330884
 10
-778.962339305184
 20
3907.01546976755
 10
-776.3991210621623
 20
3901.082779260381
 10
-774.5075429210522
 20
3892.385939652662
 10
-775.0970740377272
 20
3877.004437659577
 10
-777.5745129726817
 20
3861.012155312371
 10
-781.3466582864086
 20
3850.482993959778
 10
-784.758580731723
 20
3847.973130620232
 10
-791.1518581192533
 20
3845.9673474866
 10
-814.2995507311827
 20
3843.153697321546
 10
-843.3918720582262
 20
3841.09904094179
 10
-851.7467921179697
 20
3851.447294013772
 10
-869.8642783132475
 20
3874.407153025433
 10
-879.2005847456387
 20
3888.241169642851
 10
-881.399890479928
 20
3896.032598560532
 10
-878.1063842396468
 20
3900.864704131731
 10
-873.7014752697884
 20
3907.826002612397
 10
-870.487450836296
 20
3918.681957919402
 10
-868.4643109391693
 20
3934.694146938595
 10
-870.5862694491585
 20
3949.750564575007
 10
-870.4579047375034
 20
3959.173065641469
 10
-867.7270396697856
 20
3969.670179280497
 10
-863.5056565002413
 20
3978.199516944685
 10
-858.90572782436
 20
3981.718719062864
 10
-848.4450276513182
 20
3973.489864933635
  0
LWPOLYLINE
  5
1879
330
1836
100
AcDbEntity
  8
0
  6
ByBlock
 62
     0
370
    -2
100
AcDbPolyline
 90
       24
 70
     0
 43
0.0
 10
-1323.394653952196
 20
3062.189562388177
 10
-1286.025783616604
 20
3052.955522740362
 10
-1263.690005049955
 20
3046.708604305105
 10
-1248.530837691753
 20
3038.90855012877
 10
-1238.464871080483
 20
3028.011178126235
 10
-1231.408685095882
 20
3012.472296553637
 10
-1226.874300658774
 20
2996.017997831915
 10
-1227.481458983784
 20
2992.376129661213
 10
-1229.888987927546
 20
2990.082322772759
 10
-1238.945944157491
 20
2988.439206169846
 10
-1253.559295875688
 20
2989.129951267969
 10
-1269.175698529981
 20
2991.668356196901
 10
-1281.241807568217
 20
2995.568219086417
 10
-1318.72312500487
 20
3010.015565966447
 10
-1367.803203478392
 20
3029.171927380406
 10
-1406.230498331114
 20
3044.906833168433
 10
-1435.930605801547
 20
3054.526333983498
 10
-1443.652182680501
 20
3057.99334990626
 10
-1447.359005906574
 20
3063.259480811015
 10
-1446.791564338097
 20
3066.780431161911
 10
-1440.271631836651
 20
3068.427218087656
 10
-1391.048439748938
 20
3067.464202646655
 10
-1347.438919503135
 20
3065.018550639168
 10
-1323.394653952196
 20
3062.189562388177
  0
LWPOLYLINE
  5
187A
330
1836
100
AcDbEntity
  8
0
  6
ByBlock
 62
     0
370
    -2
100
AcDbPolyline
 90
       49
 70
     0
 43
0.0
 10
208.5315278037845
 20
2530.169516516122
 10
213.226063880016
 20
2528.467520207997
 10
214.9306100966348
 20
2523.780653174734
 10
217.3081196631326
 20
2518.486849967579
 10
224.3009346264259
 20
2515.316695550666
 10
235.4235195696431
 20
2509.889138052539
 10
249.0045350390458
 20
2499.751725709732
 10
260.8367092905025
 20
2487.607776851238
 10
261.9323972431155
 20
2483.766793666934
 10
260.5862580509818
 20
2480.104700085683
 10
255.4012799157774
 20
2475.603000839264
 10
247.8230194846453
 20
2473.053102004621
 10
240.049266069019
 20
2472.849186595105
 10
234.2777800041038
 20
2475.385456941549
 10
229.234041686698
 20
2478.472720014939
 10
223.5670728937782
 20
2478.629722903424
 10
217.719292407691
 20
2475.95326554231
 10
212.1331383282716
 20
2470.540147866902
 10
205.6757075611465
 20
2464.523967174063
 10
199.5632678226832
 20
2462.021666631298
 10
196.7716589121057
 20
2461.607886025781
 10
195.3261795349178
 20
2460.137380842129
 10
195.9446192732623
 20
2452.651332442763
 10
199.1646031519842
 20
2434.530823060522
 10
200.6805720450231
 20
2426.528292627568
 10
203.8966248148179
 20
2420.852273591246
 10
210.0042641573675
 20
2416.181217922391
 10
220.1950314036496
 20
2411.193596909328
 10
230.4137993496381
 20
2405.34118022598
 10
237.2209152951516
 20
2398.033393611287
 10
241.0137689566429
 20
2388.644108966449
 10
242.1897500505636
 20
2376.547227168895
 10
242.1897500505636
 20
2366.474972715089
 10
229.4120330265316
 20
2373.426052244292
 10
188.3503929378132
 20
2400.012663491835
 10
152.7525113208319
 20
2427.051593734626
 10
146.4388219862774
 20
2433.897798618294
 10
143.9086269899933
 20
2439.486029327736
 10
144.991961408655
 20
2445.141977493418
 10
149.5188989539126
 20
2452.191334745803
 10
155.6862776299151
 20
2463.936618933599
 10
161.8843228190483
 20
2480.762325349625
 10
171.9080227652928
 20
2510.655800880806
 10
182.9181606074492
 20
2530.738551777407
 10
191.572511399024
 20
2542.47786686123
 10
194.0774198027482
 20
2541.839839189458
 10
197.1167658456991
 20
2537.723707356476
 10
202.5379195963594
 20
2532.389009025985
 10
208.5315278037845
 20
2530.169516516122
  0
LWPOLYLINE
  5
187B
330
1836
100
AcDbEntity
  8
0
  6
ByBlock
 62
     0
370
    -2
100
AcDbPolyline
 90
       45
 70
     0
 43
0.0
 10
1642.628065183688
 20
3239.592037558624
 10
1650.3877071739
 20
3229.049460210209
 10
1667.923273343007
 20
3211.516830299369
 10
1686.619685353726
 20
3195.072856775295
 10
1697.861893845014
 20
3187.79626790467
 10
1705.19232055633
 20
3186.693335893837
 10
1711.502117416934
 20
3183.767026135348
 10
1715.924006459259
 20
3179.59105838147
 10
1717.590700056994
 20
3174.739142725725
 10
1713.837881890597
 20
3166.944729256056
 10
1704.812983032961
 20
3156.635661709672
 10
1682.810595343078
 20
3137.934507255505
 10
1664.207081134969
 20
3127.264791855959
 10
1655.719111872589
 20
3124.760240825774
 10
1647.52789786987
 20
3124.045764192922
 10
1639.449130968211
 20
3125.048776494042
 10
1631.298483691524
 20
3127.696682607026
 10
1624.518576428684
 20
3130.835581327407
 10
1621.06566227259
 20
3133.802303272018
 10
1620.172759656411
 20
3137.831487088874
 10
1621.072896672064
 20
3144.157790743476
 10
1625.952716440073
 20
3156.026165968543
 10
1634.586619669979
 20
3168.735315566838
 10
1643.092322386881
 20
3181.110108413939
 10
1644.289697599411
 20
3185.986199906649
 10
1643.824059195784
 20
3190.883366779406
 10
1641.706688589333
 20
3198.026800201207
 10
1638.356900846056
 20
3202.128183131653
 10
1631.884238239181
 20
3204.41832935602
 10
1620.39823338319
 20
3206.128043000834
 10
1605.24300679266
 20
3206.623391701908
 10
1600.953741968224
 20
3204.769608227216
 10
1597.187082821255
 20
3201.156658336929
 10
1591.357460774439
 20
3196.640577220257
 10
1585.918834355353
 20
3196.031931448625
 10
1577.608199638194
 20
3198.018445387392
 10
1574.619648931479
 20
3200.219190274582
 10
1574.726822358156
 20
3205.417594064354
 10
1577.409345410688
 20
3211.507886302153
 10
1582.146843581536
 20
3216.38428687468
 10
1603.578544364859
 20
3228.676671315472
 10
1623.037688094917
 20
3237.499905251011
 10
1637.171714968824
 20
3241.567260425313
 10
1641.19412800593
 20
3241.415395988792
 10
1642.628065183688
 20
3239.592037558624
  0
LWPOLYLINE
  5
187C
330
1836
100
AcDbEntity
  8
0
  6
ByBlock
 62
     0
370
    -2
100
AcDbPolyline
 90
       47
 70
     0
 43
0.0
 10
-2155.316353392274
 20
3226.603064479412
 10
-2146.379184909053
 20
3216.071237313395
 10
-2136.637027700209
 20
3208.025957278202
 10
-2127.260782360167
 20
3200.850360237904
 10
-2120.488969125045
 20
3192.88222459338
 10
-2117.253376715545
 20
3185.545954341768
 10
-2118.485842146093
 20
3180.265934162719
 10
-2130.085887795952
 20
3177.44163040271
 10
-2153.060659908801
 20
3175.989650690613
 10
-2179.178744788174
 20
3174.371569552906
 10
-2185.16036649393
 20
3172.286188707554
 10
-2188.872347489456
 20
3168.861391156097
 10
-2194.249215897531
 20
3158.833431703619
 10
-2196.440862247597
 20
3146.398841570601
 10
-2200.12143300668
 20
3139.74649734364
 10
-2205.994017148112
 20
3138.278706267135
 10
-2214.761722962711
 20
3141.397804561715
 10
-2224.568197749803
 20
3144.945751102909
 10
-2227.837161120834
 20
3144.539204896867
 10
-2230.786690500604
 20
3142.743721602729
 10
-2233.599007758946
 20
3141.045936507115
 10
-2236.252573896086
 20
3141.187823460782
 10
-2243.18278087887
 20
3147.858219880826
 10
-2250.873691244694
 20
3154.607412336814
 10
-2259.068044339309
 20
3157.129735456499
 10
-2263.313072114883
 20
3157.67327163285
 10
-2266.616691060438
 20
3159.487222446077
 10
-2271.678800309489
 20
3168.026576228097
 10
-2273.686930517985
 20
3176.071692064639
 10
-2272.292990200345
 20
3180.980207961941
 10
-2267.325111660618
 20
3182.937697374108
 10
-2258.611456179083
 20
3182.129772390219
 10
-2253.499082824731
 20
3181.877041687046
 10
-2248.034059057491
 20
3183.356007930698
 10
-2233.485343656104
 20
3192.573434538329
 10
-2214.676532838045
 20
3204.833230375875
 10
-2212.251743718232
 20
3206.681315191433
 10
-2210.284402386887
 20
3211.123275104401
 10
-2204.483746914206
 20
3217.809859579881
 10
-2192.848775244982
 20
3225.056100675936
 10
-2181.696808401625
 20
3231.366167981381
 10
-2177.058920860672
 20
3235.803018418617
 10
-2176.436327862282
 20
3238.154758455341
 10
-2174.73017829411
 20
3239.300923005629
 10
-2169.037063280389
 20
3238.386674564563
 10
-2161.91923518971
 20
3233.880609565723
 10
-2155.316353392274
 20
3226.603064479412
  0
LWPOLYLINE
  5
187D
330
1836
100
AcDbEntity
  8
0
  6
ByBlock
 62
     0
370
    -2
100
AcDbPolyline
 90
       39
 70
     0
 43
0.0
 10
1215.882826622483
 20
3154.826337434962
 10
1223.831470921024
 20
3146.79154679607
 10
1229.843334155163
 20
3134.935254660114
 10
1232.520853978149
 20
3123.070665662809
 10
1232.17249204773
 20
3118.326879649427
 10
1230.46645838449
 20
3115.010955463642
 10
1227.966717408962
 20
3110.282343337543
 10
1226.926180886265
 20
3103.882411075195
 10
1224.49308524636
 20
3096.330934341987
 10
1217.594182253828
 20
3089.329861152323
 10
1206.830023652584
 20
3083.320982470172
 10
1192.801141869053
 20
3078.746079600754
 10
1180.278975901528
 20
3075.038831389933
 10
1174.053673736
 20
3071.852923561077
 10
1169.920078893335
 20
3070.699524611313
 10
1162.420836649265
 20
3071.876771000737
 10
1156.989821320682
 20
3073.098747034982
 10
1153.447042207684
 20
3072.603398333909
 10
1150.861946908839
 20
3069.906454776149
 10
1148.3040023402
 20
3064.523626922844
 10
1143.699186339707
 20
3057.301552005009
 10
1137.250854109706
 20
3052.120717471107
 10
1130.010939491162
 20
3049.574643499206
 10
1123.031376325038
 20
3050.256869584862
 10
1120.260195658641
 20
3052.156387213782
 10
1118.520733081404
 20
3055.156064793921
 10
1117.990989591903
 20
3063.457958347495
 10
1121.150171675299
 20
3073.16668664234
 10
1127.7063148091
 20
3082.28635709898
 10
1135.268599677172
 20
3092.579661574678
 10
1139.669674125546
 20
3103.545079430757
 10
1144.004412318115
 20
3116.578250923855
 10
1151.697766346244
 20
3129.718112906414
 10
1161.844451083573
 20
3141.69137243576
 10
1173.539152427505
 20
3151.224726910474
 10
1185.107044117612
 20
3157.407115275109
 10
1195.605432710887
 20
3160.032835252451
 10
1205.656602125901
 20
3159.154894031183
 10
1215.882826622483
 20
3154.826337434962
  0
LWPOLYLINE
  5
187E
330
1836
100
AcDbEntity
  8
0
  6
ByBlock
 62
     0
370
    -2
100
AcDbPolyline
 90
       35
 70
     0
 43
0.0
 10
-846.4653327860217
 20
3810.885687117109
 10
-833.6799467190205
 20
3802.45282099092
 10
-819.9387892692367
 20
3797.508268318661
 10
-796.3153358896613
 20
3791.279556616397
 10
-791.0130040112951
 20
3788.785292148884
 10
-788.3991063369673
 20
3784.673043131107
 10
-787.7440406402635
 20
3776.109677710774
 10
-788.3181853772796
 20
3760.262054376847
 10
-791.0147136090352
 20
3735.544410150024
 10
-793.992929459355
 20
3727.940013156834
 10
-798.7993234532462
 20
3720.709042535505
 10
-806.7649574829991
 20
3711.621526038617
 10
-812.9877097400347
 20
3706.725112547915
 10
-819.5913932132459
 20
3706.538495949427
 10
-826.8144822992315
 20
3709.839893383795
 10
-833.2779304640519
 20
3715.705127220821
 10
-837.6027104912543
 20
3723.210068124024
 10
-841.4513627185272
 20
3730.127506246853
 10
-843.7235533372529
 20
3731.226014552799
 10
-846.342666733499
 20
3730.852858625779
 10
-852.9836812534028
 20
3730.676306438845
 10
-861.5209004529349
 20
3732.969698001294
 10
-868.8902422450071
 20
3736.59324353407
 10
-872.0275955663007
 20
3740.407182234354
 10
-873.1814195008139
 20
3741.95243644009
 10
-875.9529092470282
 20
3741.177254599357
 10
-877.6387754521836
 20
3740.835663448686
 10
-878.3717389216119
 20
3742.653506735862
 10
-877.0671323299396
 20
3753.753934519671
 10
-874.6342491824091
 20
3787.088463268955
 10
-873.7222898637408
 20
3799.849306466708
 10
-870.842245490415
 20
3810.883562193364
 10
-866.5828455033336
 20
3818.640963354902
 10
-861.5328290021368
 20
3821.571271833528
 10
-846.4653327860217
 20
3810.885687117109
  0
LWPOLYLINE
  5
187F
330
1836
100
AcDbEntity
  8
0
  6
ByBlock
 62
     0
370
    -2
100
AcDbPolyline
 90
       35
 70
     0
 43
0.0
 10
-1571.405128790137
 20
3070.200341388756
 10
-1563.911421006547
 20
3064.569196878419
 10
-1549.941959817907
 20
3058.260839170714
 10
-1536.483185416277
 20
3052.468268067006
 10
-1530.223382216133
 20
3048.076137615848
 10
-1526.058695875589
 20
3045.682015009166
 10
-1517.646692637074
 20
3044.68578314654
 10
-1508.947196874673
 20
3043.684857134188
 10
-1504.09890324804
 20
3041.278390652298
 10
-1504.09294380281
 20
3038.87192417041
 10
-1507.036079093858
 20
3037.870998158058
 10
-1511.247610344224
 20
3034.95852938014
 10
-1514.273376192699
 20
3027.87030534072
 10
-1518.061970347957
 20
3019.691705658047
 10
-1525.650662222926
 20
3015.852432071483
 10
-1533.505655336802
 20
3011.782671869852
 10
-1540.885959803647
 20
3004.341826393778
 10
-1546.069778889536
 20
2995.729916124628
 10
-1547.335306201799
 20
2988.146922908791
 10
-1548.117307116003
 20
2984.442659249956
 10
-1552.44639494316
 20
2983.802496995697
 10
-1558.861665291446
 20
2983.334830255768
 10
-1565.6193767599
 20
2980.878949638075
 10
-1575.41684959731
 20
2978.382347754444
 10
-1587.529330266898
 20
2979.150121338304
 10
-1599.31278581214
 20
2982.704085277193
 10
-1608.123192935258
 20
2988.566025482414
 10
-1615.428642133831
 20
2996.34511052489
 10
-1607.659785701562
 20
3034.024055528524
 10
-1600.469758497292
 20
3063.159387243906
 10
-1597.434894111693
 20
3070.329874808471
 10
-1594.585622497685
 20
3073.130698161104
 10
-1579.710219388071
 20
3074.672117845355
 10
-1574.568522086045
 20
3073.166628689874
 10
-1571.405128790137
 20
3070.200341388756
  0
LWPOLYLINE
  5
1880
330
1836
100
AcDbEntity
  8
0
  6
ByBlock
 62
     0
370
    -2
100
AcDbPolyline
 90
       33
 70
     0
 43
0.0
 10
1752.397211777806
 20
2764.063157044998
 10
1775.989998644251
 20
2753.86823653867
 10
1781.493734658617
 20
2751.058131132772
 10
1785.367992217012
 20
2745.950741690474
 10
1787.620759100963
 20
2738.976529468689
 10
1788.260023092004
 20
2730.565936406841
 10
1787.293762312919
 20
2721.14942376184
 10
1784.72996454524
 20
2711.157423814365
 10
1780.576617570496
 20
2701.020407480075
 10
1774.841709170219
 20
2691.168807039646
 10
1767.011790156528
 20
2681.565928923509
 10
1759.832571087122
 20
2677.439578139065
 10
1752.400998005569
 20
2678.607030561775
 10
1743.813987979207
 20
2684.885581384591
 10
1734.189812331903
 20
2691.789381360479
 10
1723.471861163358
 20
2696.876197677432
 10
1713.411110274006
 20
2702.618079691089
 10
1706.363337055684
 20
2712.441167518365
 10
1699.942532246918
 20
2721.630902506107
 10
1692.134074963048
 20
2726.373993089902
 10
1687.446541476428
 20
2728.942842380846
 10
1684.855032771373
 20
2733.333166646822
 10
1684.17826387624
 20
2738.932891261973
 10
1685.234949819397
 20
2745.129980235421
 10
1687.84381528795
 20
2751.3123782588
 10
1691.823575310256
 20
2756.868020364997
 10
1696.992935255939
 20
2761.184870563134
 10
1703.170619812102
 20
2763.650863886102
 10
1720.998092551235
 20
2768.44847808143
 10
1729.305317731657
 20
2770.886461045947
 10
1735.823656540296
 20
2771.175238182824
 10
1742.778995575732
 20
2769.004300180523
 10
1752.397211777806
 20
2764.063157044998
  0
LWPOLYLINE
  5
1881
330
1836
100
AcDbEntity
  8
0
  6
ByBlock
 62
     0
370
    -2
100
AcDbPolyline
 90
       35
 70
     0
 43
0.0
 10
-721.1652924008356
 20
2894.98880748004
 10
-712.2724285776869
 20
2887.611806303744
 10
-704.1385488810922
 20
2883.914786703128
 10
-699.9059325919345
 20
2882.690202807925
 10
-697.7803617115784
 20
2878.922529492805
 10
-697.7496951984478
 20
2853.871803469034
 10
-699.8967761023448
 20
2829.621816323396
 10
-703.3650766380981
 20
2811.988136629761
 10
-706.0015467978389
 20
2799.723656301232
 10
-704.0329208535024
 20
2789.158603054846
 10
-702.1746170864819
 20
2779.796797537522
 10
-706.6157270299511
 20
2772.264754197832
 10
-712.8084502509785
 20
2766.995909185931
 10
-717.9367895096472
 20
2765.298761567442
 10
-721.0002437783548
 20
2767.154467132247
 10
-720.9983313469845
 20
2772.544162352744
 10
-720.9191586200138
 20
2777.08916174983
 10
-722.5697800672439
 20
2782.353351246981
 10
-729.6778141912097
 20
2793.40549496807
 10
-739.5573284026461
 20
2802.433011345409
 10
-744.6723096179582
 20
2805.166407004131
 10
-749.4432463615487
 20
2806.168308549657
 10
-754.7485048394348
 20
2806.678454446988
 10
-757.7278893978148
 20
2810.07318432746
 10
-759.4314311050268
 20
2819.148878521334
 10
-760.9091223944326
 20
2836.701955993843
 10
-761.6532127372868
 20
2860.435721891991
 10
-759.900527339111
 20
2873.331420477564
 10
-754.5747730058349
 20
2888.944094856561
 10
-752.0235412644804
 20
2894.917835026974
 10
-747.4051933632329
 20
2899.808994160782
 10
-741.2324347666587
 20
2903.223679006964
 10
-734.0179805980713
 20
2904.768025290737
 10
-728.8323553269995
 20
2901.982907056325
 10
-721.1652924008356
 20
2894.98880748004
  0
LWPOLYLINE
  5
1882
330
1836
100
AcDbEntity
  8
0
  6
ByBlock
 62
     0
370
    -2
100
AcDbPolyline
 90
       57
 70
     0
 43
0.0
 10
-1872.097292626087
 20
3971.329580526288
 10
-1852.24922989832
 20
3973.043495724873
 10
-1840.015734821484
 20
3973.904611413581
 10
-1832.01869055529
 20
3972.247875981214
 10
-1829.958432103844
 20
3970.648803252276
 10
-1829.376792181257
 20
3968.628474049739
 10
-1833.208725122158
 20
3963.601609558612
 10
-1842.885714783255
 20
3951.549669898255
 10
-1848.283243245374
 20
3933.574389395204
 10
-1852.795267689443
 20
3907.091715894999
 10
-1854.962583662634
 20
3883.121136904273
 10
-1854.710963715054
 20
3875.521472695786
 10
-1853.325967394629
 20
3872.682159247146
 10
-1849.227462769982
 20
3870.990014858199
 10
-1844.772135154914
 20
3866.862756151792
 10
-1841.193995379058
 20
3861.724139989195
 10
-1839.727063930795
 20
3856.997932890426
 10
-1841.481768006528
 20
3851.55552990232
 10
-1846.246262367675
 20
3850.396538539611
 10
-1853.271125044533
 20
3853.403720964067
 10
-1861.806963043631
 20
3860.459839337457
 10
-1870.243354611487
 20
3867.800852032518
 10
-1877.328487852733
 20
3871.943603364773
 10
-1882.206916761562
 20
3872.548202122544
 10
-1884.02316635593
 20
3869.274766752905
 10
-1885.506604598191
 20
3866.761020598153
 10
-1888.98049754689
 20
3865.959798782805
 10
-1892.980193217418
 20
3866.853551368481
 10
-1896.041039625167
 20
3869.424689781823
 10
-1896.394134340291
 20
3873.382379573421
 10
-1894.153344299262
 20
3877.902285552833
 10
-1892.141282981839
 20
3882.262899521363
 10
-1896.415856856206
 20
3884.921517181768
 10
-1913.780347346392
 20
3892.129847706473
 10
-1919.036732578155
 20
3895.171801610385
 10
-1919.909400125039
 20
3896.098297339214
 10
-1919.269237870779
 20
3896.45553565564
 10
-1916.957745821525
 20
3898.478675552767
 10
-1917.143019854556
 20
3903.481576699302
 10
-1917.53157181998
 20
3907.036284361502
 10
-1916.387435605993
 20
3909.81379150541
 10
-1908.399654075576
 20
3914.415903057502
 10
-1901.037237603162
 20
3918.220366529633
 10
-1896.565779885124
 20
3922.728237713657
 10
-1895.296418051376
 20
3927.440555538132
 10
-1897.540289231835
 20
3931.858349272877
 10
-1900.816873352114
 20
3938.025196717943
 10
-1901.072482361087
 20
3945.384841130746
 10
-1898.627516124446
 20
3951.907545691804
 10
-1893.802384166627
 20
3955.563573581639
 10
-1888.798623391851
 20
3958.352526337534
 10
-1888.701514376727
 20
3963.083688372126
 10
-1889.697002516043
 20
3968.234764314862
 10
-1888.546481872079
 20
3972.059182752704
 10
-1885.568739300228
 20
3974.103040656339
 10
-1881.08259063212
 20
3973.912386702738
 10
-1872.097292626087
 20
3971.329580526288
  0
LWPOLYLINE
  5
1883
330
1836
100
AcDbEntity
  8
0
  6
ByBlock
 62
     0
370
    -2
100
AcDbPolyline
 90
       27
 70
     0
 43
0.0
 10
-206.3457701758464
 20
2614.502475919219
 10
-205.7050766906507
 20
2599.660675581001
 10
-206.8040582750666
 20
2586.109109622948
 10
-209.5053772439921
 20
2574.745712867013
 10
-213.6716669360883
 20
2566.468468428876
 10
-222.547917719053
 20
2546.528406161717
 10
-230.7331143240774
 20
2530.06500890287
 10
-242.0552392656466
 20
2513.682426357525
 10
-253.5690323289689
 20
2501.114622823214
 10
-258.4774130038506
 20
2497.428140912623
 10
-262.3292236405075
 20
2496.095591573711
 10
-267.7248300125114
 20
2498.471826185962
 10
-271.1066654693534
 20
2505.333031099516
 10
-271.4071586630569
 20
2519.1642273636
 10
-269.4242667533988
 20
2541.915225688667
 10
-266.0141118582894
 20
2566.126075602429
 10
-262.032787119407
 20
2584.336836291346
 10
-257.357838976601
 20
2601.98371948843
 10
-255.4888912733693
 20
2606.560013217026
 10
-251.7109410543223
 20
2610.835697846986
 10
-236.828303545233
 20
2619.879344327295
 10
-223.0539200150813
 20
2627.321088066588
 10
-216.0977213514032
 20
2632.401510294819
 10
-212.8648044140734
 20
2635.675322355486
 10
-210.2186948275277
 20
2633.887566056783
 10
-208.0741155384032
 20
2626.882020868511
 10
-206.3457701758464
 20
2614.502475919219
  0
LWPOLYLINE
  5
1884
330
1836
100
AcDbEntity
  8
0
  6
ByBlock
 62
     0
370
    -2
100
AcDbPolyline
 90
       44
 70
     0
 43
0.0
 10
189.0889488201871
 20
3837.981275553923
 10
192.3025386101869
 20
3830.314212627759
 10
192.227152110979
 20
3822.276601635533
 10
191.3465547350304
 20
3817.790501261147
 10
192.0210055315308
 20
3815.595126635784
 10
200.5139297297339
 20
3816.286402964844
 10
208.6030797815081
 20
3816.91890583488
 10
213.1042477969911
 20
3814.957523948763
 10
217.4993628001359
 20
3812.408368837433
 10
224.9381219874428
 20
3811.349094350805
 10
232.6682661725856
 20
3810.016110368398
 10
238.3006373434471
 20
3806.376434732652
 10
241.3193233323557
 20
3800.968948105167
 10
241.2084216303822
 20
3794.332579441267
 10
240.8106069291814
 20
3788.976583579609
 10
242.3601206411502
 20
3785.688022616407
 10
241.7254928473706
 20
3779.885657545984
 10
236.0768853273514
 20
3768.484099091349
 10
230.670577066671
 20
3760.019658530068
 10
226.270835525009
 20
3755.518538808304
 10
221.1791801771653
 20
3753.881555508017
 10
213.6971304979363
 20
3754.009495234924
 10
201.9305584377191
 20
3753.111647341667
 10
197.8636185894209
 20
3750.834550080841
 10
194.1455139500146
 20
3747.03114907058
 10
187.7532507306352
 20
3739.139636244534
 10
184.6593327824269
 20
3747.273081297636
 10
180.8907612040891
 20
3754.334048360661
 10
176.1715180599551
 20
3759.887246804551
 10
171.7103951983106
 20
3767.946580312693
 10
168.5628132668105
 20
3781.040341108741
 10
166.044749653359
 20
3792.819691687657
 10
163.097354856078
 20
3797.719524373839
 10
161.2535295467526
 20
3798.970041997471
 10
161.3902490722218
 20
3801.97876016227
 10
161.0959374748656
 20
3808.394030510555
 10
158.2179697315639
 20
3817.840176183047
 10
155.2369238691656
 20
3828.811978469105
 10
156.1628304145936
 20
3832.858152017172
 10
158.7393004547855
 20
3837.432687854306
 10
165.3822756997822
 20
3843.411170468168
 10
173.8029524906726
 20
3845.516718771605
 10
182.2792153549701
 20
3843.717410614726
 10
189.0889488201871
 20
3837.981275553923
  0
LWPOLYLINE
  5
1885
330
1836
100
AcDbEntity
  8
0
  6
ByBlock
 62
     0
370
    -2
100
AcDbPolyline
 90
       39
 70
     0
 43
0.0
 10
756.7026071442458
 20
2485.338454879567
 10
765.7799046896723
 20
2480.185196060622
 10
768.8714755630178
 20
2480.442833405897
 10
771.9643213906081
 20
2482.404688570484
 10
775.2024057561345
 20
2484.177010195808
 10
778.7739969033589
 20
2483.524446113875
 10
790.8480937231268
 20
2472.983249965894
 10
800.2238464672098
 20
2461.455722168187
 10
804.061101376217
 20
2451.265379906653
 10
802.4333325179838
 20
2441.756095022717
 10
795.413994642862
 20
2432.271720040314
 10
786.4150681486306
 20
2423.272803204826
 10
780.2068040080346
 20
2430.939431487496
 10
776.0088915871226
 20
2439.083105150804
 10
775.9203015844666
 20
2448.197878624088
 10
776.1946002636466
 20
2455.68178278222
 10
774.0871298700956
 20
2460.106714328999
 10
772.4314568996012
 20
2460.1009577174
 10
771.260691527598
 20
2457.707057261837
 10
770.3355866579466
 20
2445.601443959442
 10
769.0965725987678
 20
2432.690832272681
 10
766.0763412107724
 20
2425.40242109904
 10
756.8717027805858
 20
2422.340454276954
 10
740.7185347296897
 20
2419.725706633129
 10
722.5081507318007
 20
2418.922833172506
 10
718.5835228219182
 20
2420.648097395634
 10
716.0149343170694
 20
2424.168941500342
 10
713.468763757725
 20
2431.509741703028
 10
712.4099142558468
 20
2439.696435413418
 10
711.2151951979965
 20
2447.816676963071
 10
708.3414869609275
 20
2454.999035124372
 10
706.1278573088509
 20
2462.575315512925
 10
708.5493431381162
 20
2470.332726333206
 10
715.3919163339294
 20
2477.916994503289
 10
726.4415584402456
 20
2484.973866258735
 10
737.2039688087722
 20
2490.249887717646
 10
743.8912390550965
 20
2492.045902242721
 10
749.4189384140542
 20
2490.397048345696
 10
756.7026071442458
 20
2485.338454879567
  0
LWPOLYLINE
  5
1886
330
1836
100
AcDbEntity
  8
0
  6
ByBlock
 62
     0
370
    -2
100
AcDbPolyline
 90
       38
 70
     0
 43
0.0
 10
-1028.972096941848
 20
3060.594894046637
 10
-1014.771250874922
 20
3043.871898717424
 10
-1006.232862967331
 20
3031.248306276077
 10
-1003.025329210003
 20
3022.109839903042
 10
-1004.817084228844
 20
3015.842203461277
 10
-1005.947756153286
 20
3013.710450984574
 10
-1005.539027071034
 20
3011.747369159461
 10
-999.77755712395
 20
3007.81097689903
 10
-993.712338986336
 20
3004.098889657317
 10
-991.6641249890238
 20
3000.408843670082
 10
-993.6351463019452
 20
2996.877886860099
 10
-999.6276340950318
 20
2993.643047832654
 10
-1007.140079842551
 20
2988.926789240507
 10
-1013.492307566836
 20
2982.040867600306
 10
-1017.311993219973
 20
2973.608001474117
 10
-1013.485498152109
 20
2965.16746630496
 10
-1009.958945729523
 20
2957.283719109323
 10
-1010.351399827642
 20
2955.193769677922
 10
-1011.940243946373
 20
2954.360915475013
 10
-1017.984850323666
 20
2956.533881813616
 10
-1026.648251358642
 20
2963.937396242997
 10
-1037.021530237088
 20
2979.431557829517
 10
-1048.02538023671
 20
3001.807159398887
 10
-1056.242412062924
 20
3023.27042495856
 10
-1058.237937610117
 20
3031.224391225207
 10
-1058.255226762402
 20
3036.027597833481
 10
-1058.848959432845
 20
3040.951277959323
 10
-1062.759794655877
 20
3046.314517879201
 10
-1068.474313446952
 20
3053.258942533586
 10
-1072.997310224538
 20
3061.890981625844
 10
-1075.552531027286
 20
3070.338393820938
 10
-1075.363741211331
 20
3076.728899148856
 10
-1072.475342024193
 20
3079.988503196668
 10
-1067.196220108363
 20
3082.593872199785
 10
-1060.626554732553
 20
3084.157874028194
 10
-1053.866505847979
 20
3084.293308940672
 10
-1044.960003877888
 20
3077.157805347936
 10
-1028.972096941848
 20
3060.594894046637
  0
LWPOLYLINE
  5
1887
330
1836
100
AcDbEntity
  8
0
  6
ByBlock
 62
     0
370
    -2
100
AcDbPolyline
 90
       39
 70
     0
 43
0.0
 10
-1614.791454772814
 20
4072.897139626317
 10
-1608.024374322395
 20
4070.374816506633
 10
-1601.257293871977
 20
4072.897139626317
 10
-1594.880726112073
 20
4075.773030739596
 10
-1588.332628712268
 20
4076.977910796443
 10
-1582.760103121047
 20
4076.448225259407
 10
-1579.310279763126
 20
4074.120390614808
 10
-1579.87420554868
 20
4069.608578663115
 10
-1583.84211429174
 20
4062.988436689628
 10
-1589.926698211663
 20
4053.52317636218
 10
-1595.522221273046
 20
4041.955033544719
 10
-1599.619557189634
 20
4030.663517163815
 10
-1601.209589333913
 20
4022.028174781011
 10
-1603.883110436762
 20
4014.917368597433
 10
-1610.310734318999
 20
4007.032240201362
 10
-1619.411879304085
 20
3998.598939431681
 10
-1628.386948699913
 20
4007.195791718477
 10
-1634.993568431389
 20
4013.14871729494
 10
-1639.548719168727
 20
4015.14182815606
 10
-1644.002926369457
 20
4013.181518390559
 10
-1650.306705832368
 20
4007.274162769673
 10
-1659.524769917122
 20
3999.885600076457
 10
-1663.218998140636
 20
3998.630330350633
 10
-1666.398115872253
 20
3999.041474118958
 10
-1671.495363633043
 20
4004.984238696424
 10
-1675.385113817283
 20
4017.956337949356
 10
-1677.454258313478
 20
4028.916269638678
 10
-1677.647626374227
 20
4035.856647279203
 10
-1675.607448452166
 20
4041.153174252249
 10
-1670.975954999936
 20
4047.181544280384
 10
-1662.542654230254
 20
4060.351116560389
 10
-1659.530516869977
 20
4062.572733993996
 10
-1652.286400697664
 20
4063.496138924652
 10
-1643.265326702769
 20
4065.398312708252
 10
-1636.196700255518
 20
4070.310923913134
 10
-1631.338448463518
 20
4074.870817093919
 10
-1626.517566353187
 20
4076.777733320967
 10
-1621.184944652719
 20
4076.097796357709
 10
-1614.791454772814
 20
4072.897139626317
  0
LWPOLYLINE
  5
1888
330
1836
100
AcDbEntity
  8
0
  6
ByBlock
 62
     0
370
    -2
100
AcDbPolyline
 90
       39
 70
     0
 43
0.0
 10
-678.4195536571671
 20
3910.732511945085
 10
-679.2271019500274
 20
3904.650738719752
 10
-683.5306423985295
 20
3901.024846112111
 10
-688.7812710186937
 20
3898.440021258106
 10
-691.7948475318715
 20
3895.107059047388
 10
-692.8374606845929
 20
3890.505266233859
 10
-692.1751992233906
 20
3884.113959230164
 10
-687.7495819057678
 20
3875.167904702193
 10
-678.9370498589049
 20
3864.453730102665
 10
-668.3324440546386
 20
3854.706192973251
 10
-658.5306054648079
 20
3848.660041196871
 10
-652.6008898508828
 20
3843.743605129249
 10
-648.9149391712278
 20
3835.527954503468
 10
-648.219992519337
 20
3829.916504172746
 10
-649.0312207937729
 20
3824.875586208673
 10
-656.2646833711294
 20
3813.175456650448
 10
-664.5570051091083
 20
3804.739180987523
 10
-670.9914384060714
 20
3801.375658509863
 10
-678.8418532751514
 20
3803.546751052072
 10
-687.3145520628051
 20
3808.443010002866
 10
-694.4149171438023
 20
3814.643247726952
 10
-698.1483598691468
 20
3820.726237954067
 10
-703.6777012146342
 20
3828.907387545232
 10
-714.435697537019
 20
3838.41741615248
 10
-725.8010550180444
 20
3848.643003171938
 10
-728.2011370699544
 20
3853.266730993757
 10
-728.9171108081716
 20
3858.255259928784
 10
-726.7498527874461
 20
3866.771828733017
 10
-721.1469794216557
 20
3875.693446637927
 10
-713.4568707316086
 20
3883.338564897055
 10
-705.0278777618816
 20
3888.025644422693
 10
-700.0432895945266
 20
3891.288648348496
 10
-700.1110167095105
 20
3897.02798045366
 10
-699.7643160831087
 20
3904.071909491753
 10
-694.291188629408
 20
3911.703621413804
 10
-688.0181819258153
 20
3916.945837267689
 10
-683.3551623322116
 20
3918.535869411968
 10
-680.1922519735183
 20
3916.466995360613
 10
-678.4195536571671
 20
3910.732511945085
  0
LWPOLYLINE
  5
1889
330
1836
100
AcDbEntity
  8
0
  6
ByBlock
 62
     0
370
    -2
100
AcDbPolyline
 90
       27
 70
     0
 43
0.0
 10
-1600.715515587086
 20
3938.519801695706
 10
-1579.913391074278
 20
3916.893081206359
 10
-1571.337459627619
 20
3906.738514933689
 10
-1567.576499139784
 20
3898.011858782335
 10
-1568.706205189797
 20
3891.164813587914
 10
-1574.802302332916
 20
3886.649060868548
 10
-1581.444157163574
 20
3885.103806662812
 10
-1586.649805011566
 20
3885.388324293455
 10
-1590.785099793225
 20
3883.912072156949
 10
-1594.861621115862
 20
3878.12717009621
 10
-1599.771402308667
 20
3871.755827716969
 10
-1606.519580596503
 20
3869.453231371209
 10
-1614.619007552204
 20
3871.236303178931
 10
-1623.582525089858
 20
3877.121994236368
 10
-1628.097592038379
 20
3881.687576417542
 10
-1630.960810879145
 20
3886.573249384591
 10
-1633.143667771904
 20
3900.80337110547
 10
-1634.701700496339
 20
3913.238222024585
 10
-1637.839063476377
 20
3920.896765938282
 10
-1640.750247641303
 20
3924.291746946107
 10
-1641.834229195833
 20
3927.604638286183
 10
-1638.776087236487
 20
3938.904828219463
 10
-1636.569112459229
 20
3943.362502909396
 10
-1633.591321593657
 20
3946.02330344601
 10
-1622.096903971387
 20
3947.644794120452
 10
-1609.876718644187
 20
3945.699175305021
 10
-1600.715515587086
 20
3938.519801695706
  0
LWPOLYLINE
  5
188A
330
1836
100
AcDbEntity
  8
0
  6
ByBlock
 62
     0
370
    -2
100
AcDbPolyline
 90
       28
 70
     0
 43
0.0
 10
865.0917606474846
 20
2817.508108993283
 10
864.3632208829419
 20
2812.893653565986
 10
860.8350747675483
 20
2806.743303256172
 10
844.1635605454173
 20
2788.122760681874
 10
827.9690723864348
 20
2770.493765479221
 10
819.9063293415591
 20
2758.982734816767
 10
816.8907244920807
 20
2753.205965418723
 10
812.0653897006311
 20
2748.057410408248
 10
799.4219388810168
 20
2740.577282819133
 10
792.8220223180804
 20
2738.711850898825
 10
786.8487650848799
 20
2738.406934000235
 10
782.111286231521
 20
2739.895607281902
 10
779.2186565143818
 20
2743.410955561107
 10
776.8591508472471
 20
2753.457546731326
 10
778.0167030570571
 20
2762.856944081439
 10
782.8785189257012
 20
2772.192448838054
 10
791.6317849175818
 20
2782.047381545265
 10
803.6121822589601
 20
2792.41607252017
 10
812.0761398830289
 20
2797.867902442705
 10
816.2881057768879
 20
2800.169165881753
 10
818.0390815773233
 20
2802.96876257386
 10
822.2561569469132
 20
2808.254056427293
 10
832.3944289179614
 20
2816.526780573101
 10
844.3645396966692
 20
2823.452621803466
 10
854.4279081057245
 20
2825.943959671458
 10
861.648862609222
 20
2823.972040095318
 10
863.9010499685161
 20
2821.303377340848
 10
865.0917606474846
 20
2817.508108993283
  0
LWPOLYLINE
  5
188B
330
1836
100
AcDbEntity
  8
0
  6
ByBlock
 62
     0
370
    -2
100
AcDbPolyline
 90
       33
 70
     0
 43
0.0
 10
1901.589894746017
 20
4023.748909053063
 10
1904.130105860133
 20
4018.028314911828
 10
1910.237861107614
 20
4011.676512172293
 10
1915.915850527771
 20
4005.604542572417
 10
1916.586312262879
 20
4003.093713358441
 10
1915.795309398993
 20
4000.963670479478
 10
1913.546859973741
 20
3994.811620230669
 10
1912.476516566153
 20
3985.511147739606
 10
1911.398504115598
 20
3976.44833831062
 10
1909.137266512901
 20
3970.866173292593
 10
1905.999121174574
 20
3969.749284396257
 10
1901.285199998547
 20
3970.442328275522
 10
1889.588634516965
 20
3975.775799945489
 10
1878.964759517835
 20
3983.901846400462
 10
1875.591694200812
 20
3988.085599102241
 10
1874.330754792087
 20
3991.855716079666
 10
1872.124890770423
 20
3993.48018164735
 10
1865.812273556484
 20
3991.940896545587
 10
1857.293792320882
 20
3990.441646938919
 10
1850.96285246902
 20
3988.792464644589
 10
1847.636332640745
 20
3987.455597846977
 10
1845.106823415306
 20
3987.726805727984
 10
1840.740674986296
 20
3993.944438850543
 10
1837.992617353737
 20
4004.049494399968
 10
1836.849437355435
 20
4016.354860193088
 10
1836.849437355435
 20
4030.222952860373
 10
1861.553028109311
 20
4028.049030306086
 10
1880.579914056021
 20
4027.434000104476
 10
1891.204165746178
 20
4029.129177339131
 10
1895.371295749028
 20
4030.956978791674
 10
1898.658688004171
 20
4030.582856990224
 10
1900.815244136219
 20
4028.13682829171
 10
1901.589894746017
 20
4023.748909053063
  0
LWPOLYLINE
  5
188C
330
1836
100
AcDbEntity
  8
0
  6
ByBlock
 62
     0
370
    -2
100
AcDbPolyline
 90
       29
 70
     0
 43
0.0
 10
-569.6112879215623
 20
2657.053996632641
 10
-558.6965591555329
 20
2651.929173156894
 10
-547.6259382566129
 20
2642.362177275807
 10
-540.9112468352398
 20
2633.123559383196
 10
-540.5973183282242
 20
2630.118202461412
 10
-543.0642968431095
 20
2628.983898849116
 10
-549.6865637403409
 20
2627.046374061404
 10
-557.831937342645
 20
2622.387188989284
 10
-566.026869961917
 20
2618.409534573232
 10
-577.3175363733233
 20
2615.753418527599
 10
-591.1132657283626
 20
2614.511159130339
 10
-606.8234258135096
 20
2614.775074659404
 10
-615.4743670683494
 20
2618.007837056826
 10
-623.1516489459743
 20
2627.062127473346
 10
-630.4720015869927
 20
2635.664089235874
 10
-637.9124703720387
 20
2639.839854156122
 10
-643.1969142559739
 20
2642.3874059159
 10
-645.3482546661041
 20
2647.130815238256
 10
-644.2221126927354
 20
2652.626833915932
 10
-639.6740901086862
 20
2657.432223400415
 10
-633.8223205612055
 20
2659.107803042898
 10
-627.7482163788415
 20
2655.728527153295
 10
-619.4083060077298
 20
2650.121336328805
 10
-611.6210303500941
 20
2648.115553195173
 10
-604.5901985692628
 20
2649.716924705252
 10
-598.5196101698222
 20
2654.931188153153
 10
-592.0868768118541
 20
2660.776573270656
 10
-586.2495857220689
 20
2661.04064333963
 10
-569.6112879215623
 20
2657.053996632641
  0
LWPOLYLINE
  5
188D
330
1836
100
AcDbEntity
  8
0
  6
ByBlock
 62
     0
370
    -2
100
AcDbPolyline
 90
       39
 70
     0
 43
0.0
 10
-954.8851624611341
 20
2644.521611713654
 10
-942.0686752375093
 20
2636.964436321314
 10
-935.4493928922641
 20
2630.46271055286
 10
-935.0749523522528
 20
2625.272555330714
 10
-937.0282885043728
 20
2620.374693028368
 10
-940.3431019345646
 20
2617.242082150522
 10
-944.0530545937884
 20
2617.347652225646
 10
-949.1147388580909
 20
2618.073004604571
 10
-956.9261903526923
 20
2617.119358145534
 10
-964.2904130102889
 20
2614.037368746528
 10
-965.3403185149521
 20
2611.653049765303
 10
-964.9642263296666
 20
2608.348725731414
 10
-963.3940042699325
 20
2604.390514367624
 10
-960.8408504384639
 20
2602.097866528486
 10
-950.397622933848
 20
2601.366979689081
 10
-945.5419790028065
 20
2598.768043409663
 10
-939.9292633765815
 20
2592.02178721194
 10
-935.2914820818156
 20
2583.677665628317
 10
-933.3606604626423
 20
2576.28516216743
 10
-936.0452021927301
 20
2570.854262743778
 10
-942.31741687929
 20
2565.924565220241
 10
-949.5051549611632
 20
2563.046327032099
 10
-954.9362668771889
 20
2563.769815273376
 10
-962.0849836321179
 20
2565.752494690659
 10
-973.5372215180598
 20
2565.759729090135
 10
-985.299543730788
 20
2565.574455057104
 10
-986.0913386117065
 20
2567.358705231629
 10
-984.5601378789167
 20
2570.891265393165
 10
-981.9900619274461
 20
2578.999472147429
 10
-981.2162129934252
 20
2589.447925032708
 10
-982.2242092066005
 20
2600.895594332599
 10
-984.9996976729528
 20
2612.001450330701
 10
-987.0718170623906
 20
2622.409336489948
 10
-985.3844634106136
 20
2625.724729444798
 10
-981.5923051787111
 20
2629.239449905624
 10
-976.3836727787335
 20
2636.023143396226
 10
-974.2493703935362
 20
2644.010499941895
 10
-973.1828518486889
 20
2652.835646308805
 10
-954.8851624611341
 20
2644.521611713654
  0
LWPOLYLINE
  5
188E
330
1836
100
AcDbEntity
  8
0
  6
ByBlock
 62
     0
370
    -2
100
AcDbPolyline
 90
       41
 70
     0
 43
0.0
 10
-7.779972091004992
 20
3809.638579030212
 10
-6.673582249715536
 20
3802.374981170661
 10
-8.553019349249325
 20
3795.359902801773
 10
-13.02059425208176
 20
3789.405383532503
 10
-19.67858884445354
 20
3785.323433995574
 10
-27.98708897912388
 20
3779.821339967738
 10
-32.13260271224612
 20
3770.041272187543
 10
-35.09980759407222
 20
3759.831235746396
 10
-39.40227592195765
 20
3753.734346586245
 10
-46.22962693676504
 20
3750.784604714101
 10
-56.77146056186962
 20
3750.016029454463
 10
-69.64714622926726
 20
3748.77531545629
 10
-71.00743548179003
 20
3746.193735940367
 10
-70.43510658870104
 20
3741.388510654536
 10
-71.05354632704552
 20
3733.203951526635
 10
-77.25330111391873
 20
3726.102948968513
 10
-83.25206709079589
 20
3722.311476507456
 10
-87.81493516482418
 20
3721.370077336182
 10
-90.71733953118723
 20
3723.250007031676
 10
-91.73471438507135
 20
3727.922492194687
 10
-95.1067558751995
 20
3733.97828339787
 10
-103.214218906153
 20
3741.848508351496
 10
-114.6937234272338
 20
3751.007576826108
 10
-103.8854726582924
 20
3760.49716753043
 10
-94.45210550449997
 20
3767.037228854983
 10
-91.00265883760698
 20
3767.753154299479
 10
-88.1467323487816
 20
3766.868992846885
 10
-81.45402422941993
 20
3764.163520617914
 10
-74.50224927062823
 20
3764.159261111681
 10
-67.64567089558955
 20
3766.788496871947
 10
-61.23855252748694
 20
3771.983491124983
 10
-53.60471568169192
 20
3778.173867271148
 10
-46.24942736256594
 20
3781.353815654774
 10
-40.15446029252939
 20
3784.085269905893
 10
-35.55703323141984
 20
3789.201043138238
 10
-26.6600161482254
 20
3803.972460206792
 10
-18.71173888196722
 20
3812.561701403086
 10
-15.25889233708244
 20
3814.416508704672
 10
-12.24184833470394
 20
3814.579992610577
 10
-9.726798249471585
 20
3813.003550319518
 10
-7.779972091004992
 20
3809.638579030212
  0
LWPOLYLINE
  5
188F
330
1836
100
AcDbEntity
  8
0
  6
ByBlock
 62
     0
370
    -2
100
AcDbPolyline
 90
       28
 70
     0
 43
0.0
 10
1530.184112873728
 20
3979.851471298628
 10
1529.267102031795
 20
3976.07394606433
 10
1527.059538071134
 20
3973.377417832574
 10
1526.347389195658
 20
3968.138553562959
 10
1529.233450966677
 20
3957.962380679303
 10
1532.815473557738
 20
3945.259190526236
 10
1531.823810281163
 20
3940.944851601614
 10
1528.95063327503
 20
3935.957433422182
 10
1525.008706554119
 20
3927.438952186579
 10
1523.369327885247
 20
3918.920470950977
 10
1522.417236484039
 20
3913.242848563101
 10
1519.831919034076
 20
3909.057299334885
 10
1516.019786518975
 20
3906.391582497423
 10
1511.387230604871
 20
3905.273437964331
 10
1506.340681592877
 20
3905.730634625444
 10
1501.286550466611
 20
3907.790922053123
 10
1496.631238550953
 20
3911.482040160976
 10
1492.78116648827
 20
3916.831748180099
 10
1490.43341551294
 20
3927.505404347316
 10
1489.434682035542
 20
3944.156480666523
 10
1489.889406058117
 20
3960.481719247001
 10
1491.902056558943
 20
3970.177881515521
 10
1498.185398118928
 20
3975.437772871462
 10
1508.52757584075
 20
3981.056409307939
 10
1519.037149259916
 20
3985.208790408253
 10
1525.822648935701
 20
3986.069964049431
 10
1528.902928736967
 20
3983.553600374973
 10
1530.184112873728
 20
3979.851471298628
  0
LWPOLYLINE
  5
1890
330
1836
100
AcDbEntity
  8
0
  6
ByBlock
 62
     0
370
    -2
100
AcDbPolyline
 90
       27
 70
     0
 43
0.0
 10
2302.473024469106
 20
3708.953539396247
 10
2304.600729931951
 20
3703.776858122392
 10
2304.286617908794
 20
3696.760186060694
 10
2301.972778784677
 20
3690.185623701526
 10
2298.101341579617
 20
3686.335271535257
 10
2294.715671601291
 20
3681.568758496553
 10
2293.330994019428
 20
3672.133256760272
 10
2292.554363367051
 20
3663.708697154176
 10
2290.447173077085
 20
3657.054479130822
 10
2287.101973237346
 20
3652.208638825238
 10
2282.611342911887
 20
3649.209173737473
 10
2277.067812871033
 20
3648.094100685064
 10
2270.56397183758
 20
3648.901446144293
 10
2263.192360240599
 20
3651.669207615211
 10
2255.045528167906
 20
3656.435401915354
 10
2246.077702830299
 20
3663.252746471074
 10
2242.376848708199
 20
3667.509432351009
 10
2243.477491596634
 20
3674.964746626036
 10
2246.592214480048
 20
3680.768869587917
 10
2251.91557344474
 20
3685.15657633419
 10
2259.642105259517
 20
3688.362670938619
 10
2271.323071869066
 20
3694.089639851087
 10
2280.451048845797
 20
3702.448829075808
 10
2286.250429364232
 20
3708.729775267209
 10
2291.991036423642
 20
3711.948213746844
 10
2297.467138770585
 20
3712.043139885757
 10
2302.473024469106
 20
3708.953539396247
  0
LWPOLYLINE
  5
1891
330
1836
100
AcDbEntity
  8
0
  6
ByBlock
 62
     0
370
    -2
100
AcDbPolyline
 90
       24
 70
     0
 43
0.0
 10
712.4099142558468
 20
2671.992007722763
 10
711.6060845795389
 20
2651.995461118978
 10
708.3023014353309
 20
2640.783272004953
 10
705.2946553911485
 20
2637.844705299956
 10
701.1600850153106
 20
2636.350304382923
 10
688.8409844878058
 20
2636.691422255124
 10
678.4535458902261
 20
2636.943563774896
 10
672.1345345875659
 20
2635.049059034265
 10
668.6261985567169
 20
2633.301917755314
 10
665.0028655163148
 20
2633.910988511694
 10
662.3503714997921
 20
2637.01640036561
 10
661.3931513053655
 20
2641.044367180685
 10
662.1666911595682
 20
2644.533105619363
 10
664.7064193364692
 20
2646.020861320322
 10
667.1128858183581
 20
2648.432021951937
 10
668.1138118307115
 20
2654.229267887883
 10
673.3260083073335
 20
2665.143735867816
 10
685.3599054333515
 20
2680.654027557306
 10
698.8114937292273
 20
2694.529402917787
 10
704.3801654814758
 20
2698.906900371341
 10
708.2767443979316
 20
2700.539141228181
 10
710.1501737585147
 20
2698.905239067322
 10
711.4345452808936
 20
2693.803152275642
 10
712.4099142558468
 20
2671.992007722763
  0
LWPOLYLINE
  5
1892
330
1836
100
AcDbEntity
  8
0
  6
ByBlock
 62
     0
370
    -2
100
AcDbPolyline
 90
       22
 70
     0
 43
0.0
 10
907.2309882020096
 20
3958.718814897365
 10
910.7201612841807
 20
3950.245488291331
 10
910.8053417501011
 20
3936.349288678154
 10
907.9801880205948
 20
3922.353420482617
 10
905.1018435862649
 20
3918.939324819837
 10
900.5729453159153
 20
3916.617082588184
 10
893.2628116263602
 20
3914.70383022488
 10
887.9689987604614
 20
3914.773682263608
 10
881.2973273861706
 20
3913.427755563849
 10
870.6696661592776
 20
3908.11562971877
 10
860.3759366988304
 20
3902.915265203906
 10
851.3855292170653
 20
3900.358276850954
 10
844.3807857045692
 20
3900.545308775445
 10
840.0440191756986
 20
3903.576985775428
 10
840.5534310084629
 20
3906.695176148046
 10
844.9370424471551
 20
3909.079929772762
 10
854.5075541111653
 20
3916.747833009681
 10
867.4973868186187
 20
3932.560269538149
 10
886.7883331755582
 20
3955.91069919279
 10
894.4532615192336
 20
3962.396410763206
 10
900.04820505596
 20
3964.681756591659
 10
907.2309882020096
 20
3958.718814897365
  0
LWPOLYLINE
  5
1893
330
1836
100
AcDbEntity
  8
0
  6
ByBlock
 62
     0
370
    -2
100
AcDbPolyline
 90
       18
 70
     0
 43
0.0
 10
-152.2159359872246
 20
2645.421159545906
 10
-147.6420955796791
 20
2641.886474460626
 10
-147.1810837145683
 20
2636.591328688014
 10
-151.3347494278735
 20
2627.593841346682
 10
-160.6049320968338
 20
2612.952121896496
 10
-172.6499560962777
 20
2596.770518502401
 10
-176.9680426136854
 20
2593.092063008318
 10
-180.3141407166424
 20
2592.401279275217
 10
-182.8114766648407
 20
2594.73274560767
 10
-184.5832863767166
 20
2600.121049968989
 10
-186.4431934952897
 20
2620.20645702027
 10
-186.1944518535081
 20
2641.337403823794
 10
-185.0526530556406
 20
2647.010921245345
 10
-183.1959429814285
 20
2649.762175922265
 10
-177.7319237235958
 20
2650.974193791144
 10
-169.5216530183868
 20
2650.483268794957
 10
-160.4035183020894
 20
2648.546536024276
 10
-152.2159359872246
 20
2645.421159545906
  0
LWPOLYLINE
  5
1894
330
1836
100
AcDbEntity
  8
0
  6
ByBlock
 62
     0
370
    -2
100
AcDbPolyline
 90
       17
 70
     0
 43
0.0
 10
-2262.82298742945
 20
3047.087990122195
 10
-2261.103537770387
 20
3040.591798814221
 10
-2263.96105795202
 20
3029.199184356802
 10
-2268.908595176267
 20
3008.056309004075
 10
-2270.978792475589
 20
3001.50895532758
 10
-2273.282885926715
 20
3000.616864045923
 10
-2276.308593822724
 20
3001.260696623015
 10
-2284.151774292329
 20
3007.000714499023
 10
-2293.762118617805
 20
3018.418190564254
 10
-2302.785742521194
 20
3032.181080188697
 10
-2306.539835641837
 20
3040.487880384372
 10
-2304.953328939225
 20
3043.893766114504
 10
-2300.710049396368
 20
3046.796180139611
 10
-2287.350682791003
 20
3050.622742818685
 10
-2272.656670899214
 20
3051.031887226943
 10
-2266.745104065815
 20
3049.662557389761
 10
-2262.82298742945
 20
3047.087990122195
  0
LWPOLYLINE
  5
1895
330
1836
100
AcDbEntity
  8
0
  6
ByBlock
 62
     0
370
    -2
100
AcDbPolyline
 90
       25
 70
     0
 43
0.0
 10
1922.034249711464
 20
4101.526044060921
 10
1924.478201779954
 20
4098.390815663371
 10
1930.351693843351
 20
4094.874820248299
 10
1936.256702389374
 20
4090.397074687726
 10
1938.767956588099
 20
4084.955898360147
 10
1940.989574021705
 20
4068.229010556983
 10
1941.74644288326
 20
4062.369938998817
 10
1940.78086787502
 20
4058.17421911286
 10
1937.48592248184
 20
4054.523464897409
 10
1931.254651212337
 20
4050.299309668251
 10
1921.244589413036
 20
4045.737658596005
 10
1913.856509657033
 20
4045.096221387498
 10
1908.268810178529
 20
4045.234215867213
 10
1902.612108630792
 20
4042.581567310782
 10
1898.318371807748
 20
4039.85820708738
 10
1899.63404732038
 20
4044.755480206325
 10
1904.172700922465
 20
4058.385050183288
 10
1909.747196897523
 20
4069.983811220158
 10
1912.533165101432
 20
4077.210889367537
 10
1913.941690122956
 20
4087.872626644297
 10
1914.793543075887
 20
4102.681152608425
 10
1916.231082965267
 20
4104.153309437352
 10
1918.68606531974
 20
4104.328200320267
 10
1921.004946308379
 20
4103.390799869131
 10
1922.034249711464
 20
4101.526044060921
  0
LWPOLYLINE
  5
1896
330
1836
100
AcDbEntity
  8
0
  6
ByBlock
 62
     0
370
    -2
100
AcDbPolyline
 90
       17
 70
     0
 43
0.0
 10
1096.671784203361
 20
3159.685274997808
 10
1098.502830993987
 20
3152.73931460308
 10
1097.898444728588
 20
3141.796469232414
 10
1096.399938845232
 20
3134.673048728788
 10
1094.36668624283
 20
3130.382132259077
 10
1091.152768055523
 20
3128.115843133115
 10
1086.1122750762
 20
3127.066314319479
 10
1075.782132149767
 20
3127.743797961688
 10
1067.48747299567
 20
3131.92908640381
 10
1061.96813810927
 20
3139.018112119007
 10
1059.963948668447
 20
3148.406807580443
 10
1061.215741246323
 20
3157.076921442704
 10
1064.223184456875
 20
3161.688826961508
 10
1072.39922457231
 20
3163.405031282489
 10
1082.361591492293
 20
3163.530092703596
 10
1091.366902416502
 20
3162.233638092106
 10
1096.671784203361
 20
3159.685274997808
  0
LWPOLYLINE
  5
1897
330
1836
100
AcDbEntity
  8
0
  6
ByBlock
 62
     0
370
    -2
100
AcDbPolyline
 90
       20
 70
     0
 43
0.0
 10
-1345.065669442871
 20
2920.380699669733
 10
-1340.495084032152
 20
2913.824025304997
 10
-1334.915053596615
 20
2909.930228106898
 10
-1330.150559235468
 20
2907.077546956155
 10
-1328.858412423933
 20
2903.313495670146
 10
-1330.937022489536
 20
2899.603745844553
 10
-1336.284827736034
 20
2896.913988392547
 10
-1344.359489671368
 20
2897.158035884601
 10
-1353.185486007774
 20
2901.62641246321
 10
-1365.799661173436
 20
2908.390083376893
 10
-1372.558483397484
 20
2909.803775826612
 10
-1379.29847107016
 20
2913.341455122623
 10
-1384.475094391551
 20
2917.947980720857
 10
-1386.543862196719
 20
2922.568241053474
 10
-1385.853648329532
 20
2925.794136083703
 10
-1383.13561973298
 20
2927.698502402258
 10
-1367.731651500669
 20
2928.83443834234
 10
-1351.41023778293
 20
2927.425053692575
 10
-1347.698739724621
 20
2924.871272042727
 10
-1345.065669442871
 20
2920.380699669733
  0
LWPOLYLINE
  5
1898
330
1836
100
AcDbEntity
  8
0
  6
ByBlock
 62
     0
370
    -2
100
AcDbPolyline
 90
       18
 70
     0
 43
0.0
 10
1510.083908626189
 20
4267.476281345427
 10
1524.759539927589
 20
4260.804609971136
 10
1525.918482996577
 20
4256.90373291347
 10
1523.1239957802
 20
4252.531035855829
 10
1517.702407386048
 20
4248.967809181162
 10
1510.980046921708
 20
4247.495333613675
 10
1503.293396062117
 20
4246.287836037127
 10
1496.253301545508
 20
4243.386020854162
 10
1489.593974046424
 20
4241.275565908627
 10
1482.671436106608
 20
4245.617857239232
 10
1477.630885174818
 20
4251.323750771653
 10
1476.039365583918
 20
4256.415039087214
 10
1477.906140069684
 20
4261.213706085671
 10
1483.240461709148
 20
4266.041774301755
 10
1489.125727781838
 20
4269.647856824851
 10
1494.391588241752
 20
4271.026787453858
 10
1500.792747164626
 20
4270.271831023676
 10
1510.083908626189
 20
4267.476281345427
  0
LWPOLYLINE
  5
1899
330
1836
100
AcDbEntity
  8
0
  6
ByBlock
 62
     0
370
    -2
100
AcDbPolyline
 90
       15
 70
     0
 43
0.0
 10
-356.6731141298926
 20
4014.940791052342
 10
-352.1285010825784
 20
4008.428846332427
 10
-348.9894381635447
 20
3998.755681534069
 10
-346.8496013178681
 20
3986.829807804225
 10
-364.6123314940044
 20
3986.829807804225
 10
-379.907696805483
 20
3988.243451960224
 10
-383.495727135494
 20
3990.69810591739
 10
-385.990320000313
 20
3994.92917680746
 10
-387.5375928836067
 20
3999.440138789657
 10
-387.2212400317737
 20
4003.023436334966
 10
-379.5230856077308
 20
4011.097257959546
 10
-372.1875011269629
 20
4016.424287247069
 10
-366.6951044783971
 20
4018.71278182616
 10
-361.9042031103524
 20
4018.154390501086
 10
-356.6731141298926
 20
4014.940791052342
  0
LWPOLYLINE
  5
189A
330
1836
100
AcDbEntity
  8
0
  6
ByBlock
 62
     0
370
    -2
100
AcDbPolyline
 90
       27
 70
     0
 43
0.0
 10
-607.6514216680382
 20
2886.242032164325
 10
-598.6955152208881
 20
2880.225851471487
 10
-592.8497051186366
 20
2877.723550928722
 10
-589.8965633685013
 20
2878.93914253299
 10
-589.4133557090051
 20
2881.989605790622
 10
-591.2301268755648
 20
2885.980512003845
 10
-595.1769505798331
 20
2890.017422816135
 10
-599.437045996505
 20
2893.91249496848
 10
-595.1769505798331
 20
2894.651475835603
 10
-590.9649943447186
 20
2893.728070904947
 10
-589.2140185442833
 20
2891.353120905687
 10
-587.8348754229002
 20
2888.946654423797
 10
-584.5186324985536
 20
2887.945728411446
 10
-579.9595409935439
 20
2886.444344222289
 10
-575.5844485673185
 20
2882.834639670084
 10
-573.4846472167371
 20
2878.678047357258
 10
-578.576138365928
 20
2877.723550928722
 10
-584.0147647850137
 20
2876.099925671791
 10
-585.8066260500424
 20
2871.174545606954
 10
-586.4110123154407
 20
2867.764593545475
 10
-588.9090533519723
 20
2865.862419761875
 10
-603.6954414741801
 20
2865.21160391266
 10
-621.5842472395745
 20
2865.797677198879
 10
-622.6303182227532
 20
2880.279090470031
 10
-622.658425168646
 20
2890.505962102481
 10
-621.2503251318723
 20
2894.760513399928
 10
-607.6514216680382
 20
2886.242032164325
  0
LWPOLYLINE
  5
189B
330
1836
100
AcDbEntity
  8
0
  6
ByBlock
 62
     0
370
    -2
100
AcDbPolyline
 90
       20
 70
     0
 43
0.0
 10
-1771.650766023695
 20
3871.063643465947
 10
-1769.894043270405
 20
3868.376435922434
 10
-1769.901924805748
 20
3866.258794871143
 10
-1775.967934960395
 20
3862.166945121314
 10
-1783.246127182573
 20
3857.044787458992
 10
-1788.817213620895
 20
3850.159290803539
 10
-1792.980673300914
 20
3844.255402671853
 10
-1797.456226326532
 20
3842.544201580417
 10
-1803.032586439238
 20
3845.091173815538
 10
-1810.498448063031
 20
3851.961805663523
 10
-1815.907528383325
 20
3859.176588229416
 10
-1817.528323628177
 20
3864.878801780263
 10
-1815.416120449923
 20
3868.078502295969
 10
-1809.626157207175
 20
3867.7857360977
 10
-1803.115052798013
 20
3867.917346147437
 10
-1795.43096150566
 20
3870.719502406782
 10
-1787.606953643478
 20
3874.283637003413
 10
-1781.146316173247
 20
3875.527335553573
 10
-1775.882966986848
 20
3874.453147965757
 10
-1771.650766023695
 20
3871.063643465947
  0
LWPOLYLINE
  5
189C
330
1836
100
AcDbEntity
  8
0
  6
ByBlock
 62
     0
370
    -2
100
AcDbPolyline
 90
       15
 70
     0
 43
0.0
 10
-200.3317240654971
 20
4158.051275810472
 10
-200.0672193530302
 20
4141.658426019941
 10
-201.1673793042507
 20
4127.847300626499
 10
-203.4903749179577
 20
4117.620332406606
 10
-206.8943578754636
 20
4111.979925160492
 10
-211.8525390359207
 20
4109.584952584313
 10
-214.666623844468
 20
4113.683621407614
 10
-218.2663219375852
 20
4126.090954564237
 10
-219.4293023616876
 20
4136.802357104152
 10
-218.1530248670272
 20
4146.194462102323
 10
-214.4349202276196
 20
4154.643883316231
 10
-208.9998095914568
 20
4162.15005087996
 10
-204.6667713378836
 20
4165.261325591662
 10
-201.6920133180204
 20
4163.91572728921
 10
-200.3317240654971
 20
4158.051275810472
  0
LWPOLYLINE
  5
189D
330
1836
100
AcDbEntity
  8
0
  6
ByBlock
 62
     0
370
    -2
100
AcDbPolyline
 90
      144
 70
     0
 43
0.0
 10
-2456.553695391105
 20
2959.109125193283
 10
-2466.574468737829
 20
2950.885853818255
 10
-2471.63779498866
 20
2945.077905993631
 10
-2473.107392250348
 20
2939.257807468689
 10
-2472.346959312151
 20
2930.99813228642
 10
-2471.908790377293
 20
2920.535046403538
 10
-2473.242257296913
 20
2909.313913292298
 10
-2476.225321836869
 20
2897.970751605658
 10
-2480.735965080505
 20
2887.141579996577
 10
-2483.94455164096
 20
2875.18296312358
 10
-2483.131362641433
 20
2862.289341168029
 10
-2478.814512443295
 20
2850.910509738716
 10
-2475.504142035478
 20
2846.554715483587
 10
-2471.512154042895
 20
2843.496293420657
 10
-2466.011450874238
 20
2839.588916028083
 10
-2463.65470760797
 20
2835.454422922199
 10
-2464.446386583956
 20
2831.11995517447
 10
-2468.390979118292
 20
2826.612663515105
 10
-2472.000683670498
 20
2821.737112912075
 10
-2473.502067859655
 20
2815.974783336749
 10
-2475.426814128668
 20
2811.103917224701
 10
-2481.560551398298
 20
2809.575701043899
 10
-2489.99752249081
 20
2807.584927598897
 10
-2498.338978261009
 20
2802.486617376236
 10
-2504.950968254313
 20
2795.591761397564
 10
-2508.199542016142
 20
2788.211350684532
 10
-2509.489245165371
 20
2784.039159499672
 10
-2513.181155290255
 20
2781.628694297646
 10
-2535.693795123655
 20
2779.617907934469
 10
-2558.981616797789
 20
2779.966733484616
 10
-2563.284094784418
 20
2782.435875558222
 10
-2566.057071977254
 20
2787.28453621714
 10
-2569.684664523891
 20
2793.401660446586
 10
-2572.865037892266
 20
2795.946131066934
 10
-2574.798274197512
 20
2796.550275863725
 10
-2575.814509319569
 20
2798.184091095885
 10
-2575.421012077068
 20
2803.469230409409
 10
-2572.33460863192
 20
2809.658379895047
 10
-2567.205361451287
 20
2814.608418734066
 10
-2550.458026086455
 20
2824.796520166924
 10
-2544.738822804398
 20
2830.309683115719
 10
-2544.105798362171
 20
2836.257286724076
 10
-2548.344914986238
 20
2841.946779708687
 10
-2557.242144561806
 20
2846.685610786248
 10
-2563.118775717097
 20
2849.451826858078
 10
-2567.884709231144
 20
2853.290414673797
 10
-2575.80562327482
 20
2865.974857204191
 10
-2583.095734387455
 20
2877.914794065726
 10
-2587.039158213733
 20
2881.338316662937
 10
-2591.305850552756
 20
2883.202637827653
 10
-2599.738397940383
 20
2884.008804920078
 10
-2610.461361997217
 20
2883.521231508161
 10
-2620.227260399533
 20
2882.049770108824
 10
-2625.788659117328
 20
2879.904282897736
 10
-2623.212672014352
 20
2857.568823069649
 10
-2621.022513110907
 20
2845.478808639287
 10
-2620.843256475572
 20
2838.32514660728
 10
-2623.146065313706
 20
2833.437619161328
 10
-2628.402131806908
 20
2828.145989171638
 10
-2634.754359531192
 20
2820.297486733929
 10
-2635.520172389962
 20
2813.892869980598
 10
-2626.405398916678
 20
2785.748235667363
 10
-2624.548263857717
 20
2775.902304909835
 10
-2624.783483257488
 20
2770.066984203885
 10
-2628.66732229022
 20
2766.826977748244
 10
-2635.486521324844
 20
2766.648522788684
 10
-2643.589251571094
 20
2769.261985819519
 10
-2651.32365526247
 20
2774.397781628783
 10
-2656.013081862969
 20
2777.220916680732
 10
-2660.183727648743
 20
2777.317919449668
 10
-2663.17244255411
 20
2774.902818050381
 10
-2664.316047537161
 20
2770.189650256408
 10
-2666.386360741415
 20
2764.320098960684
 10
-2671.515018738646
 20
2758.277405014761
 10
-2678.078608764297
 20
2753.555930700696
 10
-2684.4537373713
 20
2751.650028641799
 10
-2693.100844104655
 20
2748.998655039614
 10
-2704.74816930783
 20
2742.623845171172
 10
-2715.227597786057
 20
2734.181175419525
 10
-2716.343945792712
 20
2730.959066617059
 10
-2715.30085936152
 20
2727.563168028527
 10
-2709.556852424118
 20
2722.158192674558
 10
-2700.281077342213
 20
2717.637436725647
 10
-2691.370315865889
 20
2713.040859634037
 10
-2686.494765262859
 20
2707.452744829526
 10
-2683.058193702108
 20
2700.794373546127
 10
-2677.110802586126
 20
2695.841195615213
 10
-2667.912761078291
 20
2692.172186373049
 10
-2654.724238341984
 20
2689.366301838406
 10
-2637.904713522305
 20
2687.162726939139
 10
-2624.687224211862
 20
2686.725997157181
 10
-2614.307667149626
 20
2688.086450608356
 10
-2606.001929415824
 20
2691.27444472598
 10
-2594.460512343824
 20
2699.385259341202
 10
-2582.34824416661
 20
2710.452518997108
 10
-2572.789603099336
 20
2721.314704194183
 10
-2568.909057698407
 20
2728.810276115423
 10
-2566.832041325613
 20
2733.838686005635
 10
-2560.202317877787
 20
2737.790889630475
 10
-2548.421895178254
 20
2740.89528731624
 10
-2530.892781050336
 20
2743.380289047977
 10
-2514.610717056848
 20
2746.058021363337
 10
-2501.347706084551
 20
2750.179310965773
 10
-2491.187769550053
 20
2755.71063235384
 10
-2484.214909552469
 20
2762.618421391121
 10
-2481.317344216997
 20
2765.850604263884
 10
-2477.819236796354
 20
2767.476943627961
 10
-2465.474250834143
 20
2766.680039271313
 10
-2444.624953014206
 20
2764.71668700136
 10
-2426.963050469746
 20
2766.556948234041
 10
-2413.102520599244
 20
2772.058655912105
 10
-2407.78964137211
 20
2776.138142469239
 10
-2403.657340801181
 20
2781.07968161328
 10
-2397.756475856459
 20
2787.045810693191
 10
-2388.205668030807
 20
2793.409329489554
 10
-2376.437917603785
 20
2799.343517102088
 10
-2363.886253831189
 20
2804.02165263051
 10
-2361.169442236418
 20
2805.889006640934
 10
-2358.977477147792
 20
2809.814214075473
 10
-2355.824360755811
 20
2824.7249681892
 10
-2355.04880222405
 20
2838.749368315379
 10
-2357.258442814734
 20
2847.716353342233
 10
-2362.940430955029
 20
2852.474347368471
 10
-2372.581915072105
 20
2853.871803469034
 10
-2381.633655580132
 20
2855.605316259787
 10
-2387.526745235698
 20
2860.686588457516
 10
-2393.626821781467
 20
2865.857310286143
 10
-2403.677778704106
 20
2867.501373445998
 10
-2411.885287008447
 20
2868.68554515508
 10
-2415.408159449456
 20
2871.871356396493
 10
-2414.091460109929
 20
2876.50871270651
 10
-2407.780282048891
 20
2882.047529280148
 10
-2401.60480934517
 20
2889.036094395953
 10
-2399.132315687294
 20
2900.328190301515
 10
-2396.87322232583
 20
2933.080045642571
 10
-2396.356141450097
 20
2944.158171385808
 10
-2397.277846441758
 20
2951.281910627995
 10
-2400.373039344212
 20
2956.754130159732
 10
-2406.376431859606
 20
2962.877696771621
 10
-2417.697764784143
 20
2970.925314222934
 10
-2423.287531233928
 20
2972.730040935361
 10
-2429.030910352951
 20
2973.040241167079
 10
-2441.581134972647
 20
2969.13175301891
 10
-2456.553695391105
 20
2959.109125193283
  0
LWPOLYLINE
  5
189E
330
1836
100
AcDbEntity
  8
0
  6
ByBlock
 62
     0
370
    -2
100
AcDbPolyline
 90
       90
 70
     0
 43
0.0
 10
1412.758556948401
 20
2645.203084417256
 10
1408.524868538627
 20
2640.980899571935
 10
1401.204081254117
 20
2639.863701595782
 10
1388.305881053773
 20
2640.208489790814
 10
1379.622090409593
 20
2639.092779261281
 10
1374.314803595403
 20
2636.281466512346
 10
1371.546143861268
 20
2631.539438390425
 10
1368.051011333868
 20
2624.376252836545
 10
1362.956100989197
 20
2617.923506560403
 10
1357.876538389208
 20
2609.965106930125
 10
1354.41718185067
 20
2599.182847842076
 10
1349.464960135442
 20
2586.034138449744
 10
1340.794421288433
 20
2572.387105463098
 10
1334.291623399362
 20
2563.648530421287
 10
1330.746873902528
 20
2554.833931403146
 10
1329.005054591682
 20
2540.995124048559
 10
1327.91107623681
 20
2517.183943314901
 10
1326.114520822056
 20
2486.96676462748
 10
1323.985752897338
 20
2472.162063526092
 10
1324.542434624672
 20
2467.085900804094
 10
1329.205879203025
 20
2460.256637357917
 10
1333.087274573452
 20
2455.117277472009
 10
1335.516796477968
 20
2448.704296246121
 10
1337.588065897907
 20
2425.583010641089
 10
1339.067302586399
 20
2397.428582361141
 10
1340.847824485629
 20
2394.215939128082
 10
1344.239299369274
 20
2393.873816746475
 10
1350.77461825038
 20
2392.082650911036
 10
1355.52841072285
 20
2387.223867888099
 10
1358.033966262442
 20
2380.069568378969
 10
1357.82457434491
 20
2371.391843426206
 10
1356.824662500709
 20
2364.885742246586
 10
1357.410146603525
 20
2361.422667091496
 10
1360.259205725159
 20
2360.046180124794
 10
1366.050018937405
 20
2359.799891804063
 10
1374.013943369418
 20
2358.796840867967
 10
1378.558556416732
 20
2356.385680236352
 10
1384.129642855055
 20
2354.530786006066
 10
1394.944703038722
 20
2355.039763195336
 10
1402.697091311972
 20
2356.900153251125
 10
1409.314374297149
 20
2359.912812183594
 10
1414.626809222045
 20
2363.812964835438
 10
1418.464653314453
 20
2368.335836049348
 10
1420.65817346091
 20
2373.216641009273
 10
1421.037607571723
 20
2378.190604557905
 10
1419.433232192168
 20
2382.992941879193
 10
1415.675285232553
 20
2387.358877815829
 10
1413.198000837505
 20
2390.261079348562
 10
1411.790857016419
 20
2394.190275844495
 10
1411.872627945603
 20
2406.733314358437
 10
1411.948449088304
 20
2419.433519959517
 10
1410.242512012508
 20
2422.951118726142
 10
1407.122727947083
 20
2425.576201226362
 10
1402.589193479473
 20
2430.220048212544
 10
1400.703198092564
 20
2435.750674171022
 10
1402.251543096475
 20
2443.275309253839
 10
1405.975288442548
 20
2451.925989722583
 10
1410.492528608535
 20
2459.056760530614
 10
1414.421358072185
 20
2462.021666631298
 10
1416.765641558316
 20
2465.064470504707
 10
1417.740160563771
 20
2472.380138654742
 10
1419.646593853603
 20
2483.432446574483
 10
1424.231242396013
 20
2495.458413871438
 10
1429.484160138575
 20
2509.424880849346
 10
1433.001874810132
 20
2525.136798825954
 10
1436.396112094645
 20
2539.341315215712
 10
1442.456104851598
 20
2555.362496525843
 10
1449.996396758914
 20
2570.487327048082
 10
1457.831541153266
 20
2582.002771756678
 10
1465.016024238312
 20
2587.283806103878
 10
1475.226282830578
 20
2591.785399104111
 10
1485.438125456908
 20
2595.5620067577
 10
1490.671136527483
 20
2599.090423317935
 10
1491.423002159492
 20
2602.988740808362
 10
1488.19140847013
 20
2607.875099546256
 10
1483.929188129714
 20
2616.897448495399
 10
1482.357951901829
 20
2630.956774640942
 10
1482.235285849306
 20
2647.724557567443
 10
1474.691313960415
 20
2638.759707123077
 10
1466.088927213137
 20
2630.772775562158
 10
1456.001769316888
 20
2624.155627799402
 10
1449.630958168583
 20
2621.233944579429
 10
1444.812316886928
 20
2620.232439042419
 10
1439.948318142074
 20
2621.135444705128
 10
1433.441424945424
 20
2623.927324060545
 10
1424.039574274259
 20
2630.71016758165
 10
1418.660155957691
 20
2640.235109290085
 10
1415.453800567166
 20
2647.858302199669
 10
1414.164638307618
 20
2647.711991541117
 10
1412.758556948401
 20
2645.203084417256
  0
LWPOLYLINE
  5
189F
330
1836
100
AcDbEntity
  8
0
  6
ByBlock
 62
     0
370
    -2
100
AcDbPolyline
 90
       20
 70
     0
 43
0.0
 10
1891.10875667005
 20
2666.465216285769
 10
1890.253503839127
 20
2649.428253814563
 10
1888.258045903144
 20
2636.472922141725
 10
1885.819792493787
 20
2633.060468465474
 10
1881.997383074758
 20
2630.731890097565
 10
1876.384136217596
 20
2626.175358159793
 10
1874.330754792087
 20
2619.548831756329
 10
1875.325856581631
 20
2613.740739050541
 10
1878.113862780587
 20
2610.318365843902
 10
1882.398868098791
 20
2609.17833459624
 10
1887.884938269845
 20
2610.217258108641
 10
1901.276574739892
 20
2618.418478570448
 10
1915.921384988252
 20
2634.094987590478
 10
1923.827926820419
 20
2646.255336996782
 10
1928.116447921545
 20
2656.551403873348
 10
1928.474536207469
 20
2663.801276657259
 10
1927.082044701474
 20
2665.914522979897
 10
1924.589789252772
 20
2666.822995491875
 10
1902.259023574412
 20
2667.663769865103
 10
1891.10875667005
 20
2666.465216285769
  0
LWPOLYLINE
  5
18A0
330
1836
100
AcDbEntity
  8
0
  6
ByBlock
 62
     0
370
    -2
100
AcDbPolyline
 90
     3737
 70
     1
 43
0.0
 10
-309.9577570454242
 20
-0.0000000000010232
 10
309.9577570454242
 20
0.0000000000010232
 10
279.6710674872167
 20
7.353153736636045
 10
252.3182280549002
 20
13.84476679981458
 10
236.7234416703334
 20
18.99025032960423
 10
228.400463077968
 20
24.85511713434596
 10
222.8630180460188
 20
33.50488968112541
 10
219.8652625559937
 20
42.26098568508359
 10
217.986192488743
 20
57.80684087106078
 10
216.2322321363206
 20
128.6529189266352
 10
215.0324615552056
 20
184.6086904301518
 10
211.5917946868747
 20
222.6960940711986
 10
204.0398929689179
 20
254.868695199508
 10
190.5064178389259
 20
293.0800495060686
 10
182.392145393246
 20
316.7797393543501
 10
177.326626607459
 20
335.6724556840834
 10
167.5780753098931
 20
377.9820441704508
 10
162.0611840857998
 20
405.6218545544611
 10
157.6336060430856
 20
439.6192242896055
 10
154.6856703561245
 20
476.2347415465668
 10
153.6077641517556
 20
511.729013813516
 10
151.6101812920276
 20
545.0792959747423
 10
146.8168362616772
 20
581.5805599454602
 10
142.0192220663491
 20
614.8984756545601
 10
140.0020512731951
 20
640.5931984540757
 10
136.9158023679563
 20
684.8113548127655
 10
129.4391326092984
 20
738.8146884273806
 10
124.5035818867193
 20
774.5340673888254
 10
121.0786684303309
 20
818.4752689136541
 10
117.4689638781258
 20
954.2504879295773
 10
117.3284098311726
 20
1053.895000699589
 10
119.7280668983342
 20
1103.044506227089
 10
121.7946518272922
 20
1122.943248386162
 10
120.8425990610624
 20
1128.790497641313
 10
118.4945872996361
 20
1133.71103867526
 10
112.2245554892858
 20
1148.982971873084
 10
107.0023042598543
 20
1170.495545322373
 10
103.8666508775561
 20
1192.805448113061
 10
103.8564319260947
 20
1210.469369335078
 10
116.0583042741148
 20
1352.915409755795
 10
120.8021385812192
 20
1398.379022556107
 10
129.0515368595595
 20
1453.909249103556
 10
140.9336468190115
 20
1520.275611214723
 10
156.5756065107045
 20
1598.24766934116
 10
187.514728040316
 20
1756.691420323375
 10
199.6416388738773
 20
1814.617092725475
 10
213.7584635241981
 20
1877.653853868936
 10
219.6068331936869
 20
1900.95998852225
 10
225.5957472513848
 20
1918.712934390416
 10
232.3291862954309
 20
1939.920967632144
 10
239.9647230802218
 20
1971.527518051155
 10
255.1344377871913
 20
2030.986516109789
 10
280.4649872918797
 20
2102.218905302112
 10
301.7884521866538
 20
2155.291599586595
 10
318.5460065029481
 20
2194.991134578864
 10
344.3536013882738
 20
2251.816212386251
 10
358.6167270384014
 20
2279.784304171296
 10
363.8587110824244
 20
2288.017099068197
 10
368.2377153000882
 20
2292.709181823378
 10
372.0513062855768
 20
2294.080665560537
 10
375.5970409743284
 20
2292.351624768391
 10
383.0752078383509
 20
2280.472383455994
 10
387.2326501206751
 20
2269.256524019138
 10
387.010585930632
 20
2265.699266448445
 10
385.3513488834931
 20
2262.750538744451
 10
383.5391752792159
 20
2259.193957285858
 10
383.0995382152262
 20
2254.847676893859
 10
385.7904740340353
 20
2244.942228953996
 10
392.3294149442506
 20
2235.346633531056
 10
401.621648526431
 20
2228.373358207468
 10
412.5463354578267
 20
2224.980231678548
 10
424.4507474578511
 20
2225.194259793339
 10
438.4909589484384
 20
2229.203266493366
 10
455.8230346927764
 20
2237.195095037642
 10
470.16986302095
 20
2243.675532933673
 10
477.8211628764263
 20
2245.328540090744
 10
480.3279354178
 20
2241.173918161753
 10
480.5385539958549
 20
2234.797572552968
 10
478.7277422745244
 20
2228.392472862424
 10
475.1702142589899
 20
2224.151598346896
 10
471.28237650612
 20
2219.257145581285
 10
469.7890863446816
 20
2211.857301474735
 10
470.7733993168492
 20
2204.3827083461
 10
474.318361306058
 20
2199.263998855491
 10
483.9104892397961
 20
2194.744363320919
 10
494.9918699798597
 20
2191.869534669513
 10
505.2465201608972
 20
2191.04105587777
 10
512.3584950525343
 20
2192.660479580932
 10
518.5339677562549
 20
2194.862924407117
 10
524.5944434504206
 20
2194.670840959359
 10
531.0842406696718
 20
2195.518849732064
 10
538.4761549471575
 20
2201.189179767997
 10
542.4668486680054
 20
2206.361649829341
 10
544.9919438473023
 20
2212.454443681913
 10
547.107083283821
 20
2232.738222023487
 10
550.3066196008746
 20
2271.224724978725
 10
551.4213159622556
 20
2279.857247008197
 10
550.9110058662725
 20
2285.389254167109
 10
548.2074074336948
 20
2289.533599192171
 10
542.742209809058
 20
2294.00314447884
 10
534.2645174506048
 20
2302.288115912412
 10
530.9815971940695
 20
2310.787105802032
 10
532.8915462668253
 20
2319.53015284245
 10
539.9924425787592
 20
2328.547286069674
 10
558.1913326709398
 20
2342.45626420155
 10
565.097692214065
 20
2348.157685735364
 10
570.9894972566396
 20
2356.368651870162
 10
578.222959833997
 20
2364.919074573143
 10
590.196963086653
 20
2370.144735339309
 10
605.2695687785005
 20
2375.493912127497
 10
621.793719538951
 20
2383.0485279526
 10
635.3334149002683
 20
2391.631326766451
 10
637.8117134634647
 20
2395.159414929378
 10
638.0299431320233
 20
2398.760020944459
 10
638.7395903927279
 20
2404.168183684045
 10
642.3398680105036
 20
2409.186635408892
 10
647.8485010082256
 20
2412.876208117656
 10
654.2832047500294
 20
2414.297724150254
 10
659.7409941177927
 20
2411.284736820478
 10
665.3981206502783
 20
2404.07554666753
 10
670.9692070886001
 20
2396.870191036066
 10
676.2131808339461
 20
2393.873816746475
 10
682.7511172347547
 20
2390.871048368161
 10
691.4408190304428
 20
2383.651639263751
 10
697.1789727688026
 20
2378.554130716866
 10
702.6341059818857
 20
2375.429179223244
 10
708.8431235045361
 20
2373.859913379196
 10
716.8429301715975
 20
2373.429461781028
 10
727.4011643445117
 20
2372.639482744038
 10
734.159300797715
 20
2369.598697548186
 10
738.2903360731423
 20
2363.300877530504
 10
740.9672667127258
 20
2352.739774710535
 10
745.0911255411435
 20
2340.260522543905
 10
752.1235027210612
 20
2328.718506629758
 10
760.7332880664669
 20
2319.850881105447
 10
769.5893713913481
 20
2315.394751814603
 10
776.554079408748
 20
2312.504005552601
 10
777.7485859742235
 20
2310.128253877564
 10
777.661483418188
 20
2306.876270579
 10
775.7903914737242
 20
2301.501111768664
 10
772.9660973724592
 20
2297.996610259299
 10
770.7594896274829
 20
2294.931707178948
 10
772.6858392480496
 20
2291.468467825204
 10
778.3317809546431
 20
2287.985418386915
 10
787.2839591264953
 20
2284.861104370417
 10
798.4785789846507
 20
2283.061129760183
 10
809.4812602762146
 20
2283.489417799628
 10
819.8390561875582
 20
2285.887722642589
 10
829.0990488812875
 20
2289.997750149179
 10
836.8083108612689
 20
2295.561254473231
 10
842.5139049726166
 20
2302.319951133602
 10
845.7628940604505
 20
2310.015574966641
 10
846.1023699461209
 20
2318.389851149948
 10
844.8942831861701
 20
2324.261691568068
 10
842.7396974379577
 20
2327.488871211289
 10
838.5617496414987
 20
2328.852405801894
 10
831.283615371786
 20
2329.133359355893
 10
822.6166502601651
 20
2329.848009846141
 10
818.7422864555836
 20
2332.17487861631
 10
819.5311450782371
 20
2336.388389909255
 10
824.8538665658049
 20
2342.762929332858
 10
829.8736511973645
 20
2350.660044230595
 10
831.447601532395
 20
2359.955349293461
 10
829.5951992581374
 20
2369.302415566995
 10
824.3359453793189
 20
2377.354775461755
 10
820.0351769904298
 20
2382.30901585454
 10
820.0801094688811
 20
2386.186740902136
 10
825.6450239696002
 20
2390.757007574292
 10
837.9041823300228
 20
2397.78891147574
 10
846.6939776928191
 20
2405.165062682539
 10
853.5645515883386
 20
2415.00987302573
 10
857.3646493080502
 20
2426.535807130629
 10
856.4040871880987
 20
2431.355617120342
 10
853.5338850752085
 20
2437.716740548121
 10
849.2030973090557
 20
2449.455205662446
 10
861.9693107686341
 20
2457.707482246586
 10
868.8501229331048
 20
2467.470087017098
 10
876.5167512157757
 20
2483.270170011614
 10
878.5335066829246
 20
2490.943617367756
 10
879.3721464736643
 20
2501.080604725814
 10
877.5100081851594
 20
2511.596243836395
 10
870.8536652380614
 20
2518.557126991055
 10
864.8374845452233
 20
2524.251304466649
 10
862.3351840024577
 20
2530.10136441639
 10
860.4930586321286
 20
2536.700208858711
 10
856.0621772988659
 20
2544.190932090315
 10
852.9789612393349
 20
2549.24841480085
 10
851.3016237053905
 20
2555.346318129152
 10
851.3531627649388
 20
2576.169315188378
 10
852.8660408598041
 20
2612.638637691719
 10
852.8149267850047
 20
2625.256212735371
 10
872.0564783236284
 20
2626.268207668684
 10
891.2980202035075
 20
2627.280202601995
 10
890.8482414580101
 20
2642.613468826081
 10
889.1462548086289
 20
2660.593907098584
 10
885.5633822480701
 20
2675.822337312111
 10
880.728292124885
 20
2686.372216671212
 10
878.0376170921716
 20
2689.290635235614
 10
875.2696431288793
 20
2690.316963745458
 10
867.5904971136048
 20
2688.61289080731
 10
860.0816154427301
 20
2684.32038064479
 10
854.3775957067007
 20
2678.668952771438
 10
852.1130065197347
 20
2672.888155677023
 10
851.5978477341166
 20
2669.811700738498
 10
849.8573130362617
 20
2667.83414045569
 10
841.5296499529137
 20
2666.465216285769
 10
831.8926861281667
 20
2664.388412405349
 10
824.2439458399273
 20
2657.946735050166
 10
818.0846515328974
 20
2651.930554357328
 10
812.67925119418
 20
2649.428253814563
 10
807.2074083534705
 20
2647.390635459741
 10
800.879453053594
 20
2642.490802773558
 10
795.0272005688991
 20
2638.050282013491
 10
790.799964200313
 20
2638.016466749721
 10
788.2357414478844
 20
2642.364785136765
 10
787.3725491291523
 20
2651.070617035423
 10
789.7108731700535
 20
2662.381460563658
 10
796.51117970084
 20
2673.395848253304
 10
804.7898632918775
 20
2681.506720820992
 10
807.2506891866476
 20
2681.329376617025
 10
809.6671138339022
 20
2678.769307124644
 10
814.7861903567942
 20
2674.724253990915
 10
820.9319624218139
 20
2673.362206846931
 10
826.0938368406684
 20
2674.689221725363
 10
828.2612590600463
 20
2678.711383635118
 10
830.2631014260075
 20
2683.069013051661
 10
835.076044048529
 20
2685.921423757563
 10
838.4433430952093
 20
2687.412318550418
 10
840.4916729974535
 20
2690.143608602884
 10
841.6523160054364
 20
2701.789658851812
 10
838.773063649144
 20
2722.632678487958
 10
837.347500602689
 20
2729.092668822321
 10
837.6315835898374
 20
2735.130987357079
 10
841.4251906333845
 20
2740.404835598524
 10
848.8240205717836
 20
2744.697674158349
 10
858.2021203907295
 20
2747.337708394734
 10
867.933527417176
 20
2747.653153324603
 10
873.1739950383433
 20
2746.702916402301
 10
876.0141584564824
 20
2744.761132108355
 10
877.0731142045486
 20
2740.906520435853
 10
876.9699394980086
 20
2734.217811036629
 10
876.2748286474659
 20
2721.896682172822
 10
893.986454407546
 20
2719.797721132994
 10
906.860855461953
 20
2717.230678027231
 10
912.9349596443169
 20
2714.001750151295
 10
917.3185227892879
 20
2706.651735506553
 10
925.2744111460476
 20
2699.195349110911
 10
936.1327521628943
 20
2692.148493473298
 10
949.2236926056081
 20
2686.027051785153
 10
959.9561318905932
 20
2681.376018693217
 10
967.381687574452
 20
2676.768749371674
 10
972.8752529310765
 20
2671.113061992088
 10
977.8117115756192
 20
2663.316784384771
 10
987.5615474861758
 20
2650.415541679974
 10
1001.213689948553
 20
2641.874062974209
 10
1009.981019072124
 20
2638.250836179993
 10
1016.052882425812
 20
2636.915456829003
 10
1021.613643666485
 20
2637.779122426206
 10
1028.847637474777
 20
2640.753030476571
 10
1040.941331886715
 20
2647.48390995338
 10
1052.64146144494
 20
2655.766003081152
 10
1061.231069673517
 20
2665.967153477549
 10
1065.560592144168
 20
2679.024442855146
 10
1065.647907192578
 20
2695.053186962059
 10
1061.510902813179
 20
2714.168711205146
 10
1057.36922360154
 20
2730.907527557511
 10
1055.353743088638
 20
2744.835243653316
 10
1054.852859927084
 20
2756.76111738316
 10
1078.704607386773
 20
2757.309705082777
 10
1135.261790262446
 20
2760.194916884299
 10
1154.650753556471
 20
2762.377348792309
 10
1164.737863158999
 20
2764.761677432277
 10
1185.338960226835
 20
2770.319135382401
 10
1199.882981478496
 20
2774.326654635807
 10
1214.301796427885
 20
2780.554941353322
 10
1230.796980614202
 20
2786.790897113807
 10
1250.512148679238
 20
2790.68852883339
 10
1270.048011815218
 20
2794.431968359078
 10
1286.289769868771
 20
2800.171300464241
 10
1305.296208253811
 20
2809.674519656762
 10
1309.468563637324
 20
2814.789433260863
 10
1312.322249297473
 20
2823.791344307082
 10
1315.289241686924
 20
2834.405367387033
 10
1319.733326523636
 20
2843.404293881265
 10
1323.074701500633
 20
2850.347704367499
 10
1323.392870196394
 20
2856.028678339644
 10
1323.415867666555
 20
2862.367924711598
 10
1325.907524273109
 20
2871.302321135207
 10
1329.809840483674
 20
2879.927492860272
 10
1334.064826424615
 20
2885.339074795338
 10
1341.535845817861
 20
2887.742672630171
 10
1351.234673899806
 20
2887.946578380944
 10
1359.637839387293
 20
2886.242775887636
 10
1362.252461467443
 20
2884.766726584759
 10
1363.221880655911
 20
2882.923229672741
 10
1366.224649034226
 20
2877.821509913342
 10
1373.444058138635
 20
2872.61246218736
 10
1380.663467243045
 20
2867.414483382338
 10
1383.666235621358
 20
2862.339170629837
 10
1378.16116670028
 20
2855.158947051025
 10
1364.925576903031
 20
2844.906953024669
 10
1353.236197527204
 20
2836.877436060161
 10
1347.747210415375
 20
2831.377901599562
 10
1347.034530308962
 20
2825.886036181933
 10
1349.674091266876
 20
2817.879516687587
 10
1351.942244530487
 20
2812.97803235613
 10
1354.760472940336
 20
2810.450976451742
 10
1359.287091747032
 20
2809.796490279696
 10
1366.680387224952
 20
2810.512734462752
 10
1379.316275247784
 20
2814.393328157403
 10
1390.712724226689
 20
2821.174462080767
 10
1400.13416283128
 20
2827.421921405704
 10
1408.022275779335
 20
2830.020056009346
 10
1414.377488055605
 20
2831.574679197046
 10
1420.111701026295
 20
2835.311734292756
 10
1425.977108720717
 20
2838.745958778643
 10
1432.647505140761
 20
2839.57097973993
 10
1436.10371292866
 20
2838.571917865225
 10
1438.370639531745
 20
2836.55415788867
 10
1440.099467831518
 20
2828.316359762225
 10
1440.438509073695
 20
2822.347458622702
 10
1440.68692231817
 20
2821.505515541415
 10
1440.951320784449
 20
2822.353418067931
 10
1443.4063417739
 20
2825.360870937226
 10
1448.406693011941
 20
2826.612663515105
 10
1452.900462429295
 20
2825.817198311355
 10
1454.804500350545
 20
2822.671586763691
 10
1454.278852168623
 20
2816.037024284974
 10
1451.483572935215
 20
2804.774686970579
 10
1449.469377035304
 20
2793.351406000028
 10
1450.577466815589
 20
2790.475456934283
 10
1453.20770708526
 20
2788.419197202975
 10
1457.017869216525
 20
2784.9735271051
 10
1458.440186924897
 20
2780.74873439882
 10
1457.435378097339
 20
2776.533523166878
 10
1453.964150962066
 20
2773.11659749202
 10
1449.957906662906
 20
2768.900381750673
 10
1446.876776892142
 20
2762.591164414725
 10
1445.824524312615
 20
2758.438570822037
 10
1446.288994008185
 20
2756.390134673606
 10
1453.623409780892
 20
2757.091629954127
 10
1460.929708948962
 20
2757.810172918326
 10
1461.418460727683
 20
2755.843411111638
 10
1460.400718841517
 20
2751.861284696978
 10
1459.948380528781
 20
2743.560453605276
 10
1462.220262067689
 20
2734.173516035301
 10
1464.645051187502
 20
2725.406718142666
 10
1462.574631737059
 20
2720.158909875835
 10
1460.810452433175
 20
2715.792336462076
 10
1464.315803912038
 20
2710.127540886622
 10
1470.731769689911
 20
2705.322373553256
 10
1478.051436560086
 20
2704.524937965672
 10
1486.790059895617
 20
2707.815092621683
 10
1497.462924045803
 20
2715.27270567785
 10
1517.406386190952
 20
2728.79323809049
 10
1521.633690170749
 20
2732.629961768561
 10
1523.420441960046
 20
2738.766673931432
 10
1524.413689270685
 20
2745.756514001483
 10
1526.725606304689
 20
2751.650028641799
 10
1529.139268551075
 20
2753.352556180859
 10
1533.014376078966
 20
2751.825508708116
 10
1548.750991464733
 20
2736.626837085756
 10
1566.031421903336
 20
2716.267556340043
 10
1576.868368801573
 20
2697.826859584483
 10
1582.9207021743
 20
2677.49504830754
 10
1585.847272718885
 20
2651.462462632651
 10
1588.73845362438
 20
2624.609656392389
 10
1590.747211651255
 20
2616.591749238522
 10
1593.162950527665
 20
2612.011678940907
 10
1596.813115559714
 20
2606.87715808589
 10
1598.331962758553
 20
2602.552754749715
 10
1596.441814111597
 20
2597.16002668351
 10
1591.416659218212
 20
2592.53843344418
 10
1584.22440084401
 20
2589.309602155686
 10
1575.83295141335
 20
2588.095188918222
 10
1567.137763450904
 20
2586.612281906898
 10
1562.033435830548
 20
2582.937670593044
 10
1561.325285675209
 20
2578.232548533066
 10
1565.81862044907
 20
2573.658070648397
 10
1574.274599950352
 20
2567.892544028711
 10
1580.127113221144
 20
2561.673413800786
 10
1583.098258870641
 20
2555.394225500846
 10
1582.91010653181
 20
2549.448543982604
 10
1580.849374801894
 20
2534.318178999884
 10
1583.173326631287
 20
2519.19387970858
 10
1588.84120334617
 20
2507.562375528558
 10
1592.60388309049
 20
2504.146019719612
 10
1596.812265590216
 20
2502.910376562193
 10
1601.019546993093
 20
2501.408992373036
 10
1603.913268148337
 20
2497.79928782083
 10
1608.66913725083
 20
2494.013253232811
 10
1618.612766206884
 20
2492.688199079469
 10
1628.592267739243
 20
2491.018578882215
 10
1636.576533486737
 20
2486.693740902546
 10
1641.297370323679
 20
2480.739752864212
 10
1641.486585124381
 20
2474.182653514726
 10
1641.140734467478
 20
2469.915314039834
 10
1643.07443439245
 20
2466.856756754484
 10
1645.061798300715
 20
2463.300291200822
 10
1644.846273080559
 20
2457.837392357328
 10
1644.68235453116
 20
2450.769548268366
 10
1647.424394766025
 20
2444.45272950066
 10
1652.349514044767
 20
2439.911361791429
 10
1658.734813309512
 20
2438.16991917161
 10
1662.476340403828
 20
2437.538807160753
 10
1665.690152344948
 20
2435.564115525
 10
1671.076389734986
 20
2427.095888735954
 10
1676.479761737402
 20
2417.080717460921
 10
1683.263773966568
 20
2409.848520179067
 10
1691.932506628394
 20
2405.004486058666
 10
1702.990020611309
 20
2402.153784950503
 10
1710.792740601071
 20
2401.244858477543
 10
1716.260961412671
 20
2401.836041239493
 10
1720.820690394804
 20
2404.373267801621
 10
1725.897925237417
 20
2409.302492046688
 10
1731.892480001783
 20
2416.852210888435
 10
1734.156586251535
 20
2423.255765179892
 10
1732.77010248449
 20
2429.666988514319
 10
1727.812877539717
 20
2437.239704826227
 10
1722.999934917195
 20
2444.610321572547
 10
1720.998092551235
 20
2450.163945001186
 10
1715.345225524984
 20
2471.930359909244
 10
1711.390945270121
 20
2487.678053874715
 10
1712.66382288679
 20
2491.226802091686
 10
1716.197078477915
 20
2494.361228813459
 10
1722.947439641962
 20
2497.966731811896
 10
1730.747493818297
 20
2499.137110834128
 10
1740.033594097853
 20
2497.87015402771
 10
1751.242112889047
 20
2494.163601246477
 10
1758.468920591586
 20
2490.853211521172
 10
1762.7935943726
 20
2487.240628663168
 10
1765.24568876253
 20
2481.978448184829
 10
1766.8547776093
 20
2473.71924628103
 10
1770.283892619456
 20
2461.060785772785
 10
1773.363274157502
 20
2458.805729766436
 10
1778.279768177591
 20
2457.990724922982
 10
1797.99408627313
 20
2458.020966451363
 10
1819.032183567764
 20
2460.440636436701
 10
1830.220940568135
 20
2464.737889042668
 10
1841.563986349842
 20
2472.595654216155
 10
1850.354689634603
 20
2481.729919035422
 10
1853.886399826641
 20
2489.85665126124
 10
1852.763715683729
 20
2497.424528542258
 10
1849.742586032514
 20
2503.758394993641
 10
1845.34337572179
 20
2508.108509907124
 10
1840.08645925909
 20
2509.725161550675
 10
1833.890432747514
 20
2512.546432464976
 10
1827.243999672061
 20
2519.849805033527
 10
1821.399995754991
 20
2529.894638312284
 10
1817.611295353547
 20
2540.940281698463
 10
1814.298461965936
 20
2547.896045718648
 10
1808.976967138891
 20
2551.762160955603
 10
1805.481032935716
 20
2553.192997676442
 10
1803.835636869149
 20
2555.915343731693
 10
1805.085719849287
 20
2569.950822437576
 10
1806.845639646937
 20
2592.963505121776
 10
1807.143785765778
 20
2625.201689123836
 10
1807.672360547218
 20
2658.565174788511
 10
1809.461507705101
 20
2666.898594483458
 10
1812.639910689641
 20
2672.905184043212
 10
1826.283109154804
 20
2698.685521952143
 10
1833.41265330231
 20
2711.260231488622
 10
1842.640298861402
 20
2722.719133908126
 10
1852.123495477003
 20
2731.108187970201
 10
1860.019702452778
 20
2734.473362093137
 10
1874.306907352429
 20
2739.713935960492
 10
1883.424336980392
 20
2742.751997390453
 10
1892.670189272477
 20
2741.123310951512
 10
1904.240312132517
 20
2733.893518696988
 10
1920.330553464344
 20
2720.128243362704
 10
1940.134321190782
 20
2704.569232967
 10
1948.366468951815
 20
2701.043115187907
 10
1957.811870900997
 20
2699.043291499504
 10
1979.182499444155
 20
2694.248352776345
 10
1986.89177108288
 20
2690.961346870974
 10
1992.717201234673
 20
2686.993051778142
 10
1996.733944588878
 20
2682.277256805721
 10
1999.017146176098
 20
2676.74777057907
 10
1999.641970344421
 20
2670.338372747314
 10
1998.683542806958
 20
2662.982862277069
 10
1996.454787561319
 20
2656.131451330228
 10
1993.690010642388
 20
2653.282015517568
 10
1990.444788464827
 20
2654.449902583771
 10
1986.774707102047
 20
2659.650431297287
 10
1982.420960500709
 20
2665.65670211848
 10
1979.20476284975
 20
2666.219034211226
 10
1977.649019247712
 20
2661.763542397505
 10
1978.276673428112
 20
2652.716389793017
 10
1979.002074100759
 20
2642.022121865478
 10
1976.558914049301
 20
2634.656778793543
 10
1970.412137474876
 20
2629.861675871731
 10
1960.026678919876
 20
2626.878128394562
 10
1951.102926432479
 20
2624.565148898686
 10
1945.79399763176
 20
2620.970560281299
 10
1943.227167018374
 20
2615.038932236004
 10
1942.52971875171
 20
2605.714815138911
 10
1943.441243426887
 20
2599.07470854097
 10
1946.653084984169
 20
2591.64015090743
 10
1962.473180896861
 20
2569.906527436248
 10
1977.312808017613
 20
2549.348450415493
 10
1984.917678289271
 20
2534.28223881237
 10
1989.028536447871
 20
2523.413398740476
 10
1992.215777183439
 20
2519.845844948367
 10
1996.399317392842
 20
2517.427575480951
 10
2008.480600318364
 20
2515.752942395409
 10
2026.722974077352
 20
2517.817721139184
 10
2053.597077848781
 20
2524.298584019965
 10
2055.190036592581
 20
2529.964644890921
 10
2055.852771332253
 20
2540.422360511976
 10
2057.308585565836
 20
2551.802196450697
 10
2061.560161970039
 20
2558.413394426969
 10
2067.540508721549
 20
2563.778759270591
 10
2070.042432573288
 20
2569.417563165152
 10
2069.221516578326
 20
2576.502812311331
 10
2065.233324472251
 20
2586.207493592317
 10
2059.570238494537
 20
2600.151822728307
 10
2056.125370072438
 20
2612.672713741585
 10
2055.457728690664
 20
2618.811657074388
 10
2056.138148591137
 20
2622.868484217411
 10
2058.557606084101
 20
2625.712694649408
 10
2063.107116114771
 20
2628.213826484114
 10
2069.359250271946
 20
2632.000295715627
 10
2071.959519458076
 20
2635.444314168228
 10
2076.840131243116
 20
2638.691777174464
 10
2088.750724839488
 20
2642.150061592385
 10
2103.59444726782
 20
2644.872359353914
 10
2117.274435889996
 20
2645.911823755997
 10
2126.92160900746
 20
2644.36699453501
 10
2134.795243497821
 20
2640.800735014635
 10
2142.205045769737
 20
2637.268551544127
 10
2150.731621033058
 20
2635.798683837599
 10
2160.127077615501
 20
2633.018250094169
 10
2169.673316855101
 20
2624.308960365055
 10
2179.567531675351
 20
2614.617057602769
 10
2189.845073080364
 20
2607.452587435898
 10
2204.447404171321
 20
2603.664041574361
 10
2224.899051488711
 20
2602.303588123186
 10
2245.629894468636
 20
2603.406037196803
 10
2261.069802888463
 20
2607.006218227135
 10
2270.635311322929
 20
2612.431158205558
 10
2279.874354200288
 20
2619.557775753543
 10
2287.070234603599
 20
2626.876689241662
 10
2290.50626527467
 20
2632.878546016713
 10
2290.545238307892
 20
2640.967058591363
 10
2287.866385578193
 20
2649.10029115209
 10
2282.983378424569
 20
2656.240691728183
 10
2276.409888186018
 20
2661.350718007672
 10
2270.616611993977
 20
2665.281508196413
 10
2265.555101587072
 20
2670.46666984776
 10
2258.320885627661
 20
2682.814736949401
 10
2256.094264964509
 20
2694.824197452357
 10
2257.292239019187
 20
2699.586093611289
 10
2260.262254595602
 20
2702.924319837648
 10
2264.308959374606
 20
2707.834371475292
 10
2267.990215904533
 20
2715.811074426005
 10
2273.387686414188
 20
2725.237786704979
 10
2281.272660270348
 20
2729.723027451124
 10
2291.174592427288
 20
2729.162994139519
 10
2302.622957156768
 20
2723.453855269015
 10
2315.974818917818
 20
2716.210589066202
 10
2329.868468622501
 20
2711.343982460388
 10
2337.936581929204
 20
2709.845901561779
 10
2343.317864383422
 20
2710.123281380389
 10
2347.731244072025
 20
2712.67126778366
 10
2352.895620105652
 20
2717.984987321548
 10
2357.878025396797
 20
2722.876300995264
 10
2362.821786052023
 20
2725.876509806339
 10
2376.420264531108
 20
2727.79828118211
 10
2387.624407911138
 20
2729.173966473036
 10
2395.788731969745
 20
2733.230088527726
 10
2400.782901611439
 20
2739.860294912766
 10
2402.476591399471
 20
2748.958184901025
 10
2399.352335335438
 20
2757.451910775004
 10
2391.075457929584
 20
2766.29542807356
 10
2379.289819508131
 20
2774.122478440195
 10
2365.639270738562
 20
2779.56679385967
 10
2354.759892976646
 20
2783.809426266659
 10
2346.254615244491
 20
2789.230164691314
 10
2338.556885805198
 20
2794.745877548604
 10
2329.61972698072
 20
2799.21381948372
 10
2322.177558256677
 20
2803.279262226651
 10
2322.41548210485
 20
2805.536394863024
 10
2324.863007908729
 20
2808.809038215631
 10
2330.973255112237
 20
2817.566727912398
 10
2336.173416793471
 20
2828.040786128798
 10
2339.788501266246
 20
2838.620259880413
 10
2341.14352650313
 20
2847.694196182825
 10
2341.701801923273
 20
2852.747148942286
 10
2343.603666627055
 20
2856.889050305042
 10
2352.800220688269
 20
2864.387017594867
 10
2363.666394946736
 20
2872.695092744788
 10
2373.418346122293
 20
2883.011819675397
 10
2378.856383357978
 20
2889.510783042983
 10
2384.020025327039
 20
2893.031260115408
 10
2391.15079613507
 20
2894.479192813646
 10
2402.490219887668
 20
2894.760513399928
 10
2414.056450273758
 20
2894.536633365957
 10
2420.704863391791
 20
2893.14839170745
 10
2424.719143766203
 20
2889.520847454536
 10
2428.382995238915
 20
2882.579088613576
 10
2435.610710863417
 20
2870.893698299142
 10
2445.344146226164
 20
2863.748555279603
 10
2460.036612718865
 20
2860.054037293759
 10
2482.141431391978
 20
2858.720522080417
 10
2508.455018914587
 20
2856.843480349468
 10
2525.885536580761
 20
2852.587219454281
 10
2538.618533618715
 20
2848.678934139743
 10
2551.440980287569
 20
2847.05019940708
 10
2564.045351827773
 20
2845.117784095098
 10
2576.253608605771
 20
2840.473937108917
 10
2600.956349390149
 20
2828.272914730395
 10
2629.068192266509
 20
2819.164100702339
 10
2657.590889148865
 20
2811.787418264604
 10
2678.476658387254
 20
2808.557746665357
 10
2695.916921726418
 20
2809.190771107584
 10
2714.10308159362
 20
2813.402205770508
 10
2730.557805300092
 20
2818.686746241885
 10
2740.47289266676
 20
2823.174604507732
 10
2745.333105183851
 20
2827.780019350372
 10
2746.623233317829
 20
2833.417229552125
 10
2745.950926762562
 20
2836.205602783363
 10
2743.892957433514
 20
2838.459634962817
 10
2735.373722815856
 20
2841.405861052039
 10
2720.572972140884
 20
2842.338316226098
 10
2698.998109449648
 20
2841.339418550047
 10
2676.867946231511
 20
2840.573605691278
 10
2672.759058456749
 20
2841.762036906592
 10
2671.660598444524
 20
2844.167547172796
 10
2672.719447946402
 20
2848.710460281115
 10
2675.265618505747
 20
2852.706475970068
 10
2678.391477921332
 20
2860.897419527946
 10
2680.850333432267
 20
2875.536009544981
 10
2681.305492098336
 20
2888.80343456342
 10
2679.22714281883
 20
2894.513481355887
 10
2677.27194252906
 20
2894.514717675156
 10
2674.724216911883
 20
2892.602885147264
 10
2667.905655354382
 20
2883.008419797406
 10
2663.810444361539
 20
2876.999212717948
 10
2659.449782099289
 20
2873.076294405805
 10
2653.861821834685
 20
2870.623446633821
 10
2646.084707176047
 20
2869.02448015107
 10
2632.44012751045
 20
2868.222466318691
 10
2621.611110441278
 20
2870.126765026035
 10
2614.211643025756
 20
2874.525289565916
 10
2610.855683344875
 20
2881.205904937423
 10
2611.371044964124
 20
2887.964466375374
 10
2614.263075839116
 20
2892.893265635692
 10
2622.439212541994
 20
2903.341708862226
 10
2630.002666118125
 20
2920.169443614554
 10
2636.115849579898
 20
2941.065596003057
 10
2639.941185598448
 20
2963.719321114347
 10
2640.656782645637
 20
2972.757433134176
 10
2639.977386572059
 20
2978.074668454985
 10
2637.282297493202
 20
2981.229909770711
 10
2631.950844500793
 20
2983.782049434028
 10
2623.654736535051
 20
2986.483658165282
 10
2616.14469581486
 20
2987.519529514488
 10
2609.344939832499
 20
2986.847029784334
 10
2603.179676421496
 20
2984.423486642535
 10
2597.573113415385
 20
2980.20628570927
 10
2592.449477965187
 20
2974.15275465225
 10
2583.347801749166
 20
2956.36616737771
 10
2572.713331107545
 20
2933.863746495772
 10
2565.138692705522
 20
2934.420003238357
 10
2550.285871740065
 20
2937.833364836571
 10
2519.876174961394
 20
2944.991015929971
 10
2513.868880313305
 20
2944.307350691415
 10
2509.693607989016
 20
2941.131719766488
 10
2503.580366574777
 20
2937.670982027516
 10
2495.389799707924
 20
2935.82470339714
 10
2487.848966910928
 20
2935.900196142535
 10
2483.684975999974
 20
2938.20476287213
 10
2469.929330433752
 20
2950.18516021351
 10
2462.916280401164
 20
2955.838770963072
 10
2459.226717351142
 20
2960.81963085513
 10
2457.913804239378
 20
2967.29804041486
 10
2458.030723339047
 20
2977.444300167439
 10
2460.760043007677
 20
2994.64523914051
 10
2467.394228795367
 20
3010.611858204128
 10
2478.0817356019
 20
3030.858266864032
 10
2485.440636291392
 20
3047.898097982292
 10
2489.683056206007
 20
3062.307003060037
 10
2491.021091711678
 20
3074.660614280903
 10
2490.22738439939
 20
3088.340284164515
 10
2487.370067051387
 20
3097.641345838981
 10
2481.55855515012
 20
3104.192002806023
 10
2471.902215884321
 20
3109.620458567369
 10
2462.030940581766
 20
3115.114033582738
 10
2457.817332701378
 20
3120.625486933794
 10
2459.005503130598
 20
3127.173217301316
 10
2465.339572415611
 20
3135.775604048593
 10
2481.524691592628
 20
3154.236854612008
 10
2490.997186319552
 20
3162.670319580343
 10
2500.413148416128
 20
3165.676758281488
 10
2510.311458543959
 20
3163.272465017066
 10
2521.231035999624
 20
3155.473743747442
 10
2530.419225588279
 20
3147.98162965666
 10
2537.50261059681
 20
3144.291535375703
 10
2543.192586518635
 20
3144.193247993776
 10
2548.200548847179
 20
3147.47659323506
 10
2550.752678851753
 20
3149.081364623131
 10
2554.173709492935
 20
3149.315734053404
 10
2565.472614813224
 20
3145.456012905171
 10
2578.342341035393
 20
3141.212955513433
 10
2583.188287587165
 20
3142.080774370681
 10
2589.269848320122
 20
3144.886977643885
 10
2599.759930393304
 20
3148.720291785221
 10
2610.242353082262
 20
3150.314950468017
 10
2619.280030458597
 20
3152.199236257185
 10
2621.942105949459
 20
3155.070182093386
 10
2624.042283991069
 20
3159.685274997808
 10
2630.771888513629
 20
3174.970846342573
 10
2633.669560095289
 20
3182.851290247661
 10
2633.726102384381
 20
3191.038399284055
 10
2631.0277583087
 20
3199.005733252804
 10
2625.660799772268
 20
3206.226851954954
 10
2619.64461907943
 20
3214.175872944522
 10
2617.142318536665
 20
3221.325014684199
 10
2614.623086215154
 20
3228.209912497506
 10
2608.452616740978
 20
3233.721530047215
 10
2600.711761008414
 20
3236.604133987778
 10
2593.481389229232
 20
3235.6019813149
 10
2585.520758429023
 20
3232.616840144922
 10
2578.433490605287
 20
3232.609866531542
 10
2572.295600075611
 20
3235.564128696016
 10
2567.183130133817
 20
3241.462694859596
 10
2558.826017539117
 20
3253.690288443669
 10
2551.383472124048
 20
3261.252409113087
 10
2543.591463681708
 20
3265.095575173602
 10
2534.185942687713
 20
3266.166295272216
 10
2522.702603645147
 20
3264.583140153874
 10
2514.43669857281
 20
3260.615656395563
 10
2510.492106038473
 20
3257.734539901621
 10
2505.775103723015
 20
3256.789576653704
 10
2485.695337378401
 20
3260.745131862813
 10
2463.776005230694
 20
3264.526056975102
 10
2443.341453890706
 20
3264.190009943656
 10
2426.034027261803
 20
3263.490639586879
 10
2422.266353946684
 20
3265.494297796767
 10
2419.513553870677
 20
3269.573687766458
 10
2416.910734776053
 20
3273.448476555787
 10
2413.707354278771
 20
3275.499568858899
 10
2401.726966596137
 20
3275.356030259959
 10
2390.606245790568
 20
3273.120359353406
 10
2384.600129509283
 20
3269.642689835688
 10
2383.082190232408
 20
3264.178081394454
 10
2385.426000440067
 20
3255.981603376095
 10
2388.031379101929
 20
3245.891035943109
 10
2385.988216627882
 20
3237.050126505513
 10
2383.419579829311
 20
3232.688401781389
 10
2379.890689990607
 20
3230.152285974855
 10
2365.329196070519
 20
3228.684977835563
 10
2348.09716559957
 20
3229.779178341555
 10
2330.328466319462
 20
3232.409254412573
 10
2304.514052360664
 20
3237.585085716932
 10
2298.99663956438
 20
3240.309295909832
 10
2296.847424077993
 20
3245.026829456226
 10
2294.091697402466
 20
3251.733001865132
 10
2287.466870937997
 20
3259.443509823126
 10
2272.985457666843
 20
3275.342401771761
 10
2269.757167268031
 20
3279.196221427231
 10
2265.911712085118
 20
3281.182252428783
 10
2251.355327640762
 20
3280.824898207427
 10
2242.608281880207
 20
3279.450391283305
 10
2237.120521428902
 20
3277.4775637852
 10
2233.768550809415
 20
3274.245487158623
 10
2231.428893861801
 20
3269.093242507829
 10
2226.769283804932
 20
3261.390838236297
 10
2223.320474615162
 20
3259.811826719256
 10
2218.603472299706
 20
3259.351510283734
 10
2208.472492680598
 20
3261.41388400018
 10
2199.709056030977
 20
3266.872900028469
 10
2193.546516385865
 20
3274.636376540166
 10
2191.218256756518
 20
3283.612141365583
 10
2188.913583780735
 20
3293.282746596704
 10
2182.246596897426
 20
3302.066582514271
 10
2177.689582022439
 20
3306.845661579301
 10
2175.225230686002
 20
3311.327019510239
 10
2174.482685742234
 20
3316.642767384428
 10
2175.091070727771
 20
3323.925006620465
 10
2177.383235629694
 20
3334.902343367003
 10
2181.106237252457
 20
3345.146832549044
 10
2186.064592270312
 20
3354.433232249672
 10
2192.06286565123
 20
3362.536300551971
 10
2198.905583728208
 20
3369.230776221538
 10
2206.397282492986
 20
3374.291427000202
 10
2214.342517254792
 20
3377.493001312301
 10
2222.545824005366
 20
3378.610247582175
 10
2231.532821950395
 20
3376.377976553614
 10
2238.230050362087
 20
3368.408517661121
 10
2244.090020183471
 20
3361.568977311014
 10
2251.448177149652
 20
3358.340097728799
 10
2259.661161962008
 20
3358.835282231219
 10
2268.085624980662
 20
3363.167943793765
 10
2276.695255786158
 20
3366.73420331414
 10
2288.110867713741
 20
3368.279032535126
 10
2299.895762411882
 20
3370.117323383972
 10
2308.69833629338
 20
3375.134702988201
 10
2317.428073584161
 20
3380.365482888844
 10
2328.335133307223
 20
3383.472594681756
 10
2344.971576628825
 20
3387.815475195764
 10
2360.03027372889
 20
3395.979857206837
 10
2372.471470443004
 20
3407.231975569769
 10
2381.255354654294
 20
3420.838065139358
 10
2388.289702218049
 20
3433.677965159148
 10
2396.296434204768
 20
3444.072222830199
 10
2404.360664696266
 20
3451.033096326114
 10
2411.567517433096
 20
3453.572882455482
 10
2419.506155272547
 20
3454.876262386628
 10
2429.250601603789
 20
3458.610284636631
 10
2451.883782565968
 20
3472.313541173807
 10
2467.966673593387
 20
3481.884902807316
 10
2472.705929655696
 20
3486.13690419627
 10
2475.868415029641
 20
3493.463225941261
 10
2480.935846246798
 20
3509.490695093925
 10
2484.510866248245
 20
3515.3385818262
 10
2489.083991908713
 20
3519.985094625807
 10
2502.136220104301
 20
3526.401475729687
 10
2521.91591823996
 20
3530.194918574579
 10
2537.959198757034
 20
3531.009285940911
 10
2542.283766291861
 20
3529.718626575997
 10
2545.331525101093
 20
3527.141895749708
 10
2549.676849277406
 20
3523.469786050625
 10
2556.94348964141
 20
3522.055504417505
 10
2593.801682848737
 20
3525.560865555111
 10
2619.388643038174
 20
3530.194068605081
 10
2625.301001888605
 20
3533.263916962511
 10
2629.187448782297
 20
3537.715033365067
 10
2632.669377806248
 20
3545.311384624261
 10
2630.608336996515
 20
3550.881196108337
 10
2628.308348511713
 20
3557.255580992029
 10
2628.676346669281
 20
3565.986168252309
 10
2632.90491594458
 20
3586.747407300526
 10
2632.901081423096
 20
3597.200863415349
 10
2627.45649555878
 20
3607.508656007484
 10
2621.873055586508
 20
3618.204884660116
 10
2622.195483788502
 20
3630.222332944602
 10
2624.79446836164
 20
3648.085156687848
 10
2624.707578297978
 20
3660.898234374738
 10
2621.746979997249
 20
3670.019826921493
 10
2615.724839859183
 20
3676.808204903078
 10
2607.292079979182
 20
3681.759566990063
 10
2599.253512771271
 20
3682.284732234769
 10
2590.772826202087
 20
3678.203526421152
 10
2581.013737214497
 20
3669.335794650654
 10
2570.556446578191
 20
3660.819013354045
 10
2560.518268174251
 20
3657.627986390715
 10
2543.093767905773
 20
3656.480653132367
 10
2532.352336329851
 20
3654.017856853761
 10
2525.686363614692
 20
3649.140065422055
 10
2520.488220611016
 20
3640.747766021898
 10
2516.023205275421
 20
3634.132897722795
 10
2509.329434694189
 20
3629.969756781338
 10
2498.084879128037
 20
3627.38530861836
 10
2479.96750883769
 20
3625.506499337205
 10
2465.521127832089
 20
3624.005385592888
 10
2455.670251797481
 20
3621.800535739374
 10
2447.939190031632
 20
3618.054053709236
 10
2439.852280808535
 20
3611.92804343504
 10
2427.981780659723
 20
3603.156986036172
 10
2418.651481966282
 20
3598.11447437929
 10
2407.529911191216
 20
3593.220601138336
 10
2399.294508433355
 20
3586.435632693488
 10
2393.796741522962
 20
3577.590898393151
 10
2390.888049314064
 20
3566.517717926993
 10
2388.479873234436
 20
3553.929109457476
 10
2385.70880847297
 20
3545.899592492968
 10
2377.973554812097
 20
3541.658824223628
 10
2363.253667144347
 20
3538.627784700768
 10
2345.415386270349
 20
3537.321101479072
 10
2328.32491435576
 20
3538.253402113222
 10
2312.18069030208
 20
3540.580647574418
 10
2313.376684314177
 20
3557.559686556099
 10
2314.826635689972
 20
3569.095733366272
 10
2317.365890588402
 20
3577.020153534125
 10
2321.122862014845
 20
3581.587870297789
 10
2326.225962974677
 20
3583.053797236645
 10
2329.542205899024
 20
3583.86560503574
 10
2330.921349020407
 20
3585.817192955143
 10
2338.12117019139
 20
3596.311959519307
 10
2345.538641506274
 20
3601.786786912003
 10
2353.454436415475
 20
3602.002302473416
 10
2360.015370286445
 20
3601.747601386407
 10
2361.587881468577
 20
3607.161095752842
 10
2363.453429293817
 20
3612.867201777638
 10
2368.375409480664
 20
3616.13276527068
 10
2376.314259812492
 20
3622.643599234999
 10
2385.017541802655
 20
3635.526364761965
 10
2391.802239802665
 20
3650.035092961978
 10
2393.985367140263
 20
3661.423824604194
 10
2392.433670552084
 20
3671.294984001816
 10
2390.214660979436
 20
3677.386184161579
 10
2386.466797748862
 20
3681.11413106142
 10
2380.328540186903
 20
3683.895578973002
 10
2371.22612024757
 20
3685.878683375034
 10
2364.497790679255
 20
3684.151130029508
 10
2358.921169780455
 20
3682.677012475491
 10
2353.423769902344
 20
3686.137643968276
 10
2349.206800778942
 20
3691.984091547651
 10
2348.292233599313
 20
3697.461256356465
 10
2350.620657427314
 20
3702.139826528382
 10
2356.132642009306
 20
3705.590441903335
 10
2363.80087364353
 20
3710.146877253663
 10
2369.840583037465
 20
3717.017992038864
 10
2373.797529105753
 20
3725.505488022774
 10
2375.217451445541
 20
3734.911057310492
 10
2371.965091455949
 20
3748.812366399398
 10
2364.143421009885
 20
3767.288105079253
 10
2352.970156635362
 20
3785.581109975826
 10
2347.828353087148
 20
3789.618609971518
 10
2341.457010707907
 20
3791.906515367208
 10
2330.139782749694
 20
3796.317808767045
 10
2319.233988322138
 20
3802.878317653266
 10
2312.117174399608
 20
3807.763555976821
 10
2305.825478025809
 20
3809.596843596122
 10
2297.539820821392
 20
3808.525746806481
 10
2284.441105089522
 20
3804.697860879438
 10
2272.56293589774
 20
3799.03094038024
 10
2269.414503996742
 20
3795.09588102652
 10
2267.298514590726
 20
3789.701926299791
 10
2265.192377103887
 20
3784.094638887857
 10
2262.133336881322
 20
3780.526669769742
 10
2257.091829733849
 20
3778.255647859076
 10
2249.038301131029
 20
3776.539173093257
 10
2237.125205919884
 20
3773.131780599015
 10
2229.868311228872
 20
3768.579508167478
 10
2224.7082429952
 20
3765.062324726855
 10
2216.869959508951
 20
3763.140456763642
 10
2208.509070345235
 20
3763.077732878203
 10
2201.781175420414
 20
3765.13803962337
 10
2196.662842620833
 20
3765.425107162506
 10
2190.039300769354
 20
3762.599528448249
 10
2179.15182897972
 20
3758.681883810491
 10
2163.781936797275
 20
3756.34355976959
 10
2145.218458084261
 20
3755.127118195825
 10
2144.949278539557
 20
3770.068538822683
 10
2143.022020997026
 20
3781.464881555401
 10
2138.304429498168
 20
3791.414141559378
 10
2131.764107387518
 20
3798.455201950414
 10
2124.368619374645
 20
3801.126916868081
 10
2113.444521626651
 20
3804.95342159469
 10
2105.660124274815
 20
3806.271231689811
 10
2096.259336065522
 20
3803.165385192402
 10
2087.402885708359
 20
3796.761618408569
 10
2081.251482595418
 20
3788.185638668189
 10
2077.630429018668
 20
3781.190689122408
 10
2073.757340168334
 20
3776.833059705864
 10
2068.939346022547
 20
3774.585035265359
 10
2062.483557241952
 20
3773.918890988951
 10
2056.416272133059
 20
3772.381730810933
 10
2052.748644091327
 20
3768.75668817279
 10
2048.585232705032
 20
3765.616987776633
 10
2041.219725434443
 20
3763.720560945888
 10
2034.19921885126
 20
3763.572125363591
 10
2031.070809527182
 20
3765.676408371525
 10
2037.53463438303
 20
3776.781095661566
 10
2042.73415858714
 20
3786.327701933452
 10
2047.603054315351
 20
3799.086313961272
 10
2051.403094082597
 20
3812.801334848997
 10
2053.396040745062
 20
3825.217177359344
 10
2055.380854744835
 20
3834.291490352784
 10
2059.215868825166
 20
3843.807913048752
 10
2061.895040293427
 20
3849.519128549279
 10
2062.264632143803
 20
3853.548795303349
 10
2059.939405360164
 20
3857.462190093619
 10
2054.534111267633
 20
3862.824570385255
 10
2044.700379504147
 20
3870.409427738741
 10
2034.805314714399
 20
3875.857848124539
 10
2027.238026616783
 20
3880.749316338164
 10
2022.313815260006
 20
3882.53676355705
 10
2019.5055836505
 20
3881.255637372755
 10
2018.286273429678
 20
3876.941395035576
 10
2015.98154250143
 20
3860.497914107461
 10
2012.649169474113
 20
3848.737137293819
 10
2007.712546630918
 20
3840.245536343584
 10
2000.595095231266
 20
3833.609592664433
 10
1991.279332947987
 20
3828.029455982708
 10
1982.814892386704
 20
3825.382438474199
 10
1975.798799849664
 20
3825.756086997179
 10
1970.828110615349
 20
3829.237900116199
 10
1969.303941448403
 20
3835.724625854766
 10
1968.504265032143
 20
3848.006675439162
 10
1969.451527061202
 20
3876.941395035576
 10
1971.932955057551
 20
3878.745609834555
 10
1977.496382111648
 20
3879.496944235628
 10
1984.99859924896
 20
3880.911863345874
 10
1992.137947021925
 20
3884.314996333881
 10
1999.950663812028
 20
3888.05418601208
 10
2009.079500417003
 20
3890.277938028175
 10
2016.993170402459
 20
3892.766610082743
 10
2018.816123165366
 20
3895.186975497669
 10
2019.509524418171
 20
3898.626048673192
 10
2022.177945704034
 20
3909.297995242669
 10
2024.696482595956
 20
3912.435570715081
 10
2027.711121571005
 20
3913.57086917804
 10
2034.104775649563
 20
3916.563466898613
 10
2040.821060763744
 20
3924.296914374302
 10
2046.589243538111
 20
3934.90471722293
 10
2050.138580938485
 20
3946.520352086078
 10
2052.440646053308
 20
3963.021080391619
 10
2052.608515029123
 20
3975.576037796019
 10
2050.516643507605
 20
3985.658520860031
 10
2046.039487130435
 20
3994.741777850686
 10
2041.233353922641
 20
3993.529489536967
 10
2032.517245120056
 20
3987.271917506755
 10
2023.890585948369
 20
3979.259969798117
 10
2019.352782315782
 20
3972.784535131629
 10
2016.189186186243
 20
3967.921338062551
 10
2009.653220169271
 20
3964.305239421623
 10
2000.06018431357
 20
3962.051245877146
 10
1987.725369009098
 20
3961.274364097416
 10
1978.556342369119
 20
3963.320453170985
 10
1969.575468067972
 20
3968.302539723568
 10
1963.172493301172
 20
3974.4863672411
 10
1961.684525107838
 20
3977.486981719437
 10
1961.737184581724
 20
3980.137688868266
 10
1962.173334839025
 20
3983.66050335681
 10
1960.534381154901
 20
3985.126111557105
 10
1956.568172350836
 20
3989.129371304278
 10
1951.405969534675
 20
3998.752271997334
 10
1947.293247238428
 20
4010.858735269226
 10
1947.932984507941
 20
4014.250374351525
 10
1950.284937037037
 20
4017.271455709019
 10
1959.510612212295
 20
4031.747489059601
 10
1971.970015659403
 20
4056.433887248635
 10
1982.922278305755
 20
4081.295987655106
 10
1987.62656005498
 20
4096.299108340509
 10
1986.000375230811
 20
4103.966596251419
 10
1982.089540007779
 20
4110.729417195606
 10
1976.552529619323
 20
4120.031599284409
 10
1974.301095642083
 20
4123.266061620827
 10
1968.885891677908
 20
4126.577195069441
 10
1963.151678707219
 20
4131.204013689433
 10
1960.128897410731
 20
4137.606920845025
 10
1958.084884967187
 20
4143.020849854955
 10
1954.69410551313
 20
4145.273558786441
 10
1949.724855431712
 20
4147.373794780515
 10
1943.879045329461
 20
4152.425675419359
 10
1940.129742945987
 20
4155.842069863282
 10
1936.097410378492
 20
4157.76122371935
 10
1924.538684836718
 20
4157.850248365499
 10
1914.10737622256
 20
4157.733966742953
 10
1907.389275264452
 20
4160.068456262371
 10
1890.739048914743
 20
4172.646845780426
 10
1877.830146825722
 20
4179.347483728852
 10
1866.816599446829
 20
4175.141486938966
 10
1856.912165675116
 20
4167.98382618682
 10
1852.29515068058
 20
4165.92236039234
 10
1848.816148256149
 20
4165.259934732483
 10
1843.174833088072
 20
4162.095005696233
 10
1827.346218162915
 20
4149.532794574868
 10
1819.467049212074
 20
4144.117600269439
 10
1812.500206612185
 20
4141.866166292198
 10
1808.156215342583
 20
4141.114831891125
 10
1806.584979114699
 20
4139.310617092145
 10
1806.29918652981
 20
4131.448911150986
 10
1805.041589046611
 20
4129.555787610788
 10
1803.255957671652
 20
4129.64384638251
 10
1798.535439573272
 20
4127.947394193608
 10
1791.302817306668
 20
4121.326402250624
 10
1779.748351271128
 20
4110.763483586726
 10
1770.405283717732
 20
4109.240386540399
 10
1750.979530266693
 20
4105.190590963222
 10
1737.757356465269
 20
4100.120493932641
 10
1730.211047160258
 20
4093.739405880409
 10
1727.812877539717
 20
4085.75663723828
 10
1726.04225585339
 20
4079.218430392631
 10
1721.861439409876
 20
4073.003192638656
 10
1716.966986644265
 20
4069.017019210138
 10
1713.055455991644
 20
4069.166043975836
 10
1711.445468881656
 20
4073.95853903669
 10
1710.775915068512
 20
4082.27768310757
 10
1709.330754429885
 20
4090.186726554509
 10
1705.57026722052
 20
4097.2910806969
 10
1700.356959988305
 20
4102.415537140365
 10
1694.553319963635
 20
4104.384848855544
 10
1691.336310978157
 20
4106.149028159428
 10
1688.883414912451
 20
4110.392085551167
 10
1686.434884599166
 20
4113.396833972061
 10
1681.777090386225
 20
4115.135118182496
 10
1668.007178854681
 20
4115.116853497038
 10
1651.920665798152
 20
4110.946478156106
 10
1637.864527038226
 20
4103.233149844778
 10
1629.520994638004
 20
4094.11672472622
 10
1624.059476994943
 20
4083.474961732658
 10
1622.24472450594
 20
4073.476548378973
 10
1622.943863052854
 20
4069.396327757274
 10
1624.841477909148
 20
4066.290201156278
 10
1625.675780923699
 20
4063.476145323964
 10
1624.990338476193
 20
4058.840788374016
 10
1620.277276928408
 20
4046.599730500399
 10
1613.136441708822
 20
4034.554175270018
 10
1606.002000577958
 20
4027.691260758724
 10
1585.200726034647
 20
4021.917427618945
 10
1577.097841248489
 20
4021.608743810082
 10
1572.040522736607
 20
4023.217349719636
 10
1568.936810821687
 20
4030.515989503482
 10
1567.665430310382
 20
4043.099488497269
 10
1567.400181874604
 20
4051.954605947719
 10
1566.177249624674
 20
4057.20992871761
 10
1563.355824170464
 20
4060.16589082108
 10
1558.295096121846
 20
4062.122955248497
 10
1553.179322889502
 20
4064.261951783421
 10
1552.790935122732
 20
4065.051612081851
 10
1554.035860333418
 20
4065.506500303079
 10
1562.85759716359
 20
4066.511685821665
 10
1567.012431584957
 20
4069.493417454908
 10
1570.747844694136
 20
4076.501734702792
 10
1573.44378374249
 20
4085.949947346563
 10
1574.480215298865
 20
4096.251403802443
 10
1575.476881804984
 20
4106.581343895246
 10
1577.873979304908
 20
4114.583178898611
 10
1579.680734353635
 20
4119.684010053531
 10
1579.442337226993
 20
4123.899144015519
 10
1577.502745468001
 20
4127.099974604307
 10
1574.205916619684
 20
4129.157866663401
 10
1569.895817883806
 20
4129.944223671282
 10
1564.916406803393
 20
4129.330420130197
 10
1559.611640921465
 20
4127.187840201142
 10
1554.325487439791
 20
4123.387877703851
 10
1547.763278614575
 20
4119.260618997443
 10
1543.306830585167
 20
4120.435798415587
 10
1541.12354870766
 20
4126.72525396071
 10
1541.380809361907
 20
4137.940852611471
 10
1543.537684232517
 20
4149.281078039845
 10
1546.24655633948
 20
4154.602997851638
 10
1548.00094167665
 20
4161.371362915048
 10
1547.861662583944
 20
4176.192242413128
 10
1547.965165687789
 20
4194.504419917122
 10
1550.016470483275
 20
4199.839968217111
 10
1553.831413692964
 20
4204.684852307011
 10
1562.904876716905
 20
4210.89866056683
 10
1574.255330755488
 20
4214.692364197818
 10
1583.660368812268
 20
4216.908340924757
 10
1589.966814088603
 20
4220.971340005384
 10
1594.727155189704
 20
4228.508599066992
 10
1599.493880720783
 20
4241.147365395623
 10
1602.269475433322
 20
4250.195957153011
 10
1603.040552307731
 20
4256.539830063482
 10
1601.705230909206
 20
4262.394951195232
 10
1598.161592167965
 20
4269.977306933944
 10
1591.517177770069
 20
4287.447010125716
 10
1592.783294265736
 20
4293.068466915527
 10
1596.064765710627
 20
4299.781767477721
 10
1605.572669394128
 20
4311.237424559144
 10
1609.833827272674
 20
4316.066497284633
 10
1612.723936057551
 20
4322.042690776097
 10
1613.555553941189
 20
4327.125083388166
 10
1611.641239116013
 20
4329.272753475463
 10
1609.461357116496
 20
4331.352541907871
 10
1608.554140241276
 20
4336.353318130659
 10
1604.801322074879
 20
4345.145238417201
 10
1595.7764135585
 20
4356.334265862411
 10
1579.018859242206
 20
4375.657588330221
 10
1574.867801389858
 20
4380.232433247172
 10
1569.801867278067
 20
4374.914772941613
 10
1565.952220200133
 20
4371.269813972737
 10
1560.545361391026
 20
4368.423430323274
 10
1546.58474761216
 20
4365.265465241661
 10
1530.969407419737
 20
4365.719126802363
 10
1516.748760927011
 20
4370.062644793495
 10
1504.042595880702
 20
4376.543507674274
 10
1486.446826758417
 20
4357.550707436176
 10
1474.020060208276
 20
4342.426562684781
 10
1468.851047977387
 20
4332.73806945923
 10
1466.842386537956
 20
4326.810913412542
 10
1462.012415549245
 20
4320.7304248002
 10
1456.116872572628
 20
4313.921386764572
 10
1450.628310445547
 20
4305.171414404497
 10
1446.578524527114
 20
4296.379281625581
 10
1444.999300517699
 20
4289.443743015945
 10
1446.5539237054
 20
4283.747005973115
 10
1450.29097880111
 20
4276.662616455178
 10
1453.996256628095
 20
4267.79220921251
 10
1454.10428002427
 20
4258.364067439381
 10
1450.693960930508
 20
4248.829862995168
 10
1443.844191970195
 20
4239.641296715484
 10
1434.928755661633
 20
4232.124581802989
 10
1432.073997880867
 20
4232.315824939993
 10
1429.049294494265
 20
4234.727835541105
 10
1423.016935404736
 20
4238.065375996619
 10
1414.360025045924
 20
4236.240713635971
 10
1408.209153163919
 20
4234.486067512704
 10
1402.461408292475
 20
4235.349259831435
 10
1381.771721221984
 20
4249.001402293814
 10
1377.071177406801
 20
4250.128606729055
 10
1371.700751381168
 20
4247.298556016191
 10
1365.88502826739
 20
4240.700358709738
 10
1359.848564211536
 20
4230.523113705467
 10
1354.232757787137
 20
4221.979597004656
 10
1347.382612135797
 20
4215.302874107099
 10
1339.842484427135
 20
4210.603102991461
 10
1332.156683537043
 20
4207.990451295147
 10
1324.869547317648
 20
4207.575086655564
 10
1318.525413621081
 20
4209.467186368867
 10
1313.668600981981
 20
4213.776898754971
 10
1310.843447252473
 20
4220.614410768776
 10
1309.31160904256
 20
4226.764809372311
 10
1306.615718287928
 20
4229.767094813411
 10
1300.798237282688
 20
4230.475138722562
 10
1289.901609003465
 20
4229.742822389002
 10
1277.376941421168
 20
4227.716002510298
 10
1268.576019184944
 20
4223.763267654524
 10
1262.874327206292
 20
4217.442189380583
 10
1259.647369714191
 20
4208.310319929903
 10
1255.397821646287
 20
4188.481429809557
 10
1251.896401276352
 20
4177.740046527357
 10
1247.197721598819
 20
4172.231143084792
 10
1239.356347314396
 20
4168.099682824617
 10
1220.162509972581
 20
4156.15677106984
 10
1215.925894963286
 20
4149.851919486315
 10
1212.259483923337
 20
4140.879728396287
 10
1210.124486108551
 20
4132.17074774699
 10
1210.482101116003
 20
4126.655566120636
 10
1208.963688560658
 20
4123.844465864077
 10
1203.752506252186
 20
4119.46937343785
 10
1199.783477094789
 20
4116.059856019865
 10
1197.548066974331
 20
4112.062555717921
 10
1196.937721263704
 20
4098.108432615218
 10
1197.744583785719
 20
4088.919702136882
 10
1199.541390327826
 20
4084.086582397532
 10
1203.700165516861
 20
4082.020480405788
 10
1211.592914662179
 20
4081.132803170273
 10
1222.949328145989
 20
4078.789794638391
 10
1231.11386469697
 20
4074.706463901027
 10
1235.089336236812
 20
4072.200637916597
 10
1240.753378430211
 20
4070.84162361832
 10
1261.003515365411
 20
4071.101434181062
 10
1278.314766857053
 20
4071.695601494996
 10
1286.231846379245
 20
4070.712998120568
 10
1289.73805748635
 20
4057.965937950921
 10
1290.444237257852
 20
4051.644531279677
 10
1288.290762265234
 20
4046.198081277714
 10
1281.691927481658
 20
4039.409336263847
 10
1269.061998904054
 20
4029.061034898143
 10
1256.252813691115
 20
4019.26940560103
 10
1247.006372215627
 20
4013.701786651909
 10
1238.688232654151
 20
4011.138838853727
 10
1228.66395318325
 20
4010.361261644409
 10
1215.536386782177
 20
4009.26504246086
 10
1205.604850573979
 20
4006.470014354802
 10
1198.004606840834
 20
4001.597342057573
 10
1191.87092752367
 20
3994.268142006784
 10
1188.272291892425
 20
3985.92642545049
 10
1191.254187724321
 20
3976.958590454137
 10
1193.858078939562
 20
3968.123060937112
 10
1192.348813215062
 20
3959.935681455877
 10
1186.851625829327
 20
3952.674053980162
 10
1177.491732743372
 20
3946.615761162206
 10
1167.210617602972
 20
3943.525677735483
 10
1155.009324779609
 20
3942.526036336121
 10
1142.83040160803
 20
3943.610442875399
 10
1132.616376105489
 20
3946.772503264595
 10
1121.297013564788
 20
3949.242862339982
 10
1110.222983129131
 20
3948.162715306938
 10
1106.012301848263
 20
3946.796775689005
 10
1104.260051093581
 20
3944.23740162621
 10
1102.078681647444
 20
3939.198772784536
 10
1097.000596835332
 20
3933.708134027432
 10
1091.224860922928
 20
3929.691400331969
 10
1086.950499540935
 20
3929.074505992711
 10
1082.871157864965
 20
3929.380263202055
 10
1077.665780461814
 20
3926.067053123415
 10
1064.335631557935
 20
3908.991330111362
 10
1059.11987100467
 20
3898.149544182235
 10
1058.077953281537
 20
3888.409830635697
 10
1061.260354986214
 20
3879.32816733785
 10
1068.717543057633
 20
3870.460541813539
 10
1074.287827820178
 20
3863.303045260047
 10
1076.623119015371
 20
3854.889177883883
 10
1075.756942144652
 20
3844.7892994214
 10
1071.72286134444
 20
3832.573740632716
 10
1068.530134442113
 20
3821.533361262177
 10
1068.260945238663
 20
3812.718868490223
 10
1067.876923224313
 20
3805.137633165848
 10
1063.162210031253
 20
3799.234112066446
 10
1054.959820861387
 20
3795.628019884606
 10
1044.112761257874
 20
3794.93909063041
 10
1033.260640472354
 20
3797.319159764145
 10
1031.353086768183
 20
3800.05273893901
 10
1030.793265948952
 20
3804.534309362323
 10
1027.777719051939
 20
3844.850574495195
 10
1024.214434424807
 20
3871.668464374838
 10
1021.644416425802
 20
3876.907647383016
 10
1017.76338808766
 20
3879.411763769707
 10
1010.650456980337
 20
3880.104315053014
 10
1003.741972513466
 20
3876.232665355578
 10
996.6121675798646
 20
3870.493497449067
 10
991.5277466314963
 20
3867.90371765924
 10
987.5083567813533
 20
3868.217675142488
 10
983.5736161661959
 20
3871.189719055204
 10
979.2089551838078
 20
3877.519808937569
 10
978.3620088729756
 20
3883.614776007606
 10
980.9037074337126
 20
3888.631315301083
 10
986.7050100422618
 20
3891.726073560043
 10
990.833389163007
 20
3893.224424903492
 10
993.4507929615126
 20
3895.471222683472
 10
995.2234912778637
 20
3903.716689852885
 10
995.5109934604932
 20
3910.001837598053
 10
996.8385975223279
 20
3912.879167864232
 10
999.9039738811504
 20
3912.792065308196
 10
1005.404783295996
 20
3910.183924245468
 10
1008.867172680241
 20
3908.92036731704
 10
1011.808550079827
 20
3909.548871466938
 10
1018.465318011674
 20
3917.850552528138
 10
1023.439252584074
 20
3930.289662953486
 10
1023.419664650647
 20
3946.666875237005
 10
1022.705651637522
 20
3956.79742021262
 10
1023.613457696145
 20
3963.516004107943
 10
1026.930502296268
 20
3969.117167875995
 10
1033.444214566388
 20
3975.895481446026
 10
1041.625789142303
 20
3986.086731629522
 10
1046.906823489503
 20
3996.882039681111
 10
1048.451643051746
 20
4005.861001550889
 10
1047.561840892485
 20
4008.912961913887
 10
1045.424602249023
 20
4010.603184212719
 10
1018.110948342304
 20
4013.891320191173
 10
980.6296309056513
 20
4018.89337136821
 10
961.1078212426171
 20
4020.775107248885
 10
934.3538336152185
 20
4020.97528472436
 10
906.8587305382077
 20
4021.288343944389
 10
900.4088529091202
 20
4023.132961270746
 10
895.8979971731103
 20
4026.525933259758
 10
891.8236104329624
 20
4032.048465190518
 10
891.2298681037762
 20
4036.124551869662
 10
891.5263142836208
 20
4038.916489177545
 10
889.5943239563873
 20
4041.348087712083
 10
887.6580741229215
 20
4043.773301816645
 10
887.9451416620575
 20
4046.551175992838
 10
886.170743406711
 20
4049.879289513921
 10
880.138809301931
 20
4054.461861426307
 10
872.6808775072029
 20
4058.490523670971
 10
866.6284958407539
 20
4060.156898530143
 10
864.7995836326179
 20
4061.316256925135
 10
864.0388802495797
 20
4064.198059189922
 10
856.8143520106939
 20
4071.164901789811
 10
839.4443174012829
 20
4082.141388566851
 10
820.657663742633
 20
4093.844077692313
 10
810.0283025767437
 20
4102.561896092638
 10
803.1964795633291
 20
4107.563947269674
 10
792.0304592470245
 20
4109.131348976074
 10
781.5080010629724
 20
4110.171450855279
 10
774.7140886209079
 20
4112.709112060902
 10
762.0973635467533
 20
4122.31880925051
 10
749.7004135402437
 20
4126.393195990658
 10
722.6320917385699
 20
4129.432590327331
 10
710.4791988828599
 20
4131.04386205031
 10
702.790848084274
 20
4134.206347424255
 10
699.6502977186189
 20
4139.304184368445
 10
699.6926706298333
 20
4144.652134496109
 10
702.5704258807607
 20
4149.085845841449
 10
707.9360032167576
 20
4151.440937462442
 10
716.2194872037096
 20
4155.736007192199
 10
724.5828200297316
 20
4165.027487392326
 10
731.5559504721548
 20
4177.252096424412
 10
735.6687790145895
 20
4190.346542991305
 10
735.8646969838316
 20
4208.183394371144
 10
730.9597548219178
 20
4233.78398304878
 10
726.5941472825886
 20
4250.526266890346
 10
722.7607172363221
 20
4260.018774535446
 10
717.4693576914721
 20
4265.536786173877
 10
708.7299326801646
 20
4270.35553370172
 10
695.9087609655577
 20
4275.711954548127
 10
686.2309213349615
 20
4278.022161984391
 10
680.3859612022086
 20
4279.871096769446
 10
676.7719971437688
 20
4284.124798097397
 10
671.9636907185092
 20
4293.22008988344
 10
664.7298417913805
 20
4301.130244085973
 10
656.3888110059313
 20
4306.713577812059
 10
648.2589396882174
 20
4308.828398510017
 10
643.0670845270768
 20
4308.432022961715
 10
639.7289548881624
 20
4306.884054648832
 10
637.6334613375345
 20
4303.6462310694
 10
636.1695047825139
 20
4298.180299380199
 10
634.0398868882991
 20
4279.575935202593
 10
633.4343319148417
 20
4275.479072564475
 10
631.2858601517671
 20
4272.397411562775
 10
620.3694314467418
 20
4267.523985883491
 10
610.0047778269506
 20
4263.716808304212
 10
603.6689409917315
 20
4259.023817627069
 10
600.2042624850871
 20
4252.068536544096
 10
598.4530838510225
 20
4241.474468429855
 10
596.2029248280294
 20
4229.761135368182
 10
592.6979983339158
 20
4220.774562407899
 10
590.0538591312058
 20
4215.484584063486
 10
589.8732695891574
 20
4212.658155379731
 10
607.7484468663548
 20
4203.972713090279
 10
624.0494130224231
 20
4196.360598760397
 10
630.7483413731103
 20
4211.986891968848
 10
637.4472793825414
 20
4230.49585672907
 10
642.7581302733722
 20
4238.614388680984
 10
647.1316773005107
 20
4242.460114308737
 10
650.6372992242138
 20
4244.087941119434
 10
653.8197492226116
 20
4240.626295458498
 10
657.3162146567244
 20
4232.20593740617
 10
660.1386542790849
 20
4221.773730528791
 10
661.2990268422288
 20
4212.276528733966
 10
660.7096019717407
 20
4207.653332143084
 10
658.8043856836882
 20
4203.672857373698
 10
650.2250060653175
 20
4196.469626665979
 10
636.4080274728319
 20
4187.39297625642
 10
628.2030207832637
 20
4178.930931063722
 10
623.7367884458879
 20
4168.254502836894
 10
621.1360942750086
 20
4152.534712983686
 10
619.8093401826724
 20
4132.018371397021
 10
620.9870695093102
 20
4126.792556090946
 10
623.5348917139279
 20
4123.162993160475
 10
626.8877702553798
 20
4117.75247368728
 10
625.1193314452619
 20
4111.986744233964
 10
619.6591467089135
 20
4107.091596038762
 10
612.2500398665867
 20
4105.153211622808
 10
604.4275677447473
 20
4106.255931141266
 10
597.7273064873477
 20
4110.48408509056
 10
593.8931327177704
 20
4113.537851638742
 10
589.1287542615543
 20
4115.423093643595
 10
574.4275562640121
 20
4116.283465608995
 10
560.7396378127721
 20
4116.835887830094
 10
551.7309173518277
 20
4119.138860866883
 10
543.2599185031692
 20
4120.649343593163
 10
531.9816635781787
 20
4118.483360526685
 10
521.2886319699098
 20
4113.711361321224
 10
514.5733030714143
 20
4107.403795630551
 10
511.695760312861
 20
4098.158262077026
 10
510.0142115664046
 20
4085.705523163481
 10
507.7367955670167
 20
4072.71994996226
 10
503.4277206580343
 20
4062.187697811494
 10
500.6607898391264
 20
4055.833567314583
 10
499.9215675033963
 20
4048.848344124305
 10
500.9796056707544
 20
4041.687660185197
 10
503.6044756785984
 20
4034.807176418033
 10
507.5657392055862
 20
4028.662515108607
 10
512.6329482716226
 20
4023.709346836438
 10
518.5756742141117
 20
4020.403303546066
 10
525.1634787117052
 20
4019.200036499515
 10
527.4566481230356
 20
4023.003534097219
 10
528.4107195668227
 20
4032.148124114136
 10
529.1140403500155
 20
4039.950650929009
 10
531.0658214443053
 20
4046.057691429413
 10
534.0288054548753
 20
4050.381833979492
 10
537.765715669421
 20
4052.835686260883
 10
542.0392946931249
 20
4053.331826978987
 10
546.6122658136844
 20
4051.782854156699
 10
551.2473716362808
 20
4048.101356158163
 10
555.7073451073535
 20
4042.199931006272
 10
560.4793926065383
 20
4031.18213377989
 10
562.4710160210367
 20
4020.246107482694
 10
564.6244910136563
 20
4008.92972949398
 10
569.7832746343372
 20
3996.997471334159
 10
574.6683584179834
 20
3989.664011777136
 10
579.730738111875
 20
3986.514623660453
 10
587.5780138890611
 20
3987.01455060632
 10
600.8178052400751
 20
3990.629045895695
 10
604.6968052419177
 20
3990.795804115915
 10
606.6240048319812
 20
3989.062503817537
 10
606.2869919261045
 20
3986.310824155867
 10
603.373354440129
 20
3983.422415309984
 10
600.9668879582402
 20
3978.732138739986
 10
599.9659619458878
 20
3970.412994669104
 10
598.3031511633596
 20
3961.305880580045
 10
593.5736890677633
 20
3955.515869043574
 10
588.4102209560994
 20
3949.223264747812
 10
584.9666178295044
 20
3939.705567097597
 10
582.3183833192149
 20
3931.301020409675
 10
578.3575544357206
 20
3924.676416096325
 10
574.0536469549367
 20
3921.035397895121
 10
570.3761669940266
 20
3921.581648178618
 10
567.031488726481
 20
3921.052329673867
 10
562.7061291746201
 20
3915.609337502361
 10
558.4497620332456
 20
3906.975753011017
 10
555.3120803146464
 20
3896.874647888007
 10
545.9059797959932
 20
3859.862272145529
 10
541.8034764512083
 20
3851.917983940665
 10
536.7043162590496
 20
3847.293676594187
 10
531.267283532771
 20
3841.389943002411
 10
528.5359451865831
 20
3833.589995072262
 10
528.7779740010798
 20
3825.589435023147
 10
532.2610717330915
 20
3819.083874733208
 10
535.0667437753588
 20
3814.440182286933
 10
537.2852704107915
 20
3807.116690554022
 10
539.2632653370927
 20
3787.582527357038
 10
541.1935557253307
 20
3778.912423153521
 10
545.8429371719928
 20
3769.904977646824
 10
550.5170256865556
 20
3761.418437878597
 10
549.7385502140184
 20
3758.865506198248
 10
546.9878267680339
 20
3756.190227203937
 10
534.262064129555
 20
3744.349958924763
 10
523.9640751628737
 20
3731.561588305775
 10
514.4953570049681
 20
3722.692996907035
 10
500.3678787596943
 20
3713.839743594233
 10
486.3473131549987
 20
3705.497592394445
 10
477.13628063609
 20
3697.855661520931
 10
473.6115923511531
 20
3694.052376415604
 10
470.1396214925678
 20
3692.481352680094
 10
457.5437689648303
 20
3695.269455466492
 10
446.260240365457
 20
3698.055954901338
 10
438.2992425329645
 20
3697.05067279531
 10
432.1073209877129
 20
3691.538678554573
 10
426.1310212500618
 20
3680.805070561529
 10
419.1080613458296
 20
3669.169306875273
 10
411.2143076911058
 20
3661.691729194651
 10
403.0611587996461
 20
3658.768771020432
 10
395.2600421614377
 20
3660.796865853381
 10
387.9499084718825
 20
3663.109632856882
 10
378.6490013373266
 20
3659.805308822994
 10
366.5732045785642
 20
3651.225494561129
 10
363.0562432890622
 20
3648.317024503349
 10
358.288986527047
 20
3648.151608848585
 10
352.9275527923521
 20
3650.5819807226
 10
347.6280992197855
 20
3655.4608829099
 10
341.1165794846186
 20
3666.405428219561
 10
338.4064227646657
 20
3670.820990784374
 10
332.0495008906544
 20
3676.828642806002
 10
325.2824204402362
 20
3684.02122957751
 10
325.5079521194809
 20
3687.211667357439
 10
327.7561890523596
 20
3691.436141325157
 10
332.3293340303151
 20
3696.711631553132
 10
336.7721535715239
 20
3698.905142040846
 10
342.9542231975963
 20
3702.475767313641
 10
352.4086753901809
 20
3710.631678605969
 10
361.065798241367
 20
3719.538924299369
 10
364.8558798432461
 20
3725.363543116642
 10
362.6051412955956
 20
3735.243066986822
 10
356.0550155594899
 20
3747.206638795642
 10
345.508651983311
 20
3760.800635617376
 10
331.2692095741902
 20
3775.571473161273
 10
294.5272979894087
 20
3810.497241397872
 10
285.2413039560408
 20
3818.317636889689
 10
279.3132882811108
 20
3821.571271833528
 10
275.1656399655001
 20
3822.945942956304
 10
271.0026632226961
 20
3826.534987454466
 10
267.537347238929
 20
3831.535976169631
 10
265.4826812004292
 20
3837.146460625924
 10
264.2424984331912
 20
3840.365488288961
 10
261.7072905486191
 20
3842.349548906678
 10
250.6332697717082
 20
3843.525105015849
 10
231.9675725678405
 20
3841.82140876873
 10
228.1955914527664
 20
3842.601700085193
 10
227.6129277032835
 20
3848.830411787457
 10
229.0825249649718
 20
3873.645870117737
 10
227.4429820974458
 20
3885.130638654458
 10
225.2647227669716
 20
3886.164819723413
 10
222.0780905322933
 20
3884.215279457798
 10
212.3716610185909
 20
3871.830306294213
 10
203.6351046543371
 20
3861.473118883761
 10
199.888458425544
 20
3858.924968281836
 10
196.8101007143925
 20
3858.350669004911
 10
192.696093805155
 20
3857.583146548402
 10
191.0788626369465
 20
3854.091423557738
 10
189.1558163069283
 20
3850.359477937758
 10
184.4651147521815
 20
3848.830411787457
 10
178.6567322840653
 20
3849.946489349273
 10
175.7485809648476
 20
3852.568751496159
 10
176.210549045644
 20
3855.608194126553
 10
180.5125344363148
 20
3857.975851773872
 10
185.5691092248855
 20
3860.557807980823
 10
187.6714701427052
 20
3864.136421035147
 10
189.9101256012448
 20
3879.609391336689
 10
192.1453811817935
 20
3890.795859214661
 10
167.9358545159991
 20
3888.546975145915
 10
150.4215858780596
 20
3887.822424442767
 10
137.7408136704973
 20
3889.558545094479
 10
129.0971647675999
 20
3893.985022040343
 10
123.6942660436541
 20
3901.331511243418
 10
119.5470427127923
 20
3906.358858671758
 10
112.9771648446064
 20
3908.177397388524
 10
103.7226872938674
 20
3906.794468039378
 10
91.52166491534467
 20
3902.217440246216
 10
74.27685592569537
 20
3896.533906706834
 10
68.99028711801588
 20
3894.621504313028
 10
62.71216127994808
 20
3890.025786849659
 10
59.2489798786703
 20
3886.058940568471
 10
57.36255950701229
 20
3881.523493669492
 10
57.35914997027634
 20
3866.514780571144
 10
57.98563544261719
 20
3857.174427124894
 10
57.31102044746354
 20
3851.290126926634
 10
54.83922221917623
 20
3847.306513065354
 10
50.07414833337112
 20
3843.668208971297
 10
41.21535090134488
 20
3839.554211720803
 10
37.53488638844852
 20
3840.493746754429
 10
32.63511165473142
 20
3843.405838841319
 10
27.46779936283952
 20
3847.301818915627
 10
24.64648015481657
 20
3851.310564829559
 10
23.64981364869686
 20
3856.71655435168
 10
23.95647878000432
 20
3864.804265250553
 10
22.72481502523283
 20
3872.717886942286
 10
18.75680003598586
 20
3880.835626877168
 10
13.3449090211036
 20
3887.166402530377
 10
7.781588213193344
 20
3889.719121718353
 10
-8.914633076840118
 20
3885.609808958841
 10
-19.90048883584382
 20
3883.286813345133
 10
-29.60091061059689
 20
3886.948906926384
 10
-39.41717936440205
 20
3890.611860135877
 10
-50.84600445417732
 20
3888.46860409472
 10
-60.22570762467717
 20
3883.753630115565
 10
-61.71345366689161
 20
3880.729139221335
 10
-61.6576647598547
 20
3876.610882464609
 10
-62.50221570210101
 20
3869.384760532915
 10
-66.31344029523848
 20
3862.616723866811
 10
-72.04067965254785
 20
3857.60433783338
 10
-78.63329420479954
 20
3855.64519677594
 10
-85.07538688598675
 20
3853.64335440998
 10
-91.73471438507135
 20
3848.830411787457
 10
-100.8440016915963
 20
3843.187396680385
 10
-110.2219469706349
 20
3842.418125991158
 10
-117.5842089031405
 20
3846.121694220404
 10
-119.7955977265408
 20
3849.525512979258
 10
-120.6464365113227
 20
3853.897205527491
 10
-123.3382802520957
 20
3857.542261083809
 10
-129.7407720816816
 20
3861.591100445302
 10
-135.2346078831467
 20
3865.848955033296
 10
-137.2161668860919
 20
3871.274049551629
 10
-135.662760700173
 20
3877.26265452951
 10
-130.5517299112769
 20
3883.211001861177
 10
-126.9327046708288
 20
3887.56453597014
 10
-126.0739940094483
 20
3892.046792164297
 10
-127.9311773621314
 20
3896.27159452932
 10
-132.4598727988502
 20
3899.852709198419
 10
-135.8178028635664
 20
3902.291445544991
 10
-137.5551984695255
 20
3905.756867774945
 10
-137.1484397711094
 20
3919.956322982692
 10
-136.697386071364
 20
3932.808151551686
 10
-139.0190970720807
 20
3938.867352291606
 10
-142.1043318091685
 20
3945.464757581027
 10
-142.8681742841024
 20
3956.696959613227
 10
-141.4527722366426
 20
3967.689576493237
 10
-139.9722895701363
 20
3971.572797366335
 10
-138.0002927240409
 20
3973.568235984828
 10
-133.1291561671539
 20
3973.910039627874
 10
-127.0783198997921
 20
3971.988905729226
 10
-113.8691371094417
 20
3962.477177182984
 10
-109.9945028600202
 20
3955.504375137867
 10
-110.3492975141396
 20
3945.416357613375
 10
-110.9889285374636
 20
3938.094672065643
 10
-109.6192703029767
 20
3934.549758370158
 10
-106.4594410837123
 20
3934.934630354007
 10
-101.7285977876825
 20
3939.402311503025
 10
-98.59193023723333
 20
3941.908765305836
 10
-93.83920988537989
 20
3943.382148795287
 10
-76.97729283699778
 20
3943.661556950199
 10
-58.8951190108553
 20
3944.098122533505
 10
-54.28597589291917
 20
3946.570558238915
 10
-50.20200767843267
 20
3951.232776156741
 10
-46.94283827411368
 20
3956.536382989355
 10
-45.30132502275296
 20
3962.430322614418
 10
-46.00750479425619
 20
3982.403601303201
 10
-48.08138207515526
 20
3996.362998080288
 10
-51.79368180924189
 20
4006.530922396316
 10
-58.50938739876506
 20
4015.397437165034
 10
-69.59348224597466
 20
4025.452605300185
 10
-72.12878671798875
 20
4028.399304667876
 10
-73.42338685057462
 20
4032.34618632461
 10
-72.69420960890897
 20
4045.896960265631
 10
-70.17912088870002
 20
4057.456960761651
 10
-67.41615015495222
 20
4062.927103663366
 10
-65.33253685980549
 20
4064.898704500945
 10
-64.45512686947336
 20
4068.038192404728
 10
-61.51327619141671
 20
4072.510818830825
 10
-54.4748816138042
 20
4077.681115674703
 10
-47.05145085369053
 20
4083.70325581277
 10
-46.00180613512316
 20
4086.895924762631
 10
-46.43342644135032
 20
4090.683726900857
 10
-46.72007865448153
 20
4098.049659156195
 10
-44.71951124276779
 20
4105.461586351855
 10
-41.46460134468156
 20
4114.775851529768
 10
-39.67657460113855
 20
4125.772621669824
 10
-39.45254002725892
 20
4137.359087125207
 10
-40.88960663816737
 20
4148.442438249107
 10
-45.17253532634799
 20
4169.989136041984
 10
-46.175750461098
 20
4183.941076268476
 10
-43.66444796865221
 20
4194.037342360593
 10
-37.40384309273191
 20
4204.017008091605
 10
-30.4104872397586
 20
4216.45260273403
 10
-27.14502999290494
 20
4229.19422503064
 10
-27.69884307318375
 20
4241.396638268341
 10
-32.16326922537678
 20
4252.214576757809
 10
-35.43095764216218
 20
4260.187445187037
 10
-36.03065941657837
 20
4268.280429760294
 10
-38.26314293751489
 20
4277.066815586357
 10
-45.43421002673745
 20
4287.041526381546
 10
-54.81966015009152
 20
4295.217141512232
 10
-63.69528311467752
 20
4298.606221027291
 10
-71.06249032426081
 20
4302.205281643288
 10
-79.83268809488686
 20
4310.859207450112
 10
-88.92276415901301
 20
4320.345388617699
 10
-97.05705918161243
 20
4325.947141569153
 10
-103.2193283818835
 20
4331.117003769537
 10
-106.795391527716
 20
4340.953295100262
 10
-109.2440280871885
 20
4349.54972240231
 10
-111.9201087572753
 20
4353.124500935151
 10
-115.2589241670355
 20
4356.343209859628
 10
-119.3005194703075
 20
4364.082674733012
 10
-126.0773938874397
 20
4375.503405795071
 10
-136.000150297076
 20
4387.573243108601
 10
-143.1087156519781
 20
4394.366943058292
 10
-149.1765416505516
 20
4398.123373595055
 10
-156.3560215060536
 20
4399.711435355499
 10
-166.7995677492315
 20
4400.0
 10
-190.5490967180651
 20
4398.487121905135
 10
-195.8731511123462
 20
4395.150431419119
 10
-201.4936420277279
 20
4389.109968643128
 10
-204.5947460816894
 20
4384.429650238497
 10
-205.3444191787451
 20
4380.89517764559
 10
-203.531530827391
 20
4377.039339312562
 10
-198.9449119011458
 20
4371.394943005056
 10
-192.8908302957013
 20
4361.504978032296
 10
-190.112946460765
 20
4351.42080468803
 10
-188.9782854749303
 20
4330.976449722584
 10
-189.824603967382
 20
4319.87772187777
 10
-192.8252377632068
 20
4307.547214373254
 10
-196.031168168982
 20
4295.370899062635
 10
-197.3638817065473
 20
4284.635909869155
 10
-199.4308916202546
 20
4276.083787227178
 10
-206.7342158950835
 20
4270.457752192572
 10
-217.4431651139478
 20
4267.013946232347
 10
-226.7385860817455
 20
4268.020609538809
 10
-235.402151315375
 20
4273.771657700801
 10
-244.2155333317362
 20
4284.560948354696
 10
-253.0721961812744
 20
4300.948379589677
 10
-254.8041056204754
 20
4308.70365582747
 10
-255.2895541086484
 20
4317.823915467513
 10
-256.8663247970123
 20
4332.777679969576
 10
-259.2915389015741
 20
4337.443307424138
 10
-263.2117431065706
 20
4341.437140236881
 10
-272.9475158854364
 20
4348.789289464114
 10
-281.224074552729
 20
4353.035485947747
 10
-289.4047895004012
 20
4354.661603160704
 10
-298.8530697553827
 20
4354.153533893398
 10
-308.66731983163
 20
4351.487305142489
 10
-311.9370172672286
 20
4348.961968494585
 10
-314.2808854273533
 20
4345.26406994824
 10
-316.6885302760454
 20
4333.217394303521
 10
-316.8849891349671
 20
4313.080824883718
 10
-317.3487151072247
 20
4296.377204995558
 10
-320.3826812296054
 20
4285.73436988138
 10
-327.0404053771374
 20
4279.297328723457
 10
-338.3754150835932
 20
4275.211061727828
 10
-352.1118880423944
 20
4269.533072307671
 10
-363.7809357614845
 20
4261.148751030299
 10
-372.5933036096942
 20
4253.912303900957
 10
-379.3970100184722
 20
4250.902726107917
 10
-383.191563618959
 20
4249.901800095563
 10
-384.7704688898127
 20
4247.495333613675
 10
-386.4388141328206
 20
4245.088867131786
 10
-390.4505928924598
 20
4244.087941119434
 10
-393.8567104324545
 20
4243.484829808283
 10
-394.0760605153512
 20
4242.033284739679
 10
-393.5364168129497
 20
4238.184632512406
 10
-395.1255313765212
 20
4231.811107256955
 10
-396.4331225201807
 20
4225.136026345928
 10
-394.8380388526359
 20
4223.948020115361
 10
-391.5000734123739
 20
4223.643586153986
 10
-386.980911156272
 20
4223.039895318177
 10
-384.7381024376862
 20
4219.266368804017
 10
-384.6512123740256
 20
4190.435142652706
 10
-383.85303306313
 20
4167.961253701409
 10
-381.7858106570491
 20
4159.847667026574
 10
-378.3066440339656
 20
4151.996344235531
 10
-373.2453944131564
 20
4138.709640363482
 10
-371.1408989128479
 20
4126.069492834418
 10
-368.9418539646547
 20
4114.317824216644
 10
-362.3395999855977
 20
4103.427367875023
 10
-356.1790403830666
 20
4093.623027670421
 10
-355.0477889339661
 20
4085.068345461207
 10
-354.7530426931173
 20
4078.360038469813
 10
-351.9232044726284
 20
4073.323061273411
 10
-348.8748178450185
 20
4067.376143435899
 10
-347.392654557005
 20
4058.336070690979
 10
-347.7319565852779
 20
4050.073517202911
 10
-348.6644117593371
 20
4047.443402496916
 10
-350.1479562477846
 20
4046.459176453446
 10
-353.3168260517062
 20
4048.976815082149
 10
-356.9150366982028
 20
4055.028771763848
 10
-362.1398474948717
 20
4062.204310851678
 10
-369.2225370738122
 20
4067.424862142114
 10
-376.7550053982516
 20
4073.494706818244
 10
-383.0633631059566
 20
4082.710423828135
 10
-387.6663246275455
 20
4090.797873940913
 10
-391.101408741675
 20
4094.162671372822
 10
-396.1965219199758
 20
4096.495615493151
 10
-401.9573543899362
 20
4102.128730387323
 10
-406.6704159377224
 20
4109.013415708256
 10
-408.622216349501
 20
4115.101100085095
 10
-406.0509137375054
 20
4123.128492125859
 10
-399.8686219603144
 20
4132.543536641728
 10
-393.5249132484971
 20
4142.587684149639
 10
-393.3196166385462
 20
4151.716936080618
 10
-399.6360683739693
 20
4163.821593167328
 10
-411.2782744426684
 20
4178.726484423268
 10
-424.1854862514385
 20
4191.802888455822
 10
-434.2969165720972
 20
4198.422064554879
 10
-442.0280749253899
 20
4198.947123553398
 10
-450.3942957159559
 20
4197.654551757116
 10
-456.8579080794286
 20
4195.187708464651
 10
-458.8812604689303
 20
4192.189943315881
 10
-460.530433104516
 20
4188.854112458108
 10
-465.696045457413
 20
4184.332496880955
 10
-469.3276270654421
 20
4181.103511052554
 10
-471.69262855808
 20
4177.173995818057
 10
-473.3626737400834
 20
4165.38740118092
 10
-471.7689712729727
 20
4153.654151788514
 10
-467.5718122341152
 20
4141.067986981303
 10
-461.6470998497332
 20
4129.702098269343
 10
-454.8707566635382
 20
4121.629657845194
 10
-450.9935725056232
 20
4114.744595833237
 10
-449.5109262803951
 20
4103.921441621849
 10
-448.6275568448343
 20
4092.818879255552
 10
-446.5021984568527
 20
4084.744642304968
 10
-437.7243316432575
 20
4065.968632582528
 10
-436.3345349269195
 20
4058.500897162342
 10
-442.0900550875192
 20
4061.80522119623
 10
-453.6849816029032
 20
4071.994172598586
 10
-466.1720090586893
 20
4082.677844883636
 10
-477.4029940891089
 20
4088.463809406245
 10
-490.0152375059112
 20
4090.181346633938
 10
-506.6460884145678
 20
4088.659737034232
 10
-538.6176427804159
 20
4086.761813098122
 10
-545.2558369469877
 20
4086.765811818258
 10
-550.9673132336095
 20
4085.398433047426
 10
-563.0486541115963
 20
4077.20407995281
 10
-570.3545282949187
 20
4069.617570954052
 10
-573.0195303853008
 20
4062.171944399552
 10
-571.1599516640338
 20
4052.377127716822
 10
-564.8920544361728
 20
4037.743067650861
 10
-561.2188243227522
 20
4022.867027064124
 10
-560.2464978522509
 20
4003.315623008576
 10
-561.8814624749818
 20
3984.527047259812
 10
-566.0301152999993
 20
3971.939501252167
 10
-569.7650454719648
 20
3963.872498701057
 10
-567.9621152859761
 20
3955.754391733894
 10
-565.7334662865248
 20
3950.027896099895
 10
-566.0054178908414
 20
3946.60170768926
 10
-569.3938599287796
 20
3944.554874892382
 10
-576.5146629127014
 20
3942.966446099655
 10
-584.6451330725606
 20
3943.221997156163
 10
-589.6297212399152
 20
3948.721531616762
 10
-601.9849261535889
 20
3965.31553441594
 10
-614.4389496801257
 20
3982.352496887146
 10
-617.1344540849861
 20
3986.257527204857
 10
-621.0940080142329
 20
3989.02885275242
 10
-635.3058167559309
 20
3992.370227729415
 10
-644.8091904883601
 20
3993.097386293525
 10
-652.9948700305988
 20
3992.281637726761
 10
-673.3084649158056
 20
3984.352629655367
 10
-689.1115228035644
 20
3977.762738869006
 10
-697.5418390212601
 20
3976.171480064202
 10
-702.9638524001618
 20
3974.070403759372
 10
-711.5291882043305
 20
3966.262786786256
 10
-722.0405678086792
 20
3957.051754267348
 10
-726.4767228163257
 20
3955.954037978433
 10
-731.5885069872763
 20
3956.606235028083
 10
-741.6475579376331
 20
3960.097533033998
 10
-741.8431088745917
 20
3962.632692624848
 10
-739.8105420430349
 20
3966.9442691486
 10
-733.9839045482051
 20
3988.523285099884
 10
-730.4487365257102
 20
4000.561596272043
 10
-725.523346802128
 20
4007.98971152314
 10
-720.6069107345058
 20
4015.655924479806
 10
-717.3490162844339
 20
4029.156434315526
 10
-715.1084966882446
 20
4040.817542546807
 10
-712.0262368443993
 20
4047.266299761556
 10
-707.8419046179631
 20
4048.787329836605
 10
-702.2951485565156
 20
4045.665256648783
 10
-693.4691522201084
 20
4040.470262395747
 10
-680.3242870080055
 20
4034.812710878513
 10
-667.8395969683381
 20
4028.671739209408
 10
-660.6091092842232
 20
4022.310982813913
 10
-656.483878914117
 20
4018.130543061426
 10
-650.8805805635772
 20
4015.976643084058
 10
-645.8158634535672
 20
4016.212181222392
 10
-643.3063768050476
 20
4019.200036499515
 10
-642.0286022050211
 20
4026.014821487999
 10
-640.750827604995
 20
4037.582916011737
 10
-637.9648594010848
 20
4045.703582546138
 10
-631.8643482118239
 20
4053.768035188754
 10
-625.8737245563854
 20
4061.737069096499
 10
-623.345866976221
 20
4069.629441550788
 10
-621.6059697554895
 20
4078.364722960794
 10
-617.5021914564584
 20
4088.370100269115
 10
-613.633951295759
 20
4098.072656626356
 10
-612.4592548148286
 20
4106.088545102667
 10
-616.4522859517953
 20
4128.854186084081
 10
-619.2245773737861
 20
4134.166630667722
 10
-622.9267644025979
 20
4136.639230571785
 10
-629.1340143750423
 20
4137.47547499394
 10
-634.7269875279327
 20
4136.301464283855
 10
-638.7693748482368
 20
4133.504050467958
 10
-640.3249059579009
 20
4129.470075913932
 10
-641.8479547105073
 20
4124.947127430068
 10
-646.0284524154587
 20
4122.820967366309
 10
-652.2834165847118
 20
4123.189660953467
 10
-660.0298550714763
 20
4126.151273422347
 10
-667.7880675675339
 20
4129.211115320689
 10
-672.2623939326274
 20
4129.234962760349
 10
-673.7714471647525
 20
4128.95470463594
 10
-674.3988309003127
 20
4131.275990651907
 10
-675.3307548434356
 20
4133.650090681668
 10
-677.5711102409707
 20
4133.494198548778
 10
-680.4814540951431
 20
4133.193502521444
 10
-683.0263497002408
 20
4135.22856130903
 10
-686.289778610793
 20
4137.127760199388
 10
-690.9280911364946
 20
4136.509745445791
 10
-705.0653633484833
 20
4133.7190927509
 10
-711.8631103120321
 20
4131.657617297673
 10
-714.6742105685932
 20
4125.681047115182
 10
-715.7235848423199
 20
4121.789278253383
 10
-717.9427489548763
 20
4119.45319504116
 10
-728.4741511361446
 20
4118.01441883251
 10
-738.5664185081252
 20
4119.131191823915
 10
-744.9863733473928
 20
4121.817066460715
 10
-756.7418764866508
 20
4129.568884868051
 10
-762.8896092767611
 20
4134.553898020154
 10
-765.6228214193422
 20
4140.85247141989
 10
-764.736737876635
 20
4147.079473524414
 10
-760.0266029283691
 20
4151.849830743347
 10
-753.6032482111107
 20
4153.613150418991
 10
-748.1484337365893
 20
4150.388057064538
 10
-742.2208527051518
 20
4146.505328787397
 10
-737.7345881321123
 20
4147.996919009841
 10
-734.800821823029
 20
4154.73886740761
 10
-733.5307162659712
 20
4166.607242632677
 10
-730.6446544949519
 20
4196.875110410148
 10
-730.1778473832648
 20
4209.201348749686
 10
-733.9634569865368
 20
4221.323150107517
 10
-737.4433673329306
 20
4227.914644245431
 10
-740.8446844770112
 20
4231.354519096731
 10
-745.623454462224
 20
4232.448391205417
 10
-753.2356750382907
 20
4232.001915750465
 10
-762.7869078486926
 20
4231.896181476687
 10
-771.3612938962644
 20
4233.867463575707
 10
-779.8820159605427
 20
4238.258850303554
 10
-789.2722568210663
 20
4245.413420257523
 10
-793.6410131110358
 20
4248.830548766012
 10
-796.9597576501544
 20
4250.067486195169
 10
-800.455479360956
 20
4249.187796741184
 10
-805.3551478484857
 20
4246.255044600252
 10
-818.7947593014376
 20
4236.01593533878
 10
-829.0731506759469
 20
4225.20757832365
 10
-835.6421785746348
 20
4214.529556404013
 10
-837.9536706238889
 20
4204.681442770275
 10
-836.6056190003858
 20
4195.447837765953
 10
-832.9345814219198
 20
4190.837207201395
 10
-828.7379536139985
 20
4185.998292215471
 10
-825.6938747863429
 20
4177.067942805719
 10
-822.0547786752543
 20
4167.342388978314
 10
-815.3796977642276
 20
4162.150369618521
 10
-811.42999575416
 20
4160.109718417991
 10
-808.9465394215114
 20
4157.286747564694
 10
-807.2871381757183
 20
4147.283920164867
 10
-808.2633571201697
 20
4136.390488930004
 10
-810.6093502040382
 20
4126.754384733498
 10
-812.156623087332
 20
4118.291219126462
 10
-810.8180466919804
 20
4110.218730408594
 10
-807.0299837676586
 20
4103.772214022521
 10
-801.2287970640411
 20
4100.186946093377
 10
-798.0192446291564
 20
4098.568217819804
 10
-795.6875175106081
 20
4095.371443903618
 10
-792.8500199058942
 20
4082.54687231102
 10
-789.8033815110014
 20
4069.335129953432
 10
-784.9959733489598
 20
4059.928594791286
 10
-781.2724404952603
 20
4054.980323502473
 10
-781.074919174466
 20
4051.767892761789
 10
-784.6864395705981
 20
4049.869022268738
 10
-792.3900222089339
 20
4048.861383429101
 10
-797.4584096417759
 20
4048.840993819897
 10
-800.5865002272928
 20
4049.955583935092
 10
-802.3269286789597
 20
4052.634813355819
 10
-803.2323393689974
 20
4057.308312686981
 10
-804.246198439959
 20
4061.870862022447
 10
-806.3087943075231
 20
4065.053746664339
 10
-815.1582130988419
 20
4068.804855232995
 10
-825.5805777157846
 20
4072.407750370473
 10
-835.3742739841766
 20
4077.766296140626
 10
-843.0786582982889
 20
4082.112219159085
 10
-847.781867926896
 20
4081.619207874132
 10
-849.9672360931706
 20
4075.847721809215
 10
-850.1180573853073
 20
4064.358210829046
 10
-850.5026879005493
 20
4052.879546618718
 10
-852.6571577438296
 20
4041.954714806158
 10
-856.3803235652461
 20
4031.875283905343
 10
-861.4710709911262
 20
4022.932832088993
 10
-867.7282566715669
 20
4015.418937529831
 10
-874.950766232895
 20
4009.625159083085
 10
-882.937456325207
 20
4005.843074921481
 10
-891.4872125748308
 20
4004.364253558992
 10
-903.5801536047127
 20
4005.928458221032
 10
-913.6676398982688
 20
4010.524813161524
 10
-920.0751349573986
 20
4017.027611050595
 10
-921.3755979477694
 20
4020.642135316202
 10
-921.128121601491
 20
4024.311125240878
 10
-917.0873762677167
 20
4043.057318419685
 10
-917.4179467911493
 20
4048.111710332046
 10
-919.3460543031767
 20
4049.866568947687
 10
-921.179969740857
 20
4050.943383713951
 10
-922.3858253308765
 20
4053.857475160909
 10
-923.0051729911849
 20
4063.299361327167
 10
-921.3877776243233
 20
4074.395964248237
 10
-917.7173195705142
 20
4083.351011067144
 10
-913.1288944590872
 20
4094.305408295986
 10
-911.985666167064
 20
4107.378673236644
 10
-914.1844406704175
 20
4120.05646089222
 10
-919.6220529213526
 20
4129.824445583302
 10
-924.6441266753087
 20
4137.290886731754
 10
-925.3498814620636
 20
4143.474453463191
 10
-925.8086042047768
 20
4149.229113995549
 10
-930.0316390195959
 20
4155.574107320357
 10
-934.7887830763355
 20
4162.266226256317
 10
-936.7680529568836
 20
4168.897012166015
 10
-938.7187812480449
 20
4174.166967933511
 10
-943.4090578180438
 20
4177.58927352894
 10
-948.717774126387
 20
4181.027332536312
 10
-952.1558331337589
 20
4186.336048844656
 10
-954.5772127168364
 20
4191.026325414654
 10
-957.440702002443
 20
4192.977053705816
 10
-959.6857515497047
 20
4194.322970746831
 10
-960.6198004165715
 20
4197.559992650485
 10
-962.5973703581241
 20
4202.587600864921
 10
-967.352804817124
 20
4208.238767952177
 10
-971.6299382587287
 20
4213.317055597921
 10
-972.4570841437591
 20
4216.971914779695
 10
-974.4018529896917
 20
4221.446666129537
 10
-981.3708205133254
 20
4228.49230476537
 10
-987.0242670642353
 20
4233.615901580591
 10
-989.719356143091
 20
4237.646688749
 10
-989.9464332214222
 20
4241.989888001568
 10
-988.19582445327
 20
4248.050740386763
 10
-984.861481042118
 20
4261.758198477706
 10
-984.5950638982806
 20
4274.389459962023
 10
-987.3275806112717
 20
4285.289971056452
 10
-992.9900291118631
 20
4293.805206953973
 10
-1001.508510347466
 20
4305.209749960595
 10
-1002.946059895589
 20
4307.730682221101
 10
-1006.6915760513
 20
4309.987766563754
 10
-1017.703848475945
 20
4312.235791004257
 10
-1023.126286839596
 20
4313.681376627633
 10
-1028.556394246215
 20
4317.156061593364
 10
-1031.892659747482
 20
4319.527872500728
 10
-1035.538140288549
 20
4320.122628998068
 10
-1048.41808546218
 20
4315.619336058839
 10
-1059.355811698371
 20
4309.090768639995
 10
-1061.985144046079
 20
4305.80987671976
 10
-1062.841575243806
 20
4302.408868655496
 10
-1064.958839604071
 20
4296.870158328046
 10
-1070.508213185222
 20
4293.294095182214
 10
-1077.801279873611
 20
4290.435377316289
 10
-1082.906003502484
 20
4286.965772850055
 10
-1085.814879227524
 20
4282.782599672935
 10
-1086.520402204415
 20
4277.783223968066
 10
-1085.015048271354
 20
4271.864953966129
 10
-1081.291331901513
 20
4264.92515585026
 10
-1067.158744180506
 20
4247.570295128134
 10
-1057.728361578701
 20
4236.721477633159
 10
-1053.539393155003
 20
4229.299003088732
 10
-1054.228969545067
 20
4223.98102404461
 10
-1059.434182749566
 20
4219.445683391819
 10
-1064.582003695474
 20
4215.156254368729
 10
-1065.587932937371
 20
4210.588585898787
 10
-1062.239207655966
 20
4204.800013515217
 10
-1054.323094008204
 20
4196.847853433753
 10
-1046.16446860873
 20
4187.760278984398
 10
-1042.815047897736
 20
4179.909274931917
 10
-1044.316702531733
 20
4173.616516096246
 10
-1050.71125487351
 20
4169.203677297322
 10
-1057.789694604962
 20
4163.71819630967
 10
-1062.442910573108
 20
4153.665964432785
 10
-1063.990985132178
 20
4146.359394819874
 10
-1063.169112921531
 20
4140.390339140441
 10
-1059.053782764325
 20
4133.319201419675
 10
-1050.721483483716
 20
4122.706395341505
 10
-1038.672084073107
 20
4105.292915700266
 10
-1036.267964666082
 20
4098.403169197323
 10
-1035.582435289878
 20
4091.283428675274
 10
-1033.398293784128
 20
4078.780425656426
 10
-1027.063954054274
 20
4066.903531418892
 10
-1019.64776735238
 20
4053.230197671536
 10
-1018.684085458022
 20
4047.103617531428
 10
-1019.609431796281
 20
4041.26971666089
 10
-1022.468362154581
 20
4035.592992536233
 10
-1027.305451637835
 20
4029.937903998794
 10
-1043.092331128903
 20
4018.150555979603
 10
-1052.631905834943
 20
4009.407354399275
 10
-1061.270339015922
 20
3997.033672307768
 10
-1067.043370479925
 20
3984.433183582771
 10
-1067.986740035035
 20
3975.00956210197
 10
-1065.599861486573
 20
3970.122082949739
 10
-1062.947203271396
 20
3968.089149085898
 10
-1058.947353060959
 20
3964.708163598556
 10
-1053.314508611627
 20
3956.578978051687
 10
-1045.400413641422
 20
3947.166483444311
 10
-1040.559624859104
 20
3944.872512357206
 10
-1034.335327202981
 20
3943.644518925265
 10
-1025.930625975151
 20
3943.414785692254
 10
-1021.369776578681
 20
3945.913415912187
 10
-1019.915826482747
 20
3952.219165758933
 10
-1020.831832815275
 20
3963.410801065102
 10
-1020.710866701748
 20
3975.453806386988
 10
-1018.538547499014
 20
3979.649207534384
 10
-1014.599711576276
 20
3983.80404195575
 10
-1006.962040208996
 20
3989.412188995924
 10
-999.8048141003449
 20
3992.789339961785
 10
-987.2587910344165
 20
3996.942947722624
 10
-984.3139075106517
 20
3997.495321650004
 10
-981.6293561218197
 20
3996.46804658322
 10
-976.2529126984935
 20
3989.116167800829
 10
-973.4764293814789
 20
3979.429374514274
 10
-974.1633302993729
 20
3968.963149539496
 10
-978.0459523303246
 20
3958.921136614071
 10
-984.8565840587614
 20
3950.507008451812
 10
-989.3977875693396
 20
3945.385266115494
 10
-991.2863328647425
 20
3941.017417747488
 10
-989.6399226300243
 20
3935.627452082152
 10
-985.5670233364984
 20
3928.058251553166
 10
-975.3397363780434
 20
3914.899748194121
 10
-972.0038958615257
 20
3909.337180768266
 10
-970.2933901996782
 20
3901.270178217157
 10
-967.003554282229
 20
3890.544133020894
 10
-959.8599566617757
 20
3878.583758256434
 10
-953.0668845304642
 20
3867.427106922096
 10
-951.9956911533792
 20
3859.383101841148
 10
-952.2171661600202
 20
3852.245473324668
 10
-949.9137777972279
 20
3844.019169103932
 10
-947.558995256052
 20
3835.519802523285
 10
-949.6824991651294
 20
3830.623437326304
 10
-956.0590572662883
 20
3829.489462111313
 10
-966.4634759363346
 20
3832.277294452871
 10
-978.0797096416293
 20
3835.194882365264
 10
-987.8789403705011
 20
3835.132689710761
 10
-995.2058995926151
 20
3834.606780742744
 10
-1003.295687121512
 20
3836.197508316612
 10
-1011.191256620162
 20
3839.605219549416
 10
-1017.935552092793
 20
3844.530280875692
 10
-1023.325189360825
 20
3847.567125303871
 10
-1029.956834898765
 20
3848.830411787457
 10
-1037.500372144164
 20
3850.396103896117
 10
-1045.082244945662
 20
3854.159575657469
 10
-1052.362137106836
 20
3857.31780152518
 10
-1059.182031571049
 20
3857.427264074255
 10
-1064.4115268587
 20
3857.014970915359
 10
-1067.867483519247
 20
3858.912885192726
 10
-1072.265196724607
 20
3861.850167284731
 10
-1078.574781092837
 20
3862.426755684054
 10
-1084.237181299707
 20
3860.855422868727
 10
-1086.693322703495
 20
3857.348893023061
 10
-1087.718946125004
 20
3853.739188470856
 10
-1090.185895663657
 20
3852.237804281699
 10
-1093.61246076532
 20
3849.709096732037
 10
-1096.949576236085
 20
3843.63073304344
 10
-1101.539334254225
 20
3825.816087116728
 10
-1101.388551597065
 20
3810.991740129448
 10
-1099.654063273138
 20
3805.328741080432
 10
-1096.87673964537
 20
3801.16669157708
 10
-1093.104034124474
 20
3798.756699653525
 10
-1088.383390462418
 20
3798.349892661387
 10
-1081.886552018577
 20
3797.788101458321
 10
-1075.845886408956
 20
3794.95186914911
 10
-1071.392210439162
 20
3790.614262309486
 10
-1069.656360232289
 20
3785.548318538951
 10
-1066.162077674387
 20
3779.692714469987
 10
-1057.761153015575
 20
3771.956234148587
 10
-1048.497306482872
 20
3762.89938416483
 10
-1047.389158750121
 20
3758.814662568288
 10
-1048.019420791481
 20
3753.893638597127
 10
-1051.290518745002
 20
3743.589690185218
 10
-1070.382137595963
 20
3750.002400966266
 10
-1087.448481967309
 20
3755.75833645287
 10
-1103.23962096461
 20
3758.738957330519
 10
-1115.626767345661
 20
3758.305366640456
 10
-1118.381702004157
 20
3756.452384841542
 10
-1119.843842715251
 20
3753.174680306923
 10
-1121.941519142088
 20
3748.53721775072
 10
-1124.573304810847
 20
3746.608636960222
 10
-1126.697388244581
 20
3745.467581885666
 10
-1127.582032634389
 20
3742.724208744089
 10
-1135.122594986546
 20
3723.741627457452
 10
-1143.838597542943
 20
3711.383331745603
 10
-1156.425612319652
 20
3698.865956515249
 10
-1169.447067755921
 20
3689.169900492917
 10
-1179.466401949745
 20
3685.275572063882
 10
-1184.861573678256
 20
3688.778798618999
 10
-1190.857306809425
 20
3697.201445793726
 10
-1196.225656205035
 20
3705.624092968452
 10
-1200.111794018909
 20
3709.127319523569
 10
-1201.538632019612
 20
3710.059243466692
 10
-1200.987484752757
 20
3712.299598864227
 10
-1200.633124742131
 20
3715.176716638032
 10
-1202.537848434224
 20
3717.642391222437
 10
-1213.0155866322
 20
3733.466321656613
 10
-1219.701369431903
 20
3742.934566536047
 10
-1228.67468093627
 20
3750.319710033784
 10
-1239.133410725476
 20
3755.119294612948
 10
-1250.275419403467
 20
3756.830814442946
 10
-1258.765417002149
 20
3759.06531664144
 10
-1267.465289455577
 20
3764.331341300007
 10
-1273.575758810205
 20
3770.472631707674
 10
-1274.785188135613
 20
3773.197682211327
 10
-1274.297537453742
 20
3775.332960129698
 10
-1266.40601496895
 20
3797.7433718135
 10
-1263.473214534295
 20
3808.21844419805
 10
-1260.773595504366
 20
3813.712125459608
 10
-1257.044103205438
 20
3815.691926571092
 10
-1251.02164432881
 20
3815.625368164167
 10
-1245.939676701492
 20
3815.993366321735
 10
-1241.10016287342
 20
3817.729168234886
 10
-1233.039129426284
 20
3824.219245557722
 10
-1228.61974199873
 20
3832.925608687315
 10
-1228.332297768566
 20
3837.431789591087
 10
-1229.623217919576
 20
3841.678295154538
 10
-1231.711998642919
 20
3847.66039979751
 10
-1231.16378763433
 20
3852.855394050546
 10
-1227.983993790612
 20
3857.249224440699
 10
-1222.178064643547
 20
3860.827837495025
 10
-1215.650511392854
 20
3867.558504479459
 10
-1210.330136980148
 20
3878.829100020224
 10
-1207.807437169436
 20
3890.074128864846
 10
-1208.092254221152
 20
3894.260354205164
 10
-1209.672936700955
 20
3896.72812473708
 10
-1212.183756256187
 20
3899.221490941374
 10
-1213.056472096792
 20
3902.026622093962
 10
-1214.102118095222
 20
3904.189891053294
 10
-1217.026090437593
 20
3905.144387481829
 10
-1219.782560836431
 20
3907.694131776562
 10
-1220.289519348145
 20
3913.452037647001
 10
-1218.763534337273
 20
3919.834139867384
 10
-1215.421203144591
 20
3924.256453894459
 10
-1212.539400879804
 20
3931.446906083479
 10
-1211.247147822082
 20
3945.41976715011
 10
-1212.648863428878
 20
3961.991622448624
 10
-1214.969772753818
 20
3967.440255326798
 10
-1218.729786684713
 20
3972.287051848068
 10
-1224.222927056589
 20
3981.03085227054
 10
-1226.396414967384
 20
3990.656312530834
 10
-1227.558226683427
 20
3999.663381346504
 10
-1231.1982790102
 20
4006.526662890083
 10
-1237.548488056928
 20
4011.522493835794
 10
-1246.84076993283
 20
4014.927162564145
 10
-1253.34718985101
 20
4017.014677991986
 10
-1257.499947642352
 20
4020.132385427387
 10
-1260.345548933528
 20
4025.558387867683
 10
-1262.930480033721
 20
4034.570788310204
 10
-1265.393170066139
 20
4049.520293306033
 10
-1264.189719503449
 20
4053.780968247362
 10
-1261.2267837866
 20
4057.761500969213
 10
-1254.830251402243
 20
4063.225674766956
 10
-1247.692622885763
 20
4067.210196550199
 10
-1242.170515939751
 20
4071.307590419253
 10
-1239.661396323515
 20
4077.040528435695
 10
-1238.809543370583
 20
4097.212284660957
 10
-1236.622001986843
 20
4108.770160233233
 10
-1231.807349766582
 20
4117.680496724807
 10
-1228.222033543716
 20
4122.10073412186
 10
-1227.208222766476
 20
4126.16320197155
 10
-1233.511046013702
 20
4141.964984905062
 10
-1242.039330874762
 20
4155.849680953784
 10
-1246.370389085755
 20
4159.317923537073
 10
-1251.393042364369
 20
4161.165641320349
 10
-1258.73896170153
 20
4164.016777072003
 10
-1262.831661420858
 20
4167.905455135627
 10
-1265.343340604331
 20
4171.173578195907
 10
-1268.890002532535
 20
4172.532698740369
 10
-1270.700080189301
 20
4173.428576249789
 10
-1272.044403537506
 20
4176.029965850259
 10
-1273.169695541377
 20
4185.831756146368
 10
-1275.309107402305
 20
4199.638931113393
 10
-1280.451287641547
 20
4214.16422405987
 10
-1287.729479863725
 20
4231.432890147925
 10
-1277.146123296904
 20
4248.68110867431
 10
-1269.565950434401
 20
4261.896250909889
 10
-1268.411431070299
 20
4266.81221369904
 10
-1268.872974166346
 20
4270.979082915795
 10
-1271.348017732716
 20
4275.600357416564
 10
-1274.055614885432
 20
4276.485426791121
 10
-1276.430564884691
 20
4276.277155287927
 10
-1278.110413692152
 20
4278.2640845527
 10
-1282.506369006051
 20
4281.995180203181
 10
-1291.412870976142
 20
4285.981836568914
 10
-1304.039815001759
 20
4291.947163973048
 10
-1315.026105404256
 20
4300.150200278782
 10
-1323.206395367179
 20
4309.521751469099
 10
-1327.415376709051
 20
4318.992652503213
 10
-1330.759311253286
 20
4327.419134199424
 10
-1335.848677478733
 20
4332.901630635089
 10
-1341.855479530863
 20
4338.26784544821
 10
-1347.409962587745
 20
4346.411934437523
 10
-1352.021868106549
 20
4353.076265166151
 10
-1356.848439217268
 20
4356.093193263599
 10
-1361.493561157696
 20
4355.367522146113
 10
-1365.561138483117
 20
4350.804064888683
 10
-1372.12750056838
 20
4345.38322021784
 10
-1383.46443236495
 20
4340.891962074001
 10
-1396.381959712626
 20
4338.266242096657
 10
-1407.690137427436
 20
4338.44205056028
 10
-1417.164390045821
 20
4338.264860896225
 10
-1425.769761345085
 20
4332.639260505112
 10
-1431.0214041334
 20
4326.205252192898
 10
-1432.035958633951
 20
4321.636791705923
 10
-1431.86175352188
 20
4317.039789629563
 10
-1434.250766652831
 20
4310.528685220401
 10
-1436.132280382388
 20
4305.8932510005
 10
-1436.50220063007
 20
4301.011837539683
 10
-1432.369880741653
 20
4286.148797622765
 10
-1426.784045400795
 20
4272.960690212461
 10
-1421.222173404528
 20
4264.159188451581
 10
-1415.266108736171
 20
4259.244664815329
 10
-1408.49769537904
 20
4257.7175110964
 10
-1403.540953371483
 20
4256.412035217739
 10
-1399.702626341859
 20
4252.966809422101
 10
-1397.066445944447
 20
4248.08864129937
 10
-1395.716134174779
 20
4242.484338439423
 10
-1395.735442004621
 20
4236.860708432146
 10
-1397.208091429506
 20
4231.924558867421
 10
-1400.217823762455
 20
4228.382706993875
 10
-1404.848370657744
 20
4226.941941083903
 10
-1411.579414333205
 20
4224.804064963318
 10
-1417.294300156564
 20
4218.750147556526
 10
-1422.041283214307
 20
4208.706376739641
 10
-1425.868579957948
 20
4194.598969365006
 10
-1430.234245449743
 20
4176.199901797352
 10
-1432.564243653063
 20
4170.59498077777
 10
-1435.540035158566
 20
4166.942014709877
 10
-1439.57238704355
 20
4164.907670669368
 10
-1445.072056726568
 20
4164.158606073204
 10
-1462.116417795903
 20
4165.182954540468
 10
-1467.802510902523
 20
4167.1064838077
 10
-1473.1027081984
 20
4171.169318689671
 10
-1477.016518314674
 20
4176.366177080357
 10
-1478.543459541231
 20
4181.691767214981
 10
-1476.835928772626
 20
4185.255476826862
 10
-1471.38452383484
 20
4185.085531221024
 10
-1463.933198621207
 20
4184.797816546021
 10
-1456.513814874953
 20
4186.877817470803
 10
-1451.18102897583
 20
4190.419592074393
 10
-1449.989506962341
 20
4194.51719843582
 10
-1450.116007536348
 20
4200.003519734226
 10
-1448.210849200762
 20
4207.434619537308
 10
-1446.831387340817
 20
4212.258959478097
 10
-1447.03700268933
 20
4216.269984855681
 10
-1453.120900838407
 20
4225.166692859058
 10
-1464.859800596225
 20
4240.979119728781
 10
-1467.498241139801
 20
4248.100946539598
 10
-1468.321282058507
 20
4255.373227610269
 10
-1469.822347509102
 20
4262.337723135295
 10
-1473.787590438737
 20
4267.936279042387
 10
-1479.41010969042
 20
4271.406067024762
 10
-1485.88298478967
 20
4271.984258775638
 10
-1491.372715624811
 20
4273.306328376992
 10
-1495.321461419193
 20
4279.187489483356
 10
-1499.120274525913
 20
4285.630441792785
 10
-1503.836533118061
 20
4289.515294993669
 10
-1507.632371331539
 20
4293.095192660985
 10
-1509.209991989401
 20
4298.803848594274
 10
-1511.353991753868
 20
4305.698810819134
 10
-1516.852772832412
 20
4312.165088996031
 10
-1524.306551367095
 20
4316.984309802345
 10
-1532.315524182491
 20
4318.938128891679
 10
-1538.066610979459
 20
4320.394522649918
 10
-1541.705871289202
 20
4323.944864559698
 10
-1542.707164333837
 20
4328.652237107095
 10
-1540.544368652976
 20
4333.579693801955
 10
-1539.669527888626
 20
4336.739629267407
 10
-1540.918335914517
 20
4341.928664075214
 10
-1550.364481587009
 20
4359.942695460369
 10
-1557.823263351236
 20
4371.792593507604
 10
-1563.321938183593
 20
4378.494670608929
 10
-1568.446230428403
 20
4381.496956050028
 10
-1574.781854771248
 20
4382.247488775325
 10
-1585.385446407362
 20
4381.022895221378
 10
-1597.896755946301
 20
4377.812338277086
 10
-1608.888783642909
 20
4373.686248278738
 10
-1614.934568387005
 20
4369.715094197596
 10
-1619.728869633041
 20
4365.926606288525
 10
-1627.10747416089
 20
4363.59796996815
 10
-1635.694851219536
 20
4362.982833520352
 10
-1644.115479716706
 20
4364.334825911528
 10
-1653.85386035653
 20
4365.922028043729
 10
-1663.280785127879
 20
4365.417522853066
 10
-1669.846133044992
 20
4363.248072297387
 10
-1671.25881132656
 20
4361.672373729638
 10
-1670.999802439595
 20
4359.840467310772
 10
-1670.61646619609
 20
4357.50385286761
 10
-1672.563794609261
 20
4356.531893429392
 10
-1675.512676853163
 20
4353.801772084985
 10
-1675.937970681878
 20
4346.755660170684
 10
-1673.995539252064
 20
4337.109916547373
 10
-1669.841284355356
 20
4326.58090973469
 10
-1659.533076437214
 20
4299.564551977313
 10
-1650.548628400678
 20
4266.235992332002
 10
-1646.343056595541
 20
4255.12219684609
 10
-1639.150054498028
 20
4244.219551169171
 10
-1630.32788302436
 20
4235.216316874987
 10
-1621.234832066992
 20
4229.800745878526
 10
-1615.494340912514
 20
4227.436227323103
 10
-1612.233355664267
 20
4224.518436577081
 10
-1610.611758743639
 20
4219.721034874129
 10
-1609.789403595777
 20
4211.717712424142
 10
-1608.072339646555
 20
4198.064295007518
 10
-1605.079114107603
 20
4187.239856183142
 10
-1600.910960277858
 20
4179.506350754985
 10
-1595.669169408721
 20
4175.125723868279
 10
-1591.853385888278
 20
4172.606733015377
 10
-1589.189320696092
 20
4169.190947072343
 10
-1587.284857790095
 20
4160.488843448984
 10
-1589.892844312915
 20
4150.659100746892
 10
-1596.950353545484
 20
4141.341426032242
 10
-1622.100738492871
 20
4122.411658759399
 10
-1634.767457227487
 20
4114.462212785081
 10
-1641.999480651944
 20
4111.199633844027
 10
-1644.811170091906
 20
4113.980598818394
 10
-1646.890369340911
 20
4121.045294156716
 10
-1647.880274726025
 20
4130.476420481833
 10
-1647.424053598084
 20
4140.356688075324
 10
-1646.91954840742
 20
4148.295383867243
 10
-1648.711197180074
 20
4153.764783045647
 10
-1653.785437811958
 20
4158.186401643134
 10
-1663.128727516473
 20
4162.981775009786
 10
-1671.956269251967
 20
4166.174714404486
 10
-1677.820971858056
 20
4165.527955227873
 10
-1681.727499281133
 20
4160.453704937246
 10
-1684.68048649136
 20
4150.364199966134
 10
-1690.496905034727
 20
4132.765021307112
 10
-1692.667833378283
 20
4128.63903755495
 10
-1694.519327730577
 20
4127.173062322373
 10
-1701.097299626481
 20
4131.91316835418
 10
-1706.771406231433
 20
4136.418441335989
 10
-1710.916977917021
 20
4138.22664519636
 10
-1712.99447722703
 20
4137.264006446386
 10
-1712.464357046502
 20
4133.456722620922
 10
-1711.85188641213
 20
4129.464531794709
 10
-1713.074287431124
 20
4126.89067927422
 10
-1715.105086712476
 20
4119.457019903899
 10
-1716.430565850566
 20
4103.781737544394
 10
-1718.048598694551
 20
4089.165468885421
 10
-1722.09918628876
 20
4079.106678721159
 10
-1729.355076470366
 20
4072.464022214726
 10
-1740.588978441561
 20
4068.096115894254
 10
-1748.075220015813
 20
4067.371970858365
 10
-1753.733524915102
 20
4069.358127423594
 10
-1757.502173763395
 20
4073.557401727451
 10
-1759.319418208425
 20
4079.472551954983
 10
-1759.123529215417
 20
4086.606374926212
 10
-1756.852787408335
 20
4094.46166746116
 10
-1752.445444434915
 20
4102.541207062362
 10
-1745.839771260379
 20
4110.347780891095
 10
-1736.212611061089
 20
4121.357068763755
 10
-1730.206658978457
 20
4131.18058157578
 10
-1728.744402362432
 20
4136.238383024877
 10
-1729.231714988254
 20
4140.227637592823
 10
-1737.975505751983
 20
4149.532794574868
 10
-1747.705744070368
 20
4156.149951996371
 10
-1755.37365696603
 20
4158.903128763404
 10
-1760.340357138954
 20
4160.441988880418
 10
-1763.582063533591
 20
4164.140293094026
 10
-1766.504065492125
 20
4168.462339696592
 10
-1771.261953272176
 20
4172.131319962523
 10
-1783.39647519624
 20
4176.880959174948
 10
-1794.207865057077
 20
4177.130917818511
 10
-1797.311837758094
 20
4175.17531186148
 10
-1797.918358605981
 20
4171.622922297911
 10
-1801.60643420938
 20
4168.232567828603
 10
-1811.905707789051
 20
4165.5986572361
 10
-1822.38327212963
 20
4163.206929998003
 10
-1828.768465148186
 20
4159.00492226951
 10
-1831.961134098047
 20
4151.93240334831
 10
-1832.861164867514
 20
4140.929132873345
 10
-1834.496293688897
 20
4130.008444662087
 10
-1836.968091917185
 20
4127.078406628301
 10
-1840.963943407485
 20
4125.006383826306
 10
-1845.759355409114
 20
4122.085038662384
 10
-1849.439520500937
 20
4117.564321348451
 10
-1853.341295821822
 20
4104.804811057411
 10
-1852.443776325872
 20
4088.887924868157
 10
-1846.521401357609
 20
4071.973734695661
 10
-1842.580324606196
 20
4061.740903617983
 10
-1842.030461952332
 20
4054.643735581346
 10
-1842.208066942394
 20
4049.835052465058
 10
-1840.016691037169
 20
4045.103030802225
 10
-1836.658278035238
 20
4035.180709036081
 10
-1834.03331143995
 20
4017.888185849623
 10
-1831.107214173836
 20
3999.287656193502
 10
-1828.751002138504
 20
3996.121181758164
 10
-1825.129794021847
 20
3995.348289039828
 10
-1818.935583354198
 20
3997.099264840263
 10
-1813.592366011239
 20
4001.311221075378
 10
-1801.333420143191
 20
4023.58279796871
 10
-1785.828933359021
 20
4057.533197230358
 10
-1781.303116228102
 20
4064.956473450562
 10
-1776.723953852451
 20
4066.610919760532
 10
-1772.708920095985
 20
4062.661700687679
 10
-1769.875517798851
 20
4053.273961441927
 10
-1767.336156654234
 20
4043.648076196886
 10
-1764.464582999654
 20
4039.644391464963
 10
-1762.2693629142
 20
4037.749452080839
 10
-1761.357036563248
 20
4033.194195097314
 10
-1759.967133600723
 20
4028.979051476582
 10
-1756.218420400651
 20
4025.719708214866
 10
-1744.170576047873
 20
4022.296079371469
 10
-1730.265480731203
 20
4023.378515526911
 10
-1724.195220729068
 20
4025.751755928431
 10
-1719.555140653161
 20
4029.422213982239
 10
-1713.706944841068
 20
4034.513231852961
 10
-1708.235362786454
 20
4035.867725858907
 10
-1703.356025955662
 20
4033.507090118689
 10
-1699.284565815035
 20
4027.452738068405
 10
-1696.992246373203
 20
4019.321427597793
 10
-1699.376565354427
 20
4012.971324797251
 10
-1704.014085863097
 20
4005.796896465016
 10
-1705.902148221285
 20
4000.599506843395
 10
-1705.127980548702
 20
3996.660081737256
 10
-1701.778781988827
 20
3993.259556610206
 10
-1696.640426612326
 20
3990.561328439456
 10
-1692.943407011711
 20
3990.400751815581
 10
-1689.570679750737
 20
3990.818743633611
 10
-1688.018451931622
 20
3987.767266207828
 10
-1688.47041355333
 20
3982.615765280344
 10
-1691.110235297341
 20
3976.73370591076
 10
-1694.794476379256
 20
3968.209738508399
 10
-1696.646395716298
 20
3956.690990509255
 10
-1696.664708695478
 20
3942.189293875086
 10
-1694.848140362548
 20
3924.71645159142
 10
-1693.802929007612
 20
3909.598275943999
 10
-1695.311972580993
 20
3906.378340358998
 10
-1698.446351009044
 20
3904.531057219215
 10
-1710.839031850576
 20
3895.941024005889
 10
-1716.565527484574
 20
3891.899853687366
 10
-1722.864149178032
 20
3889.959344347667
 10
-1728.524521048599
 20
3890.283047503906
 10
-1732.336276872673
 20
3893.034514673201
 10
-1746.269102444208
 20
3901.989146166105
 10
-1757.296703296048
 20
3905.924253813545
 10
-1760.658892866997
 20
3904.943195838204
 10
-1764.375983338252
 20
3901.995955580832
 10
-1770.35596305748
 20
3898.077451314831
 10
-1775.221719693796
 20
3901.927813139844
 10
-1778.004703345719
 20
3907.214381947522
 10
-1774.332390813006
 20
3911.519622335021
 10
-1771.10324078595
 20
3917.553420577448
 10
-1770.998250235485
 20
3927.536495845195
 10
-1773.832135469832
 20
3939.940303560152
 10
-1779.419622455964
 20
3953.236328120442
 10
-1787.47464816415
 20
3963.800627984772
 10
-1798.969114080142
 20
3974.069119146382
 10
-1810.161386863434
 20
3981.176409547038
 10
-1814.474933771023
 20
3982.649165218109
 10
-1817.309833173522
 20
3982.257087811019
 10
-1823.300505122682
 20
3979.59128404486
 10
-1829.886938078587
 20
3979.348453554586
 10
-1835.830021394614
 20
3981.353859997191
 10
-1839.890615447911
 20
3985.432776688411
 10
-1843.214527415227
 20
3989.674124482411
 10
-1846.170441224974
 20
3990.465494378579
 10
-1850.309570528118
 20
3992.313579194137
 10
-1856.477808832363
 20
3999.096422715243
 10
-1861.176276017522
 20
4004.80577407812
 10
-1865.89327833298
 20
4007.720956963185
 10
-1872.852770628462
 20
4008.556563908215
 10
-1884.278717412438
 20
4008.027197109742
 10
-1898.771209263296
 20
4007.976933004441
 10
-1904.467521321378
 20
4009.966006510444
 10
-1907.834028351026
 20
4011.774905800407
 10
-1916.127615384508
 20
4011.383475529184
 10
-1925.428522519064
 20
4011.061056985933
 10
-1929.580005356159
 20
4014.160499735877
 10
-1934.282847952484
 20
4016.710456522985
 10
-1943.303274811512
 20
4017.034207972947
 10
-1953.317818268166
 20
4015.366558159528
 10
-1961.002981681135
 20
4011.942291839007
 10
-1964.289833046598
 20
4010.54824527518
 10
-1966.965913716685
 20
4011.277847501593
 10
-1968.54950347852
 20
4011.773621187415
 10
-1969.20797871196
 20
4009.816073822783
 10
-1972.255042091602
 20
4006.530497411566
 10
-1979.580079223601
 20
4003.832694225565
 10
-1988.899724322086
 20
4000.085845163141
 10
-1996.73970774733
 20
3994.271551543519
 10
-2005.366270331573
 20
3988.763179331893
 10
-2016.379064328411
 20
3986.940545307547
 10
-2028.024361195284
 20
3988.80045242612
 10
-2038.548413072145
 20
3994.339703643252
 10
-2048.13000331586
 20
4000.186788699749
 10
-2058.038696593805
 20
4003.917884350229
 10
-2063.072109713562
 20
4005.678171180164
 10
-2067.40945576709
 20
4008.708244828596
 10
-2074.983659525619
 20
4019.486254069155
 10
-2080.868230168718
 20
4028.910252240982
 10
-2085.454578650124
 20
4032.829606476481
 10
-2099.179557703216
 20
4039.991942060862
 10
-2109.713673991631
 20
4044.696755041022
 10
-2120.726632187121
 20
4045.290014432995
 10
-2130.183904733039
 20
4042.03654368781
 10
-2133.693361178226
 20
4039.050030976141
 10
-2136.05095441399
 20
4035.201146939005
 10
-2142.481128204721
 20
4017.571726751604
 10
-2143.260994536436
 20
4009.33903810089
 10
-2143.718867309653
 20
4005.355375945888
 10
-2145.942609667003
 20
4002.442482183222
 10
-2147.704828245796
 20
3999.87208749319
 10
-2148.132131093324
 20
3995.531698935212
 10
-2145.587815012884
 20
3983.365766774705
 10
-2139.521331579767
 20
3969.594309844075
 10
-2131.144302654337
 20
3957.866971603175
 10
-2121.667925112208
 20
3944.842212876358
 10
-2117.208067546066
 20
3929.057467967779
 10
-2113.234576048804
 20
3912.912925175536
 10
-2106.838101616913
 20
3896.809905325011
 10
-2099.765041806032
 20
3884.440540692203
 10
-2096.520544034295
 20
3880.80976075995
 10
-2093.761803830547
 20
3879.496944235628
 10
-2090.266999700453
 20
3878.385493212329
 10
-2087.629669912471
 20
3875.427666971211
 10
-2085.074661602098
 20
3866.231962879496
 10
-2086.391293330416
 20
3856.428047659643
 10
-2088.593525664226
 20
3852.709943020236
 10
-2091.874108504643
 20
3850.534108034579
 10
-2096.687051127165
 20
3848.032232476562
 10
-2098.688893493125
 20
3845.055021135647
 10
-2096.399548944535
 20
3839.41775298143
 10
-2091.097226724913
 20
3831.563880281893
 10
-2085.130450509135
 20
3824.584635854331
 10
-2080.847782607051
 20
3821.571271833528
 10
-2063.810820135845
 20
3814.756486845046
 10
-2051.600863418851
 20
3809.943544222524
 10
-2042.051214642514
 20
3807.941701856564
 10
-2038.251599860017
 20
3808.286432099129
 10
-2036.15174055697
 20
3809.577680647445
 10
-2035.95879748097
 20
3816.541963680096
 10
-2039.038652297487
 20
3824.59320316052
 10
-2044.252394173196
 20
3831.875229904182
 10
-2048.919876106663
 20
3839.436017666889
 10
-2050.836325514329
 20
3848.485411100052
 10
-2049.866278507481
 20
3856.567539244723
 10
-2045.874309832387
 20
3861.226502165724
 10
-2042.264605280182
 20
3864.080622469367
 10
-2040.763221091025
 20
3868.184400768397
 10
-2038.898793680123
 20
3872.028310552223
 10
-2034.705304964096
 20
3871.923590446595
 10
-2030.282450047342
 20
3868.685129390041
 10
-2027.729943351741
 20
3863.127825979827
 10
-2025.379700420383
 20
3857.346768099316
 10
-2019.211462116138
 20
3857.706672229166
 10
-2006.741733471381
 20
3859.780704049974
 10
-1992.831007106787
 20
3859.48192045401
 10
-1980.887399922421
 20
3857.156587424185
 10
-1974.319067453322
 20
3853.150990260893
 10
-1952.031312163298
 20
3827.295690837504
 10
-1940.791441088129
 20
3815.74585134048
 10
-1932.885604344295
 20
3809.761679726229
 10
-1924.584290315379
 20
3807.430010560146
 10
-1912.158006702452
 20
3806.83770738386
 10
-1900.73398200859
 20
3806.877424140392
 10
-1893.062128345257
 20
3808.001334943829
 10
-1887.259657028649
 20
3810.750561284449
 10
-1881.443769716218
 20
3815.666263287504
 10
-1873.068025403779
 20
3822.449792579455
 10
-1866.047045542127
 20
3824.254171577086
 10
-1858.698305851632
 20
3820.898260189927
 10
-1849.339320687641
 20
3812.200937644993
 10
-1838.247296011367
 20
3799.526192493869
 10
-1832.309167631161
 20
3788.629448309714
 10
-1830.380693086851
 20
3776.103554066892
 10
-1831.317620259518
 20
3758.541329763538
 10
-1834.990792420473
 20
3736.296584861851
 10
-1838.311507343427
 20
3729.882975817584
 10
-1843.509273656076
 20
3724.102806541548
 10
-1850.859442840726
 20
3714.527610386557
 10
-1853.35663390776
 20
3704.684074997611
 10
-1853.626190143493
 20
3699.363700584907
 10
-1854.851199023446
 20
3696.590240454856
 10
-1857.656175636124
 20
3695.813310381406
 10
-1862.66562541129
 20
3696.482487503523
 10
-1872.253609743727
 20
3696.185191354179
 10
-1882.258137082549
 20
3692.79568685437
 10
-1890.820275842356
 20
3689.281178885918
 10
-1898.798475898435
 20
3688.591814988228
 10
-1907.253277032913
 20
3690.827283061151
 10
-1917.245248004154
 20
3696.087232369559
 10
-1925.065633837227
 20
3699.794045936887
 10
-1927.445220033748
 20
3700.079152750931
 10
-1928.319268781066
 20
3699.184550195758
 10
-1929.038256047502
 20
3696.117106865658
 10
-1930.935503871513
 20
3695.08678929442
 10
-1936.706564951679
 20
3697.830539127025
 10
-1942.515951929202
 20
3704.801795773056
 10
-1945.247193687947
 20
3713.386555311998
 10
-1946.742183788381
 20
3717.597246251611
 10
-1950.184502301986
 20
3719.349497006293
 10
-1953.926251547423
 20
3720.218803310163
 10
-1956.147443996281
 20
3722.307110755036
 10
-1958.994745226452
 20
3725.029621008939
 10
-1964.246812999516
 20
3727.425018569869
 10
-1968.654600275174
 20
3727.504935020151
 10
-1974.490288013406
 20
3725.051343524856
 10
-1993.192611175633
 20
3710.980938799607
 10
-2015.177110871086
 20
3692.373174744011
 10
-2026.503282826514
 20
3703.307491443466
 10
-2036.854520450482
 20
3711.744626734632
 10
-2039.613704956467
 20
3711.210353294059
 10
-2042.429431751544
 20
3707.999467952461
 10
-2045.460307075751
 20
3698.824646065907
 10
-2045.128094565788
 20
3683.360619761582
 10
-2044.759526542307
 20
3672.655659604111
 10
-2046.009696451143
 20
3664.343962425078
 10
-2048.736263377651
 20
3658.48814586374
 10
-2052.796857430948
 20
3655.1508179006
 10
-2058.049128037642
 20
3654.394586516171
 10
-2064.350734283086
 20
3656.2820693497
 10
-2071.559325593888
 20
3660.875874381699
 10
-2079.532532079166
 20
3668.238609592676
 10
-2089.44931938483
 20
3677.864494837719
 10
-2095.15201587289
 20
3681.86817956964
 10
-2099.271615195073
 20
3680.04171102381
 10
-2102.844635836454
 20
3675.022728068026
 10
-2105.526415165673
 20
3667.501869554229
 10
-2106.972261575145
 20
3658.169764675605
 10
-2108.975011863069
 20
3648.209899370395
 10
-2112.989292237481
 20
3639.417602392825
 10
-2118.186150628165
 20
3633.148266012064
 10
-2123.73663496491
 20
3630.757292156022
 10
-2140.432856254943
 20
3639.86865609257
 10
-2152.824271800971
 20
3646.628077158765
 10
-2157.601805466914
 20
3647.011085004964
 10
-2162.764906546295
 20
3645.746407662199
 10
-2167.938825419283
 20
3643.401863389974
 10
-2170.681136098988
 20
3639.443159430225
 10
-2171.763620548152
 20
3631.460120343257
 10
-2171.958051070772
 20
3617.042541713137
 10
-2173.372970181017
 20
3594.876167862645
 10
-2175.4195421918
 20
3587.691308086572
 10
-2178.61610361561
 20
3581.738546708762
 10
-2185.263917891497
 20
3571.908214823266
 10
-2190.095608136692
 20
3579.182997508709
 10
-2196.075201506147
 20
3585.202587738283
 10
-2202.305564853686
 20
3586.213298058603
 10
-2208.28229923483
 20
3582.333988976944
 10
-2213.500986387618
 20
3573.683463048111
 10
-2219.007330262943
 20
3556.179693465218
 10
-2220.895450573596
 20
3552.361282766327
 10
-2225.331451041334
 20
3549.818087100225
 10
-2229.742319456421
 20
3547.672715794068
 10
-2231.577200768531
 20
3544.809226508462
 10
-2233.234042447086
 20
3543.063360183757
 10
-2237.216439306585
 20
3543.599604008167
 10
-2243.83380922046
 20
3542.872493737781
 10
-2250.991672806234
 20
3538.327088673435
 10
-2255.687271344339
 20
3532.573538896671
 10
-2256.173357309635
 20
3530.059396733403
 10
-2254.91783645646
 20
3528.222033124009
 10
-2251.843941085172
 20
3524.134442880413
 10
-2250.055489356879
 20
3517.774971097909
 10
-2248.896980931384
 20
3507.239309410408
 10
-2247.51826279475
 20
3505.433819657181
 10
-2244.603659434344
 20
3504.683769869099
 10
-2239.194849558892
 20
3501.641390980439
 10
-2231.825942410312
 20
3494.32870738239
 10
-2223.472026859975
 20
3486.94861540792
 10
-2214.222069601565
 20
3482.739305668741
 10
-2205.299872171998
 20
3482.032382173928
 10
-2197.929197473213
 20
3485.159410297572
 10
-2178.701284081531
 20
3495.688252911603
 10
-2170.530778426577
 20
3498.909840141877
 10
-2164.2539372015
 20
3499.69534718026
 10
-2156.916546535549
 20
3497.805198533304
 10
-2145.564392557973
 20
3492.999818707564
 10
-2133.731745028046
 20
3486.952816961687
 10
-2126.687864283676
 20
3480.746407299996
 10
-2123.36804762394
 20
3472.939592002655
 10
-2122.707602006665
 20
3462.091363691083
 10
-2122.271992639044
 20
3448.828091932693
 10
-2120.060912895461
 20
3438.531802905008
 10
-2115.814339720801
 20
3430.46266577141
 10
-2109.272250059946
 20
3423.880869012766
 10
-2100.846782531886
 20
3414.801977774531
 10
-2091.808940956897
 20
3401.647627675533
 10
-2084.597674173926
 20
3388.383390042712
 10
-2081.651931021919
 20
3378.974836203008
 10
-2083.268273585653
 20
3375.849923344364
 10
-2087.636691819572
 20
3374.360429069432
 10
-2101.746175824229
 20
3375.621542335552
 10
-2118.213146818464
 20
3381.425761884877
 10
-2125.528428618728
 20
3385.615174610812
 10
-2131.270378243596
 20
3390.440712235892
 10
-2139.081829738197
 20
3401.425718025398
 10
-2138.90347136608
 20
3404.883210426287
 10
-2136.170210929778
 20
3407.573083783225
 10
-2133.76374444789
 20
3411.302904479459
 10
-2132.762818435537
 20
3417.31481600732
 10
-2131.521679452614
 20
3423.949436438503
 10
-2128.537649038229
 20
3429.175956832912
 10
-2127.691137370891
 20
3432.14449462145
 10
-2129.260924787132
 20
3436.285159664937
 10
-2137.610262092673
 20
3446.188212236216
 10
-2149.507333447036
 20
3455.095882914366
 10
-2160.873811342399
 20
3459.218930408262
 10
-2167.490959105155
 20
3458.691215255063
 10
-2170.24413587219
 20
3456.796275870939
 10
-2178.510465929277
 20
3445.003287145079
 10
-2184.647187750893
 20
3435.670438543145
 10
-2185.059480909789
 20
3425.233595468507
 10
-2184.495178433207
 20
3419.052800796681
 10
-2185.998639252387
 20
3414.917718507395
 10
-2190.715062043187
 20
3411.424073426616
 10
-2199.789635822723
 20
3407.167600039056
 10
-2209.999459771495
 20
3403.255441568055
 10
-2220.168398255675
 20
3401.313280583082
 10
-2254.577095275287
 20
3401.998587808168
 10
-2260.181407793977
 20
3403.876914152107
 10
-2262.243733216701
 20
3408.183004509103
 10
-2266.577940178335
 20
3426.158285012153
 10
-2270.331077083293
 20
3435.297495108499
 10
-2273.661904711522
 20
3440.36923412561
 10
-2274.630029628255
 20
3442.558485107091
 10
-2272.830499320258
 20
3444.829516676501
 10
-2269.587672511283
 20
3449.366673173221
 10
-2269.404793846836
 20
3456.051760543335
 10
-2272.041321959044
 20
3463.495851357492
 10
-2277.256705821282
 20
3470.309998868851
 10
-2282.246355170647
 20
3474.115891835139
 10
-2288.183788121263
 20
3476.597059045391
 10
-2307.071385316521
 20
3478.767147078193
 10
-2324.016773233083
 20
3478.178089239988
 10
-2333.798975595766
 20
3475.526715637803
 10
-2341.143610319937
 20
3473.167094065735
 10
-2351.687791019905
 20
3473.148356101807
 10
-2361.710631337906
 20
3475.803564225476
 10
-2363.831730219655
 20
3478.056910634086
 10
-2364.465508043937
 20
3481.203430103714
 10
-2364.996101502936
 20
3484.339131779734
 10
-2366.839608073699
 20
3486.317493738319
 10
-2375.975679078149
 20
3487.646807397894
 10
-2384.220557064161
 20
3488.533528417723
 10
-2389.975381795171
 20
3491.431142046918
 10
-2393.650620927405
 20
3496.695833798773
 10
-2395.656780752064
 20
3504.683769869099
 10
-2396.749802891252
 20
3509.061528108749
 10
-2398.996021146573
 20
3511.812039062359
 10
-2409.613463422004
 20
3514.258541039343
 10
-2418.888803860417
 20
3516.246329932357
 10
-2422.391180446037
 20
3519.764884914668
 10
-2424.506744867305
 20
3525.593656991986
 10
-2429.594411153756
 20
3533.367197915237
 10
-2434.107923044446
 20
3540.409002029585
 10
-2434.841794435838
 20
3544.478704278751
 10
-2434.921440441279
 20
3548.687260635874
 10
-2437.860741210843
 20
3556.057027412695
 10
-2441.405278215301
 20
3564.653879699493
 10
-2442.941163439074
 20
3571.809405869148
 10
-2447.457659881751
 20
3579.486687746773
 10
-2458.168801635569
 20
3589.333623013709
 10
-2468.681881178913
 20
3598.036953297594
 10
-2472.72177654319
 20
3602.963192990674
 10
-2472.991332778923
 20
3608.449736440198
 10
-2475.770114877079
 20
3614.244219975276
 10
-2480.248971193245
 20
3619.153199492303
 10
-2485.618759741754
 20
3621.983259863911
 10
-2493.211121939554
 20
3622.454490680485
 10
-2500.296525625641
 20
3620.560246725949
 10
-2505.53235704955
 20
3616.904595527142
 10
-2507.575992802066
 20
3612.091594952155
 10
-2509.802294726656
 20
3605.983636871044
 10
-2515.913034526123
 20
3601.706715921814
 10
-2525.0559149453
 20
3599.616071060822
 10
-2536.378677363992
 20
3600.066912268193
 10
-2548.569055806304
 20
3600.840809495934
 10
-2551.705723356752
 20
3599.8287662689
 10
-2553.320240417815
 20
3597.824847272916
 10
-2556.298775006696
 20
3594.094070360998
 10
-2560.989853252471
 20
3593.810083961292
 10
-2567.313278601274
 20
3596.951803035005
 10
-2575.18888347547
 20
3603.498152202093
 10
-2586.388979841641
 20
3612.03153688014
 10
-2591.578227141822
 20
3613.469086428265
 10
-2597.905969949324
 20
3613.652177585084
 10
-2610.002214269754
 20
3618.937046453768
 10
-2619.757681228235
 20
3622.470031600053
 10
-2627.272580296804
 20
3621.773278762979
 10
-2632.617816317319
 20
3616.815783373367
 10
-2635.864323107869
 20
3607.566579497011
 10
-2637.680089765024
 20
3587.997287447034
 10
-2636.736188978977
 20
3566.903604078992
 10
-2633.527438219869
 20
3548.94174923051
 10
-2631.228367315776
 20
3542.590323182002
 10
-2628.54864529909
 20
3538.767913762973
 10
-2615.07240788778
 20
3535.582430918867
 10
-2588.859338917028
 20
3533.063942320666
 10
-2566.538260959193
 20
3531.322605947035
 10
-2553.030613311441
 20
3528.409866724278
 10
-2544.692827864074
 20
3522.924337442904
 10
-2537.88134616614
 20
3513.46462123468
 10
-2534.238521779754
 20
3508.466559119037
 10
-2530.105670660399
 20
3505.209785083303
 10
-2517.137135484112
 20
3502.155487304186
 10
-2504.714213114199
 20
3499.298382448556
 10
-2495.503605580039
 20
3494.294631332524
 10
-2487.417430421509
 20
3488.592359829213
 10
-2477.754494233357
 20
3484.024749311737
 10
-2469.498808112482
 20
3479.364714270121
 10
-2464.802997082003
 20
3473.444792622907
 10
-2461.373882071847
 20
3468.536015939509
 10
-2454.63533355207
 20
3468.633559598127
 10
-2446.768411888993
 20
3469.086477435519
 10
-2438.798624599194
 20
3466.747139226467
 10
-2431.195560512716
 20
3461.833736004554
 10
-2424.428798800859
 20
3454.564429827125
 10
-2420.842574656032
 20
3449.287877137277
 10
-2419.801989839611
 20
3445.057810756614
 10
-2421.440248094146
 20
3439.754416416376
 10
-2425.89057247967
 20
3431.257870189063
 10
-2430.159611893557
 20
3422.781336879925
 10
-2432.016215721582
 20
3416.061748475196
 10
-2431.740217103406
 20
3408.581881672176
 10
-2429.61144917869
 20
3397.82453248566
 10
-2427.369490429601
 20
3382.680539014742
 10
-2428.754486750026
 20
3372.502926978188
 10
-2433.980466254754
 20
3366.775146731198
 10
-2443.261457058579
 20
3364.98067760521
 10
-2453.330301975648
 20
3367.403332142535
 10
-2462.642712674658
 20
3375.202855087934
 10
-2470.578520502033
 20
3382.422264192344
 10
-2477.062792919549
 20
3385.425032570657
 10
-2483.102396067298
 20
3389.778827465717
 10
-2489.980214021037
 20
3400.373262612241
 10
-2496.781476767509
 20
3410.913502544538
 10
-2504.066381816971
 20
3416.748340313273
 10
-2511.369165202119
 20
3417.662482508151
 10
-2518.224091931884
 20
3413.440616401391
 10
-2523.807589856622
 20
3404.777109120228
 10
-2525.954187823304
 20
3394.540656013439
 10
-2524.646335893549
 20
3383.170826533806
 10
-2519.866455152743
 20
3371.10717081662
 10
-2513.572575902734
 20
3355.776889144522
 10
-2509.504573592563
 20
3339.738718103179
 10
-2508.462762115619
 20
3325.517965364266
 10
-2510.801192402706
 20
3324.180238938411
 10
-2515.818475419493
 20
3324.872258990782
 10
-2524.022197496071
 20
3325.285836762668
 10
-2523.698339799923
 20
3322.89379078601
 10
-2520.943192649053
 20
3318.081331100703
 10
-2519.529654739242
 20
3311.612609261499
 10
-2520.572634924247
 20
3303.427837641224
 10
-2523.349562543498
 20
3296.405843611421
 10
-2527.13782830145
 20
3293.425435226146
 10
-2530.586115919029
 20
3298.179169746151
 10
-2535.097502885974
 20
3309.610544744419
 10
-2538.274418423893
 20
3322.881282712149
 10
-2539.628912429839
 20
3336.620952715312
 10
-2539.109542431709
 20
3349.21829268967
 10
-2536.664904592374
 20
3359.062040570989
 10
-2535.922089203768
 20
3364.648030451756
 10
-2537.857489067736
 20
3369.628359112877
 10
-2541.167772546854
 20
3377.501568618489
 10
-2543.813611688559
 20
3390.028419076995
 10
-2546.775909928284
 20
3402.222197397298
 10
-2548.87790381382
 20
3405.242370832828
 10
-2551.483649507965
 20
3406.404346747524
 10
-2565.68566428295
 20
3407.590121808159
 10
-2574.460710743212
 20
3409.714253535614
 10
-2584.340707891863
 20
3414.787808396653
 10
-2595.152851134754
 20
3422.702492550261
 10
-2606.724297242762
 20
3433.350012155421
 10
-2613.684108276806
 20
3439.694358344361
 10
-2620.251648728873
 20
3443.791114736291
 10
-2627.866960103114
 20
3446.31236573536
 10
-2637.970093562425
 20
3447.930244039436
 10
-2650.971584374241
 20
3448.970239672455
 10
-2660.65948841639
 20
3448.187495034939
 10
-2669.127763499157
 20
3445.140547560229
 10
-2678.470357774082
 20
3439.387905705429
 10
-2687.206054510093
 20
3434.961274219655
 10
-2695.507320245288
 20
3433.108079928365
 10
-2704.019407392169
 20
3431.596476787747
 10
-2713.259831469962
 20
3427.996991187003
 10
-2722.116928962993
 20
3424.401340107745
 10
-2729.703911240223
 20
3422.90635000731
 10
-2733.157781612002
 20
3423.43433560535
 10
-2735.050538119916
 20
3425.591799659362
 10
-2735.441958732396
 20
3438.23620669466
 10
-2735.729460915025
 20
3449.981490882456
 10
-2737.741947217197
 20
3456.697457258075
 10
-2743.619698786825
 20
3459.27019902297
 10
-2753.675765185196
 20
3460.540575024868
 10
-2780.57287608553
 20
3458.881598763825
 10
-2789.283440768891
 20
3457.899951605081
 10
-2796.470918064668
 20
3458.406272639671
 10
-2812.915838145682
 20
3465.178462565821
 10
-2825.009851296181
 20
3471.078467882301
 10
-2833.591896727977
 20
3473.508685216407
 10
-2840.497512547792
 20
3472.656301032538
 10
-2847.562207886115
 20
3468.708521112585
 10
-2853.764512581481
 20
3465.483852742881
 10
-2858.029717473884
 20
3465.185271980548
 10
-2862.124976760449
 20
3464.081702492592
 10
-2867.91456331217
 20
3458.922484228418
 10
-2880.883098488457
 20
3447.531579368737
 10
-2883.87745410049
 20
3444.858212805796
 10
-2885.589563113891
 20
3440.133695987278
 10
-2886.130481770539
 20
3419.372881923811
 10
-2884.506759926166
 20
3400.036201412644
 10
-2880.224623255017
 20
3385.781527163773
 10
-2872.181999374504
 20
3374.307933794199
 10
-2859.276825560779
 20
3363.314466944692
 10
-2843.915442732056
 20
3354.040604294156
 10
-2837.233339913929
 20
3351.825776957787
 10
-2830.997171661071
 20
3351.233551051454
 10
-2825.04211150212
 20
3352.269857044152
 10
-2819.203332965713
 20
3354.940586769901
 10
-2807.215276240111
 20
3365.208971685323
 10
-2798.304621009974
 20
3376.229009740381
 10
-2793.13336795041
 20
3385.997477368679
 10
-2791.643381079519
 20
3394.674719384228
 10
-2793.776514756656
 20
3402.421109577271
 10
-2795.312824965177
 20
3409.11876297371
 10
-2791.398155220661
 20
3415.982527454504
 10
-2786.506194411078
 20
3420.454767530828
 10
-2781.683786219149
 20
3422.526954531477
 10
-2777.052572870502
 20
3422.30186715447
 10
-2772.734167614534
 20
3419.882293756575
 10
-2768.850203018125
 20
3415.370993718328
 10
-2765.52231164816
 20
3408.870765055239
 10
-2761.021249878864
 20
3390.314636646634
 10
-2753.677049798187
 20
3353.429621106406
 10
-2749.259198110975
 20
3340.194987524843
 10
-2745.262062007685
 20
3333.728071870821
 10
-2735.097808014487
 20
3330.957866737598
 10
-2729.269045595913
 20
3328.368666472428
 10
-2723.519494539287
 20
3322.214491299874
 10
-2716.441170712767
 20
3314.115605233852
 10
-2707.712602130044
 20
3308.536791800096
 10
-2697.846812994248
 20
3305.709667686754
 10
-2687.356837167253
 20
3305.86582060574
 10
-2674.955627654512
 20
3305.911931450996
 10
-2665.457527596466
 20
3301.345914626328
 10
-2658.553292977086
 20
3291.903931872627
 10
-2653.933718415313
 20
3277.322096637058
 10
-2648.73191474755
 20
3260.983654553131
 10
-2640.972002312496
 20
3249.981176095199
 10
-2616.609143081049
 20
3226.654168895468
 10
-2602.32961688311
 20
3214.244025044254
 10
-2589.537411742638
 20
3205.409075051887
 10
-2583.359437424147
 20
3201.49653988986
 10
-2579.192993192141
 20
3196.919560390419
 10
-2576.233409059562
 20
3190.428478558177
 10
-2573.675995721861
 20
3180.773636397743
 10
-2567.971174310056
 20
3164.369167137829
 10
-2563.77071198065
 20
3158.417246070773
 10
-2558.151921004264
 20
3153.03746072192
 10
-2539.384005309543
 20
3136.535457462134
 10
-2534.375936734811
 20
3132.788492494779
 10
-2527.417661441111
 20
3130.638108300335
 10
-2497.687737427045
 20
3129.427635830542
 10
-2471.212723311064
 20
3128.407971854261
 10
-2464.024029013506
 20
3127.121890734143
 10
-2460.768645836951
 20
3125.308094460824
 10
-2448.798477105778
 20
3115.229030592292
 10
-2441.759647884672
 20
3108.555649620261
 10
-2439.428142917242
 20
3100.440942531088
 10
-2437.199706410166
 20
3090.24177217727
 10
-2431.843285563758
 20
3078.115711313207
 10
-2424.255028332282
 20
3064.619026340228
 10
-2431.931875566414
 20
3058.829864773255
 10
-2437.188637489205
 20
3053.369950481747
 10
-2437.125063634268
 20
3051.169466380654
 10
-2435.427867722057
 20
3048.863248005783
 10
-2428.187151427736
 20
3044.68578314654
 10
-2423.219601285314
 20
3041.683014768227
 10
-2415.576395457555
 20
3034.463605663817
 10
-2405.457296093927
 20
3026.478808685386
 10
-2393.871303917014
 20
3024.241428181093
 10
-2384.676459453541
 20
3025.314331155918
 10
-2383.307641529807
 20
3026.8878565062
 10
-2383.679792947422
 20
3029.359335995925
 10
-2384.59728672657
 20
3036.125131833353
 10
-2383.26366526704
 20
3043.368823020916
 10
-2380.319409561655
 20
3049.143081145444
 10
-2376.405010261979
 20
3051.500568135022
 10
-2372.623032346561
 20
3050.812430897858
 10
-2369.437211446404
 20
3048.697349413805
 10
-2364.763654162777
 20
3039.882209505983
 10
-2362.203536376674
 20
3024.446937283418
 10
-2361.576036736182
 20
3001.783302300483
 10
-2360.829232286181
 20
2975.398269046337
 10
-2356.948377805435
 20
2958.405495330272
 10
-2353.377569016498
 20
2952.40399592876
 10
-2348.477118170682
 20
2947.517917294451
 10
-2333.959127234891
 20
2939.448461422291
 10
-2323.925469123281
 20
2935.859629416503
 10
-2312.393314787057
 20
2933.313458857159
 10
-2279.498770816558
 20
2930.469982489728
 10
-2245.897622089806
 20
2930.303446420626
 10
-2238.451618844279
 20
2932.741709488727
 10
-2231.805494848643
 20
2937.683432148909
 10
-2225.949736239769
 20
2942.104152483175
 10
-2220.823898595873
 20
2944.447537706086
 10
-2215.233591256406
 20
2945.041009590432
 10
-2207.984413902086
 20
2944.211999567753
 10
-2196.377983822248
 20
2943.651058334186
 10
-2187.536649399903
 20
2945.735106272826
 10
-2180.515186601037
 20
2947.603851142427
 10
-2173.656637842162
 20
2945.775991737418
 10
-2167.194203845493
 20
2940.378047949295
 10
-2161.361066015754
 20
2931.536501034575
 10
-2157.549899375083
 20
2921.731726186479
 10
-2158.710329890692
 20
2919.051386010159
 10
-2161.977805815103
 20
2916.302053423353
 10
-2168.025068347076
 20
2913.120820426735
 10
-2173.91389849641
 20
2911.797475871134
 10
-2179.227357248201
 20
2908.657833427442
 10
-2184.694457645463
 20
2900.87891258362
 10
-2188.964936212249
 20
2890.92075687615
 10
-2190.688490837637
 20
2881.243390524024
 10
-2191.754149754242
 20
2874.04356935304
 10
-2194.317367997264
 20
2867.089080287102
 10
-2196.32091030222
 20
2857.203384479319
 10
-2195.697361088144
 20
2842.303708945296
 10
-2191.481985657551
 20
2825.424338545977
 10
-2181.846306445794
 20
2811.637176497125
 10
-2174.397637386842
 20
2802.79946410389
 10
-2171.088319782153
 20
2796.30391027304
 10
-2171.562477198248
 20
2790.621014210781
 10
-2175.464262177877
 20
2784.221294440806
 10
-2178.996445648385
 20
2777.668454597554
 10
-2180.466313354913
 20
2771.205054726455
 10
-2183.579819236547
 20
2762.159708307152
 10
-2191.063308068676
 20
2749.401154231797
 10
-2201.66370266043
 20
2733.996326371244
 10
-2224.990709860161
 20
2736.340609857372
 10
-2245.411642370697
 20
2737.25252088232
 10
-2248.739543399406
 20
2735.100060057852
 10
-2250.35874495145
 20
2730.551457949145
 10
-2250.87060044652
 20
2724.190547013741
 10
-2249.718746895843
 20
2716.918951713915
 10
-2243.564832509385
 20
2701.694674760434
 10
-2234.178802861374
 20
2688.980570226316
 10
-2228.986793160324
 20
2684.846704938811
 10
-2223.842420386128
 20
2682.878629542899
 10
-2219.924302469899
 20
2681.655987055298
 10
-2217.290111773812
 20
2679.476182325736
 10
-2215.731972803188
 20
2673.369016261657
 10
-2218.884982948981
 20
2666.805049544978
 10
-2226.46611202717
 20
2662.032200370018
 10
-2236.534686499399
 20
2658.121152654612
 10
-2242.098799324342
 20
2653.659382657099
 10
-2244.076852203109
 20
2647.333349447338
 10
-2243.387227519324
 20
2637.829492777695
 10
-2242.597770054524
 20
2630.083585521866
 10
-2243.376148939619
 20
2624.524900911217
 10
-2246.256463757784
 20
2619.627463593618
 10
-2251.772814092197
 20
2613.865298216945
 10
-2257.014131682863
 20
2608.241822749578
 10
-2260.212924276606
 20
2602.927571980754
 10
-2261.809398803328
 20
2596.879874805287
 10
-2262.243733216701
 20
2589.056069776735
 10
-2263.551324360361
 20
2577.07057261837
 10
-2265.391846379138
 20
2573.977726790779
 10
-2268.206674910995
 20
2572.301924997177
 10
-2282.927567088153
 20
2566.516327506849
 10
-2294.648887931357
 20
2559.952254543983
 10
-2302.563726624872
 20
2553.158825039133
 10
-2305.865172352962
 20
2546.685148264107
 10
-2305.764943563432
 20
2541.598206383477
 10
-2304.114573243554
 20
2537.262482998991
 10
-2300.836878367681
 20
2533.643670250917
 10
-2295.854675910167
 20
2530.707460279528
 10
-2280.468016147629
 20
2526.745675180349
 10
-2257.337091115793
 20
2525.102722776088
 10
-2234.739744094941
 20
2525.744700874276
 10
-2218.104797878704
 20
2528.674526415687
 10
-2207.831245535085
 20
2533.772730392162
 10
-2205.204665929501
 20
2537.09763721014
 10
-2204.318060814602
 20
2540.919843795538
 10
-2200.444286193422
 20
2547.476093175526
 10
-2190.511310832324
 20
2554.770888779144
 10
-2183.129827998675
 20
2559.252835893485
 10
-2179.258390793615
 20
2562.932025452135
 10
-2178.108613872961
 20
2567.028395494292
 10
-2178.892102233787
 20
2572.761922694136
 10
-2181.011124485511
 20
2583.951268877908
 10
-2181.00425711832
 20
2590.20010940328
 10
-2178.418205603788
 20
2593.110124860146
 10
-2172.799685072243
 20
2594.283015155893
 10
-2165.645858841583
 20
2596.650296112185
 10
-2163.429350883707
 20
2601.884910534311
 10
-2162.7411170591
 20
2605.33387426399
 10
-2160.79016661682
 20
2607.988985800216
 10
-2153.782593092247
 20
2610.828038462762
 10
-2143.771623370981
 20
2610.222850521588
 10
-2132.122231196528
 20
2605.994223293823
 10
-2119.625033083001
 20
2601.737691953796
 10
-2113.745726455542
 20
2601.649459324677
 10
-2107.819430037095
 20
2603.025105980626
 10
-2094.946245984469
 20
2610.479676532341
 10
-2079.246314509528
 20
2624.724653401943
 10
-2065.921700066131
 20
2637.349047519066
 10
-2058.801959544082
 20
2642.58280231295
 10
-2039.059524843904
 20
2634.169949104937
 10
-2025.310273366403
 20
2628.218935959845
 10
-2016.178886852936
 20
2625.682134382465
 10
-2011.04394101317
 20
2623.721602465846
 10
-2006.900552203792
 20
2619.156976500356
 10
-2001.417205798629
 20
2614.335041586898
 10
-1992.230880347622
 20
2610.831438340753
 10
-1981.773164726566
 20
2609.273251076408
 10
-1972.475667128746
 20
2610.287535132118
 10
-1967.114561791356
 20
2614.466274945609
 10
-1963.575559247377
 20
2621.545564646558
 10
-1960.111305725482
 20
2629.666491967056
 10
-1954.041673541726
 20
2637.252363488692
 10
-1945.779390498498
 20
2643.89332005613
 10
-1935.7371650807
 20
2649.179512172783
 10
-1927.094308194834
 20
2653.673011145297
 10
-1921.201228198012
 20
2658.314733207734
 10
-1916.709004179744
 20
2661.663777227701
 10
-1911.442457948984
 20
2663.057823791528
 10
-1906.521704422663
 20
2664.957447666635
 10
-1902.224181371856
 20
2670.537053117423
 10
-1898.645404118877
 20
2679.61775054084
 10
-1895.880887986043
 20
2692.020659992578
 10
-1890.979036622303
 20
2711.560676388604
 10
-1884.273607936707
 20
2723.770739351784
 10
-1880.417653698749
 20
2726.93239407372
 10
-1876.318521255722
 20
2728.027956462657
 10
-1872.045454145466
 20
2726.979586698337
 10
-1867.667686247071
 20
2723.709406325523
 10
-1863.510929735592
 20
2716.464179397617
 10
-1863.625627324072
 20
2712.119434745961
 10
-1865.368972716516
 20
2706.92757958482
 10
-1874.241340684275
 20
2692.905362334852
 10
-1891.127578450787
 20
2672.203263777942
 10
-1905.619220332146
 20
2651.683947298036
 10
-1910.277120791274
 20
2646.109876307728
 10
-1918.287909450597
 20
2641.499255401914
 10
-1926.113404759401
 20
2636.956342293596
 10
-1927.260264739279
 20
2634.211162966835
 10
-1926.898390225592
 20
2630.731890097565
 10
-1927.012324773274
 20
2626.598826485837
 10
-1929.499074737728
 20
2621.400751093371
 10
-1942.715501586298
 20
2606.058965856819
 10
-1952.716841539503
 20
2596.30444545528
 10
-1959.583803064657
 20
2591.208694799856
 10
-1965.586983087677
 20
2589.587204125415
 10
-1972.996997851967
 20
2590.255473325567
 10
-1979.988170828731
 20
2591.05998877272
 10
-1984.493115413233
 20
2590.335978959251
 10
-1987.737535915016
 20
2587.524714504036
 10
-1990.947146302367
 20
2582.067514319676
 10
-1997.056331044003
 20
2574.13334847883
 10
-2005.024360442341
 20
2569.881395383598
 10
-2014.422849870491
 20
2569.427627576706
 10
-2024.823443677797
 20
2572.887998283395
 10
-2047.69603593477
 20
2583.260156747503
 10
-2065.217654877116
 20
2588.202091900058
 10
-2078.452974229524
 20
2587.873868451489
 10
-2083.795998397596
 20
2585.78345540036
 10
-2088.466716010402
 20
2582.435512477244
 10
-2101.813468295719
 20
2571.552300193842
 10
-2105.948019354069
 20
2567.730112925933
 10
-2108.452773217884
 20
2563.292354566733
 10
-2109.991218008893
 20
2548.589881614944
 10
-2111.659563251901
 20
2533.497687989671
 10
-2117.705550829628
 20
2522.51991659964
 10
-2123.908763446958
 20
2513.946071441749
 10
-2127.390634518443
 20
2506.358654521026
 10
-2128.198771994705
 20
2499.596683546339
 10
-2126.380774167619
 20
2493.499156909065
 10
-2125.299352180328
 20
2486.210320750675
 10
-2129.934680154043
 20
2476.332718970609
 10
-2137.21212865291
 20
2468.456795357851
 10
-2145.742432191529
 20
2465.453341208693
 10
-2155.145451570752
 20
2467.34693802736
 10
-2165.041047591436
 20
2474.162205953057
 10
-2174.462486196027
 20
2482.89194324384
 10
-2183.396670127261
 20
2475.01405890599
 10
-2190.715110336909
 20
2468.256183238882
 10
-2194.906841161473
 20
2462.902901484371
 10
-2197.233024160797
 20
2456.724820919692
 10
-2198.954820894724
 20
2447.492548822082
 10
-2199.373933127091
 20
2435.236152862527
 10
-2195.908617143324
 20
2425.933970773724
 10
-2192.060496146988
 20
2418.787659046124
 10
-2191.044560446003
 20
2412.90793709266
 10
-2192.913836546541
 20
2407.606406890069
 10
-2197.721350954769
 20
2402.194670415096
 10
-2201.460212235662
 20
2397.880428077917
 10
-2203.375067950519
 20
2391.912434860358
 10
-2203.207247268426
 20
2365.037056134683
 10
-2201.427691243627
 20
2339.581435550144
 10
-2198.732920903333
 20
2322.815623007479
 10
-2194.473520916251
 20
2312.179935364078
 10
-2188.000056633598
 20
2305.114650842353
 10
-2182.752084168115
 20
2301.659766302423
 10
-2177.122378810678
 20
2299.89282459767
 10
-2158.580632272324
 20
2300.446521773019
 10
-2140.647096862108
 20
2303.87904631991
 10
-2126.605658710996
 20
2309.067221499476
 10
-2115.720321503851
 20
2313.613109501036
 10
-2105.374193355614
 20
2315.503789378928
 10
-2100.314324935238
 20
2315.896494604398
 10
-2096.954530732874
 20
2317.331851617567
 10
-2094.800949494068
 20
2320.195765887922
 10
-2093.359729623113
 20
2324.874113908719
 10
-2090.782680058263
 20
2335.162898092088
 10
-2087.468349565287
 20
2340.47955388824
 10
-2081.279035880994
 20
2342.465691135981
 10
-2070.07701742471
 20
2342.762929332858
 10
-2054.957141838293
 20
2344.082864351723
 10
-2046.361564505742
 20
2347.874018074219
 10
-2040.801131662376
 20
2351.483722626424
 10
-2034.60947090322
 20
2352.985106815581
 10
-2027.869164491982
 20
2354.376439272261
 10
-2023.635534034674
 20
2358.189470050581
 10
-2022.230254351234
 20
2363.882749262955
 10
-2023.9750002616
 20
2370.914807704312
 10
-2026.117821659263
 20
2379.055921800382
 10
-2024.077218752454
 20
2386.404816030786
 10
-2021.422435613533
 20
2393.808649198729
 10
-2020.318866125578
 20
2401.751710743069
 10
-2018.888290190834
 20
2410.099338450871
 10
-2014.698375210196
 20
2414.743668374268
 10
-2007.901796954707
 20
2415.607710662498
 10
-1998.651260171639
 20
2412.614475464801
 10
-1986.142558493659
 20
2408.22852660999
 10
-1976.265111253501
 20
2408.351830139637
 10
-1968.701078152713
 20
2413.072560730392
 10
-1963.13259957535
 20
2422.478873741419
 10
-1959.737135630311
 20
2435.006158843419
 10
-1961.534531355819
 20
2445.478777906919
 10
-1963.529989291802
 20
2453.309817334947
 10
-1962.584378908016
 20
2454.799485467276
 10
-1960.273794780725
 20
2455.206881642816
 10
-1954.315547236157
 20
2456.826247393514
 10
-1946.923632958672
 20
2460.720044591612
 10
-1939.146257513937
 20
2464.319530192355
 10
-1933.351986471233
 20
2461.956924068302
 10
-1925.017079329665
 20
2449.943735290048
 10
-1916.76139320879
 20
2430.230692148755
 10
-1911.296784767555
 20
2424.251997042519
 10
-1901.063538363872
 20
2418.638750185357
 10
-1891.830512884208
 20
2413.922433640744
 10
-1888.123535118226
 20
2408.768807789515
 10
-1889.820895229091
 20
2402.487542859553
 10
-1896.800893038707
 20
2394.388328396225
 10
-1907.089561317144
 20
2381.496512625858
 10
-1914.145795595467
 20
2366.997578392558
 10
-1916.977072968856
 20
2353.683781742768
 10
-1916.498192426803
 20
2348.343887007847
 10
-1914.590880191238
 20
2344.347369064191
 10
-1912.229133695427
 20
2338.299671888724
 10
-1911.888817499003
 20
2330.189649290533
 10
-1914.412850216427
 20
2322.617145470999
 10
-1917.010134850571
 20
2321.027547970214
 10
-1920.846858528642
 20
2320.526288117633
 10
-1925.793536124646
 20
2319.857159289238
 10
-1926.646239047076
 20
2318.372813125014
 10
-1925.868072654356
 20
2314.196632878762
 10
-1926.901790103584
 20
2307.053460243057
 10
-1928.448213017379
 20
2302.268837058803
 10
-1930.51277926878
 20
2299.749710983479
 10
-1933.795052389448
 20
2299.078244738966
 10
-1938.994624887279
 20
2299.83660104714
 10
-1958.699583659598
 20
2303.945913806652
 10
-1967.104767824643
 20
2304.224047007316
 10
-1968.914410837915
 20
2302.080530180064
 10
-1969.943975027096
 20
2297.982981771102
 10
-1969.124121494007
 20
2287.804993043519
 10
-1964.42527761782
 20
2276.491696194234
 10
-1956.881469927581
 20
2265.895242370152
 10
-1947.526744269823
 20
2257.867744083202
 10
-1934.467059523642
 20
2251.323423252415
 10
-1919.449827412828
 20
2245.71698580998
 10
-1905.102999084656
 20
2242.540871947838
 10
-1901.094948600313
 20
2243.214308576188
 10
-1897.789030873616
 20
2245.372835092072
 10
-1887.577072342354
 20
2250.932427624685
 10
-1870.393596378966
 20
2257.843896643541
 10
-1856.131214452148
 20
2263.414181406087
 10
-1847.793216512407
 20
2268.034123000144
 10
-1844.828252459256
 20
2272.128271531114
 10
-1846.684962533469
 20
2276.121148128173
 10
-1849.731803761992
 20
2281.350005938701
 10
-1848.642509898101
 20
2286.945577293805
 10
-1843.344225033595
 20
2293.043326082199
 10
-1833.764122236501
 20
2299.778677557615
 10
-1818.544742266376
 20
2307.448927869395
 10
-1804.897979724569
 20
2311.146584947133
 10
-1792.924449750383
 20
2310.858870272129
 10
-1782.724796459351
 20
2306.573014984429
 10
-1774.784294482249
 20
2302.041605440563
 10
-1768.952112868195
 20
2300.139856641712
 10
-1763.557781450438
 20
2297.183517847216
 10
-1756.668459932245
 20
2290.125525677433
 10
-1752.028177022708
 20
2285.179224772456
 10
-1746.92119324767
 20
2281.809366158538
 10
-1732.070497205958
 20
2278.233727997454
 10
-1717.70237134662
 20
2274.919619655596
 10
-1713.867038527727
 20
2271.773158138433
 10
-1710.934440926703
 20
2266.921184530223
 10
-1704.378191546715
 20
2256.591679080915
 10
-1694.926511413743
 20
2244.95373251845
 10
-1687.961532951502
 20
2236.548915385688
 10
-1685.681827829717
 20
2230.896106311901
 10
-1688.103690350009
 20
2226.87820390838
 10
-1695.243395496512
 20
2223.378116445157
 10
-1700.466351814277
 20
2220.046863832179
 10
-1703.015236480768
 20
2214.923527803054
 10
-1702.928723108134
 20
2207.815812417649
 10
-1700.245456332293
 20
2198.531412077091
 10
-1698.024843408093
 20
2194.339517053872
 10
-1694.731868398748
 20
2191.504946048679
 10
-1682.356640908154
 20
2188.46256716002
 10
-1654.024172994651
 20
2182.673405593048
 10
-1628.870803495277
 20
2176.761577973552
 10
-1622.402400394634
 20
2175.935185470577
 10
-1619.187844730206
 20
2176.539252997414
 10
-1618.412556643285
 20
2179.250365933052
 10
-1619.261956275166
 20
2184.745099997737
 10
-1622.303900520333
 20
2204.499463247115
 10
-1621.199693555254
 20
2207.062671831392
 10
-1618.246551805119
 20
2206.917008308708
 10
-1585.085812841901
 20
2205.376863578703
 10
-1560.229304848375
 20
2206.512374534036
 10
-1553.074261615935
 20
2208.782768626323
 10
-1546.742423500854
 20
2212.702760338945
 10
-1534.434063497001
 20
2218.690824427146
 10
-1516.86640132061
 20
2220.444350136075
 10
-1495.623915337988
 20
2221.125726252233
 10
-1481.330277714638
 20
2223.127674864382
 10
-1472.182867344388
 20
2226.892952810916
 10
-1466.379072779812
 20
2232.864297612745
 10
-1462.570031062885
 20
2241.17620728415
 10
-1464.508405820096
 20
2247.972679293453
 10
-1466.511957783797
 20
2254.648185189229
 10
-1463.046641800029
 20
2262.460911638077
 10
-1459.204374002735
 20
2273.451451888063
 10
-1458.732882400066
 20
2290.534418958337
 10
-1459.187393930267
 20
2302.016000109442
 10
-1458.38234725218
 20
2308.038613525979
 10
-1455.464498553691
 20
2310.558222538517
 10
-1449.58062334018
 20
2311.530771160137
 10
-1440.859830046614
 20
2313.672742588302
 10
-1434.247357116095
 20
2317.227933187717
 10
-1427.950918298848
 20
2321.119170818578
 10
-1419.990828388319
 20
2324.069975152594
 10
-1412.220697001803
 20
2328.38159997007
 10
-1407.213101705542
 20
2336.769321125432
 10
-1404.021388971367
 20
2347.644555286047
 10
-1403.828291355458
 20
2354.214326908045
 10
-1406.83791744222
 20
2357.169274843364
 10
-1413.254414451031
 20
2357.200047602682
 10
-1418.748462744872
 20
2356.96579407734
 10
-1422.873055637855
 20
2359.018750518101
 10
-1426.940787503184
 20
2364.579183361467
 10
-1432.264252714063
 20
2374.867378361435
 10
-1441.600510852732
 20
2393.952187797669
 10
-1432.81284041368
 20
2404.395840287035
 10
-1424.025179633372
 20
2417.987934336141
 10
-1422.853033060935
 20
2420.209551769749
 10
-1420.035123389647
 20
2421.132956700405
 10
-1415.589753939945
 20
2422.604949330678
 10
-1410.508056757467
 20
2426.141826950912
 10
-1402.767790208306
 20
2429.197824669025
 10
-1392.513188320991
 20
2429.251073326313
 10
-1383.561270935233
 20
2426.781989205172
 10
-1380.766648496437
 20
2424.751711496011
 10
-1379.729077208237
 20
2422.271027222975
 10
-1375.265607271729
 20
2417.096683365238
 10
-1364.547443610809
 20
2411.108406784662
 10
-1351.582945789636
 20
2406.157682174799
 10
-1340.380512007348
 20
2404.095994229198
 10
-1333.607037468207
 20
2406.003712132023
 10
-1328.757893872074
 20
2410.648409087702
 10
-1326.117540897128
 20
2413.725124812323
 10
-1321.718649324964
 20
2416.302551068201
 10
-1307.342429437907
 20
2420.093704790696
 10
-1289.433176110845
 20
2422.989985513178
 10
-1273.660359751468
 20
2407.302349619723
 10
-1262.102909163941
 20
2394.629033962755
 10
-1256.001548005182
 20
2384.808022765502
 10
-1255.141601024532
 20
2377.304250570357
 10
-1259.308421947564
 20
2371.582651919716
 10
-1269.476075818754
 20
2366.72371435687
 10
-1272.979196127684
 20
2365.107439404347
 10
-1275.490121929103
 20
2360.496702593602
 10
-1277.507302381001
 20
2342.371083735629
 10
-1276.995021901182
 20
2335.182070699509
 10
-1275.149390406674
 20
2329.215564928571
 10
-1265.605276090816
 20
2317.003038985596
 10
-1254.580399004869
 20
2304.119481441599
 10
-1246.615460404705
 20
2290.715858469884
 10
-1241.90053471927
 20
2277.195963534367
 10
-1240.625686718765
 20
2263.963570781481
 10
-1240.532779257409
 20
2256.184012460535
 10
-1239.161788116209
 20
2250.525243941519
 10
-1235.962937570001
 20
2245.730875084275
 10
-1230.386471211108
 20
2240.544564042357
 10
-1223.160619724254
 20
2233.21669689828
 10
-1220.038643123875
 20
2226.940126118043
 10
-1221.093078579611
 20
2222.106784227575
 10
-1226.396414967384
 20
2219.108652046522
 10
-1230.836781187542
 20
2216.641808754057
 10
-1232.893456244855
 20
2212.356059712543
 10
-1232.521092334866
 20
2206.522921882804
 10
-1229.674322335631
 20
2199.413931543153
 10
-1227.177401713437
 20
2196.006539048912
 10
-1223.427297654187
 20
2194.32158076572
 10
-1206.674427828875
 20
2195.086533996247
 10
-1188.225096155918
 20
2199.358557962121
 10
-1180.700828105384
 20
2203.426879010851
 10
-1172.729988012457
 20
2209.452109947093
 10
-1164.754666262178
 20
2216.536557417495
 10
-1160.411409057143
 20
2222.312882513302
 10
-1158.607088011976
 20
2228.995787007205
 10
-1158.24856508256
 20
2238.7999726719
 10
-1157.893345443691
 20
2248.100725266548
 10
-1156.449459759312
 20
2254.602190248905
 10
-1153.349582365875
 20
2259.760075606367
 10
-1148.026387599836
 20
2265.030079667583
 10
-1140.064588091567
 20
2274.583987950154
 10
-1137.804210117113
 20
2285.60732929576
 10
-1137.234962363453
 20
2291.728230094224
 10
-1135.276777521697
 20
2297.028485342567
 10
-1125.690927771749
 20
2307.935970050376
 10
-1116.340191175384
 20
2318.058478950739
 10
-1115.826848233693
 20
2321.742613786466
 10
-1117.451854691058
 20
2325.896337452238
 10
-1119.53552593867
 20
2335.335297018976
 10
-1119.120199934065
 20
2348.352328750359
 10
-1116.602300519267
 20
2361.424956213893
 10
-1112.378251536297
 20
2371.030654683364
 10
-1106.924287031274
 20
2375.211104094594
 10
-1099.35178321174
 20
2375.013901512361
 10
-1092.652429876305
 20
2374.565822705859
 10
-1088.567389541202
 20
2376.560855657093
 10
-1085.04345463832
 20
2380.225296313208
 10
-1082.297357730853
 20
2378.948584175053
 10
-1080.514073430756
 20
2373.024625172726
 10
-1079.878537715012
 20
2362.747286601344
 10
-1078.214451978238
 20
2347.068594705104
 10
-1075.570370727994
 20
2341.969270314291
 10
-1071.216942865218
 20
2337.21909987093
 10
-1062.587347435267
 20
2330.781682021981
 10
-1054.369523592021
 20
2327.129817050936
 10
-1048.222322032847
 20
2326.731152380237
 10
-1046.443596660057
 20
2327.897909373358
 10
-1045.804612772601
 20
2330.053354749813
 10
-1043.551903841115
 20
2335.225776517436
 10
-1038.137984489931
 20
2340.551530850712
 10
-1032.335619419509
 20
2345.961615680413
 10
-1033.458941039545
 20
2348.13382863696
 10
-1037.146427459542
 20
2351.233706030396
 10
-1040.667223270529
 20
2354.474726654188
 10
-1041.096448208171
 20
2357.622144387036
 10
-1030.33164247106
 20
2370.15155441278
 10
-1018.144673565483
 20
2381.260076224307
 10
-1007.784926587793
 20
2388.772946956575
 10
-1000.293353386692
 20
2395.648215001821
 10
-996.4792021940336
 20
2407.026351001546
 10
-994.230318125288
 20
2420.328808285536
 10
-974.8797386810826
 20
2421.933695578537
 10
-961.6936596070816
 20
2422.095807942753
 10
-953.1797566162738
 20
2419.655429609651
 10
-948.5707294032689
 20
2414.147752827614
 10
-947.0992680039323
 20
2405.107989162511
 10
-944.4725918109044
 20
2398.00698660439
 10
-938.3115975648795
 20
2391.478419185546
 10
-922.1264880466058
 20
2379.450326964848
 10
-914.6200017443154
 20
2373.548718296815
 10
-922.2866396857305
 20
2371.38843388947
 10
-928.2563907947512
 20
2367.512949670551
 10
-929.9532679684009
 20
2359.316046667443
 10
-929.5571628649398
 20
2354.186954026719
 10
-928.0391656355989
 20
2350.866557842326
 10
-924.9047872075474
 20
2348.779216271883
 10
-919.6595385079538
 20
2347.349277814263
 10
-911.8519215348362
 20
2345.02415727681
 10
-907.5326276743929
 20
2342.323379197566
 10
-902.3031323867419
 20
2339.590649992199
 10
-893.1713208885247
 20
2339.78145848571
 10
-882.0219039536617
 20
2342.614706242935
 10
-870.7396020148124
 20
2347.809275511222
 10
-859.8405783670035
 20
2356.205515679051
 10
-851.6731152165014
 20
2366.781637846397
 10
-846.5460992058003
 20
2379.008642247068
 10
-844.7684556123714
 20
2392.357529114874
 10
-847.2289627685801
 20
2403.993881984531
 10
-853.2132502877622
 20
2416.783421311579
 10
-860.6254479282631
 20
2427.109420636709
 10
-864.212058422863
 20
2430.218357932293
 10
-867.369685448428
 20
2431.355134183128
 10
-870.6595310246223
 20
2433.134216929456
 10
-872.0275955663007
 20
2437.410075416814
 10
-873.6533457469766
 20
2444.495208658061
 10
-877.7605335827427
 20
2451.365048489015
 10
-883.1940505260984
 20
2456.558449049242
 10
-888.7987783707929
 20
2458.614274137057
 10
-895.697903514443
 20
2460.618676070255
 10
-903.6345709700606
 20
2465.439278077002
 10
-911.1742736939747
 20
2469.716411518606
 10
-917.1142082593631
 20
2470.420891351114
 10
-919.2168685982558
 20
2470.746458645003
 10
-921.479081734127
 20
2472.904028945202
 10
-925.7136201133983
 20
2480.769144423096
 10
-928.2806632191597
 20
2490.124140525693
 10
-927.6430605321378
 20
2497.076919993892
 10
-921.4377712847852
 20
2498.820651736108
 10
-909.3215043874341
 20
2498.412618083444
 10
-894.3111975962786
 20
2497.977964931509
 10
-882.6697352508897
 20
2500.478353042904
 10
-874.8321954879527
 20
2505.740002290307
 10
-871.2336757616387
 20
2513.589142205141
 10
-871.1748926438707
 20
2521.870810348165
 10
-872.9714480586256
 20
2528.568038759856
 10
-874.5328806610526
 20
2535.907988993044
 10
-873.9118813554703
 20
2545.734486357055
 10
-873.4514586737612
 20
2555.936641262859
 10
-875.400912010676
 20
2564.178698895537
 10
-876.7644562600255
 20
2568.226253644038
 10
-875.7165211391981
 20
2572.301924997177
 10
-863.8907409764639
 20
2585.066013533011
 10
-852.5986450709018
 20
2597.276404893498
 10
-846.7549695511396
 20
2606.921028102469
 10
-841.2596945967742
 20
2614.640905042428
 10
-829.3908943869579
 20
2622.189561422302
 10
-818.3108562123523
 20
2628.612336614904
 10
-811.5212515702417
 20
2635.305035075521
 10
-808.6703766046815
 20
2642.785491061941
 10
-809.4065371184713
 20
2651.571500196975
 10
-810.2298484820178
 20
2657.953554123638
 10
-809.424260914249
 20
2658.827969903239
 10
-807.7846214592803
 20
2658.253400181473
 10
-805.0271851860127
 20
2654.715247606992
 10
-803.879745681478
 20
2649.595214868415
 10
-801.4438876407055
 20
2644.378498099463
 10
-794.5946016176073
 20
2641.022219680021
 10
-787.0138009367258
 20
2637.200467055605
 10
-775.7537430859845
 20
2629.237856212816
 10
-747.9780631460023
 20
2606.066625241044
 10
-722.8320439510346
 20
2581.861686478789
 10
-714.8590499581307
 20
2572.606928824465
 10
-711.8801483369659
 20
2566.9761706639
 10
-704.1112919046966
 20
2556.730145741517
 10
-691.3335748806646
 20
2542.037466756441
 10
-677.4859297750492
 20
2529.528929277114
 10
-668.4473927704714
 20
2519.715210431801
 10
-659.130307239224
 20
2504.03140905983
 10
-650.6228949245808
 20
2488.502640192507
 10
-643.5312613484245
 20
2479.058629102505
 10
-638.9091368781589
 20
2473.119544506614
 10
-636.3314401774411
 20
2466.015132411758
 10
-636.3024253095852
 20
2461.933501613391
 10
-637.752753376408
 20
2458.741199695813
 10
-646.4343611443771
 20
2453.343033756572
 10
-656.0500177792139
 20
2450.304499048141
 10
-658.2093556296188
 20
2451.18775257877
 10
-659.614152375844
 20
2453.700812962677
 10
-663.25377971787
 20
2459.110637006281
 10
-668.7161473304279
 20
2462.548531815
 10
-675.0307928806676
 20
2463.641080675718
 10
-681.2272443769927
 20
2462.014847557827
 10
-684.817148503397
 20
2459.328712134932
 10
-686.6654458113296
 20
2454.990081468412
 10
-686.4712181223392
 20
2434.295709906938
 10
-684.6638642314649
 20
2417.599276124531
 10
-681.4244469592251
 20
2407.318537675158
 10
-676.0096196860784
 20
2402.124605883994
 10
-667.6760454512225
 20
2400.688601734957
 10
-657.9250504913504
 20
2399.609681362438
 10
-647.9012442989199
 20
2396.935783568561
 10
-640.075208100435
 20
2393.511198509478
 10
-636.9175134636596
 20
2390.180206682595
 10
-633.1526605018741
 20
2386.263933586527
 10
-624.0384182595269
 20
2381.880650545141
 10
-612.845247213015
 20
2378.311300226592
 10
-602.8435885212477
 20
2376.836854275269
 10
-594.9682540918913
 20
2378.338238464426
 10
-589.2140185442833
 20
2381.947943016631
 10
-584.0556502496062
 20
2385.557647568836
 10
-577.6118479706794
 20
2387.059031757993
 10
-572.9947267299569
 20
2385.279630273102
 10
-567.2065213786697
 20
2378.977550749188
 10
-547.8107969636387
 20
2347.022165121286
 10
-520.2590453513487
 20
2295.615691156066
 10
-513.2194241132108
 20
2280.297540866799
 10
-510.8439911767366
 20
2272.253757936971
 10
-486.5935790463493
 20
2217.960362572489
 10
-454.5470535072979
 20
2146.83786091399
 10
-434.7432857808601
 20
2102.541758488854
 10
-424.3098619017011
 20
2078.98524020723
 10
-412.268450272623
 20
2047.025170088346
 10
-385.4178752022924
 20
1964.67567246082
 10
-358.3040800324864
 20
1869.0558811678
 10
-335.0395745670756
 20
1773.72838279458
 10
-318.1048305867246
 20
1705.580532909757
 10
-308.379334711786
 20
1672.24111683586
 10
-297.2537265816047
 20
1620.234718945106
 10
-285.1397488066516
 20
1551.697785863922
 10
-272.4491826323767
 20
1468.766754559995
 10
-263.1010056032498
 20
1410.723950565852
 10
-255.0510410770737
 20
1371.656068474121
 10
-244.7977624377261
 20
1326.373103168324
 10
-240.1769129217066
 20
1281.458126361351
 10
-240.9904303185397
 20
1231.993011705328
 10
-247.0402524177505
 20
1173.059603876149
 10
-250.4540390007139
 20
1139.383068650189
 10
-251.8617140527378
 20
1110.022842732687
 10
-250.1788903520353
 20
1067.712771309105
 10
-245.5648599094863
 20
1010.253114001659
 10
-238.5869387298928
 20
943.7167966259119
 10
-229.812481453034
 20
874.1767643149099
 10
-220.6633131913225
 20
800.1853451565105
 10
-218.5385729629754
 20
772.8426860406784
 10
-218.0850852596689
 20
749.8767903138346
 10
-219.3313530358116
 20
729.7437173594665
 10
-222.3058889045558
 20
710.8995169023178
 10
-233.5537960549766
 20
670.9019516961404
 10
-238.963562146115
 20
652.2283246632082
 10
-241.2229839048848
 20
636.8727467398057
 10
-240.4528052936951
 20
622.422473260254
 10
-236.7737799336981
 20
606.4647499001294
 10
-232.1368003147092
 20
581.6283707297111
 10
-228.2642426953109
 20
544.3624626082835
 10
-225.6087737855458
 20
500.3077611792664
 10
-224.6230216604774
 20
455.1049731098463
 10
-223.6114517119138
 20
419.0402747224336
 10
-221.18155311637
 20
398.7535118288734
 10
-212.3427782612627
 20
363.6062589268877
 10
-209.073756937765
 20
341.9548893221057
 10
-209.2441854808174
 20
322.033941709903
 10
-213.1770040058602
 20
300.5841404397743
 10
-221.1951816045673
 20
274.3462002024688
 10
-231.1515890793214
 20
245.2504789974339
 10
-226.5516024509746
 20
213.0131353061274
 10
-218.6228744831662
 20
151.6757626098316
 10
-215.3263740321543
 20
107.2889935520167
 10
-216.4618366937659
 20
72.51681866716615
 10
-221.8289594288497
 20
40.02322848976314
 10
-225.4748166609441
 20
27.46496779481504
 10
-230.9194604777247
 20
20.1436492793681
 10
-240.2427758990413
 20
16.51637547129382
 10
-255.5246672622313
 20
15.04022958097505
 10
-269.6393573300623
 20
13.66108645959218
 10
-277.5875283501339
 20
11.59195162214109
  0
ENDBLK
  5
1838
330
1836
100
AcDbEntity
  8
0
100
AcDbBlockEnd
  0
ENDSEC
  0
SECTION
  2
ENTITIES
  0
INSERT
  5
186B
330
6F
100
AcDbEntity
  8
0
  6
Continuous
100
AcDbBlockReference
  2
Cerisier
 10
384.1478178389082
 20
55.54328200000009
 30
0.0
  0
ENDSEC
  0
SECTION
  2
OBJECTS
  0
DICTIONARY
  5
C
330
0
100
AcDbDictionary
281
     1
  3
ACAD_CIP_PREVIOUS_PRODUCT_INFO
350
17F7
  3
ACAD_COLOR
350
62
  3
ACAD_DETAILVIEWSTYLE
350
69
  3
ACAD_GROUP
350
D
  3
ACAD_LAYOUT
350
61
  3
ACAD_MATERIAL
350
10
  3
ACAD_MLEADERSTYLE
350
65
  3
ACAD_MLINESTYLE
350
5E
  3
ACAD_PLOTSETTINGS
350
60
  3
ACAD_PLOTSTYLENAME
350
E
  3
ACAD_RENDER_ACTIVE_RAPIDRT_SETTINGS
350
17FF
  3
ACAD_RENDER_ACTIVE_SETTINGS
350
18C2
  3
ACAD_RENDER_RAPIDRT_SETTINGS
350
17F8
  3
ACAD_SCALELIST
350
42
  3
ACAD_SECTIONVIEWSTYLE
350
67
  3
ACAD_TABLESTYLE
350
63
  3
ACAD_VISUALSTYLE
350
29
  3
ACDB_RECOMPOSE_DATA
350
18B5
  3
AcDbVariableDictionary
350
1807
  3
AcDsDecomposeData
350
18BB
  3
AEC_PROPERTY_SET_DEFS
350
1819
  0
DICTIONARY
  5
1822
330
2
100
AcDbDictionary
280
     1
281
     1
  3
ACAD_LAYERSTATES
360
1823
  0
DICTIONARY
  5
1803
330
54
100
AcDbDictionary
280
     1
281
     1
  3
ADSK_XREC_LAYER_RECONCILED
360
1804
  0
DICTIONARY
  5
181D
330
6F
100
AcDbDictionary
280
     1
281
     1
  3
ACAD_SORTENTS
360
181E
  0
DICTIONARY
  5
18A2
330
1836
100
AcDbDictionary
280
     1
281
     1
  0
XRECORD
  5
17F7
102
{ACAD_REACTORS
330
C
102
}
330
C
100
AcDbXrecord
280
     1
300
AOEM
300
2019
300

  0
DICTIONARY
  5
62
102
{ACAD_REACTORS
330
C
102
}
330
C
100
AcDbDictionary
281
     1
  0
DICTIONARY
  5
69
102
{ACAD_REACTORS
330
C
102
}
330
C
100
AcDbDictionary
281
     1
  3
Imperial24
350
6A
  0
DICTIONARY
  5
D
102
{ACAD_REACTORS
330
C
102
}
330
C
100
AcDbDictionary
281
     1
  0
DICTIONARY
  5
61
102
{ACAD_REACTORS
330
C
102
}
330
C
100
AcDbDictionary
281
     1
  3
Model
350
72
  3
Présentation1
350
6E
  0
DICTIONARY
  5
10
102
{ACAD_REACTORS
330
C
102
}
330
C
100
AcDbDictionary
281
     1
  3
ByBlock
350
19
  3
ByLayer
350
11
  3
Global
350
21
  0
DICTIONARY
  5
65
102
{ACAD_REACTORS
330
C
102
}
330
C
100
AcDbDictionary
281
     1
  3
Standard
350
66
  0
DICTIONARY
  5
5E
102
{ACAD_REACTORS
330
C
102
}
330
C
100
AcDbDictionary
281
     1
  3
Standard
350
5F
  0
DICTIONARY
  5
60
102
{ACAD_REACTORS
330
C
102
}
330
C
100
AcDbDictionary
281
     1
  0
ACDBDICTIONARYWDFLT
  5
E
102
{ACAD_REACTORS
330
C
102
}
330
C
100
AcDbDictionary
281
     1
  3
Normal
350
F
100
AcDbDictionaryWithDefault
340
F
  0
RAPIDRTRENDERSETTINGS
  5
17FF
102
{ACAD_REACTORS
330
C
102
}
330
C
100
AcDbRenderSettings
 90
        2
  1
Moyenne
290
     1
290
     0
290
     1
290
     1
  1

  1
Applique 5 niveaux de rendu
 90
        0
100
AcDbRapidRTRenderSettings
 90
        3
 70
     0
 90
        5
 90
        1
 70
     1
 70
     2
 40
3.0
 40
3.0
290
     1
  0
MENTALRAYRENDERSETTINGS
  5
18C2
102
{ACAD_XDICTIONARY
360
18C3
102
}
102
{ACAD_REACTORS
330
C
102
}
330
C
100
AcDbRenderSettings
 90
        2
  1
Moyen
290
     1
290
     1
290
     1
290
     1
  1

  1

 90
        0
100
AcDbMentalRayRenderSettings
 90
        2
 90
        0
 90
        1
 70
     2
 40
3.0
 40
3.0
 40
0.0500000007450581
 40
0.0500000007450581
 40
0.0500000007450581
 40
0.0500000007450581
 70
     0
290
     0
290
     1
 90
        5
 90
        5
 90
        5
290
     0
 90
      500
290
     0
 40
1.0
 90
    10000
 90
        5
 90
        5
 90
        5
290
     0
 90
      200
290
     0
290
     0
290
     0
 40
1.0
 40
1.0
 40
1500.0
 70
     0
 70
     0
 40
10.0
 70
     0
 70
     0
290
     0
  1

 90
       32
 70
     0
 90
     1048
290
     0
 40
1.0
  0
DICTIONARY
  5
17F8
102
{ACAD_REACTORS
330
C
102
}
330
C
100
AcDbDictionary
281
     1
  3
Bas
350
17F9
  3
Elevé
350
17FB
  3
Moyenne
350
17FA
  3
Temps d'un déjeuner
350
17FD
  3
Temps d'une nuit
350
17FE
  3
Temps d'une pause café
350
17FC
  0
DICTIONARY
  5
42
102
{ACAD_REACTORS
330
C
102
}
330
C
100
AcDbDictionary
281
     1
  3
A0
350
43
  3
A1
350
44
  3
A2
350
45
  3
A3
350
46
  3
A4
350
47
  3
A5
350
48
  3
A6
350
49
  3
A7
350
4A
  3
A8
350
4B
  3
A9
350
4C
  3
B0
350
4D
  3
B1
350
4E
  3
B2
350
4F
  3
B3
350
50
  3
B4
350
51
  3
B5
350
52
  3
B6
350
53
  0
DICTIONARY
  5
67
102
{ACAD_REACTORS
330
C
102
}
330
C
100
AcDbDictionary
281
     1
  3
Imperial24
350
68
  0
DICTIONARY
  5
63
102
{ACAD_REACTORS
330
C
102
}
330
C
100
AcDbDictionary
281
     1
  3
Standard
350
64
  0
DICTIONARY
  5
29
102
{ACAD_REACTORS
330
C
102
}
330
C
100
AcDbDictionary
281
     1
  3
2dWireframe
350
2F
  3
Basic
350
2E
  3
Brighten
350
35
  3
ColorChange
350
39
  3
Conceptual
350
32
  3
Dim
350
34
  3
EdgeColorOff
350
41
  3
Facepattern
350
38
  3
Flat
350
2A
  3
FlatWithEdges
350
2B
  3
Gouraud
350
2C
  3
GouraudWithEdges
350
2D
  3
Hidden
350
31
  3
JitterOff
350
3F
  3
Linepattern
350
37
  3
OverhangOff
350
40
  3
Realistic
350
33
  3
Shaded
350
3E
  3
Shaded with edges
350
3D
  3
Shades of Gray
350
3A
  3
Sketchy
350
3B
  3
Thicken
350
36
  3
Wireframe
350
30
  3
X-Ray
350
3C
  0
XRECORD
  5
18B5
102
{ACAD_REACTORS
330
C
102
}
330
C
100
AcDbXrecord
280
     1
 90
        1
330
64
  0
DICTIONARY
  5
1807
102
{ACAD_REACTORS
330
C
102
}
330
C
100
AcDbDictionary
281
     1
  3
CANNOSCALE
350
180D
  3
CMLEADERSTYLE
350
1809
  3
CTABLESTYLE
350
1808
  3
CVIEWDETAILSTYLE
350
180A
  3
CVIEWSECTIONSTYLE
350
180B
  3
LAYEREVAL
350
180F
  3
LAYERNOTIFY
350
1810
  3
LIGHTINGUNITS
350
180E
  3
MSLTSCALE
350
180C
  0
DICTIONARY
  5
18BB
102
{ACAD_REACTORS
330
C
102
}
330
C
100
AcDbDictionary
281
     1
  3
AcDsRecords
350
18BD
  3
AcDsSchemas
350
18BC
1001
ACAD
1070
     2
  0
DICTIONARY
  5
1819
102
{ACAD_REACTORS
330
C
102
}
330
C
100
AcDbDictionary
281
     1
  0
DICTIONARY
  5
1823
102
{ACAD_REACTORS
330
1822
102
}
330
1822
100
AcDbDictionary
281
     1
  0
XRECORD
  5
1804
102
{ACAD_REACTORS
330
1803
102
}
330
1803
100
AcDbXrecord
280
     1
290
     1
  0
SORTENTSTABLE
  5
181E
102
{ACAD_REACTORS
330
181D
102
}
330
181D
100
AcDbSortentsTable
330
6F
  0
ACDBDETAILVIEWSTYLE
  5
6A
102
{ACAD_XDICTIONARY
360
18C0
102
}
102
{ACAD_REACTORS
330
69
102
}
330
69
100
AcDbModelDocViewStyle
 70
     0
  3
Imperial24
290
     0
100
AcDbDetailViewStyle
 70
     0
 71
     0
 90
        3
 71
     1
340
55
 62
   256
 40
0.24
340
0
 62
   256
 40
0.24
300

 40
0.36
280
     3
 71
     2
340
5C
 90
       25
 62
   256
 71
     3
340
55
 62
   256
 40
0.24
 90
        1
 40
0.75
 90
        1
300
%<\AcVar ViewType \f "%tc1">% %<\AcVar ViewDetailId>%\PECHELLE %<\AcVar ViewScale \f "%sn">%
 71
     4
340
5C
 90
       25
 62
   256
340
5C
 90
       25
 62
   256
280
     0
  0
LAYOUT
  5
72
102
{ACAD_REACTORS
330
61
102
}
330
61
100
AcDbPlotSettings
  1

  2
AutoCAD PDF (General Documentation).pc3
  4

  6

 40
0.0
 41
0.0
 42
0.0
 43
0.0
 44
0.0
 45
0.0
 46
0.0
 47
0.0
 48
0.0
 49
0.0
140
0.0
141
0.0
142
1.0
143
1.0
 70
  1712
 72
     0
 73
     0
 74
     0
  7

 75
     0
147
1.0
 76
     0
 77
     2
 78
   300
148
0.0
149
0.0
100
AcDbLayout
  1
Model
 70
     1
 71
     0
 10
0.0
 20
0.0
 11
12.0
 21
9.0
 12
0.0
 22
0.0
 32
0.0
 14
0.0
 24
0.0
 34
0.0
 15
0.0
 25
0.0
 35
0.0
146
0.0
 13
0.0
 23
0.0
 33
0.0
 16
1.0
 26
0.0
 36
0.0
 17
0.0
 27
1.0
 37
0.0
 76
     0
330
6F
331
17F6
  0
LAYOUT
  5
6E
102
{ACAD_REACTORS
330
61
102
}
330
61
100
AcDbPlotSettings
  1

  2
AutoCAD PDF (General Documentation).pc3
  4

  6

 40
0.0
 41
0.0
 42
0.0
 43
0.0
 44
0.0
 45
0.0
 46
0.0
 47
0.0
 48
0.0
 49
0.0
140
0.0
141
0.0
142
1.0
143
1.0
 70
   688
 72
     0
 73
     0
 74
     5
  7

 75
    16
147
1.0
 76
     0
 77
     2
 78
   300
148
0.0
149
0.0
100
AcDbLayout
  1
Présentation1
 70
     1
 71
     1
 10
0.0
 20
0.0
 11
12.0
 21
9.0
 12
0.0
 22
0.0
 32
0.0
 14
1.000000000000000E+20
 24
1.000000000000000E+20
 34
1.000000000000000E+20
 15
-1.000000000000000E+20
 25
-1.000000000000000E+20
 35
-1.000000000000000E+20
146
0.0
 13
0.0
 23
0.0
 33
0.0
 16
1.0
 26
0.0
 36
0.0
 17
0.0
 27
1.0
 37
0.0
 76
     0
330
6B
  0
MATERIAL
  5
19
102
{ACAD_XDICTIONARY
360
1A
102
}
102
{ACAD_REACTORS
330
10
102
}
330
10
100
AcDbMaterial
  1
ByBlock
 72
     0
 43
0.0208333333333333
 43
0.0
 43
0.0
 43
0.0
 43
0.0
 43
0.0208333333333333
 43
0.0
 43
0.0
 43
0.0
 43
0.0
 43
1.0
 43
0.0
 43
0.0
 43
0.0
 43
0.0
 43
1.0
 77
     0
 47
0.0208333333333333
 47
0.0
 47
0.0
 47
0.0
 47
0.0
 47
0.0208333333333333
 47
0.0
 47
0.0
 47
0.0
 47
0.0
 47
1.0
 47
0.0
 47
0.0
 47
0.0
 47
0.0
 47
1.0
171
     0
 49
0.0208333333333333
 49
0.0
 49
0.0
 49
0.0
 49
0.0
 49
0.0208333333333333
 49
0.0
 49
0.0
 49
0.0
 49
0.0
 49
1.0
 49
0.0
 49
0.0
 49
0.0
 49
0.0
 49
1.0
175
     0
142
0.0208333333333333
142
0.0
142
0.0
142
0.0
142
0.0
142
0.0208333333333333
142
0.0
142
0.0
142
0.0
142
0.0
142
1.0
142
0.0
142
0.0
142
0.0
142
0.0
142
1.0
179
     0
144
0.0208333333333333
144
0.0
144
0.0
144
0.0
144
0.0
144
0.0208333333333333
144
0.0
144
0.0
144
0.0
144
0.0
144
1.0
144
0.0
144
0.0
144
0.0
144
0.0
144
1.0
147
0.0208333333333333
147
0.0
147
0.0
147
0.0
147
0.0
147
0.0208333333333333
147
0.0
147
0.0
147
0.0
147
0.0
147
1.0
147
0.0
147
0.0
147
0.0
147
0.0
147
1.0
  0
MATERIAL
  5
11
102
{ACAD_XDICTIONARY
360
12
102
}
102
{ACAD_REACTORS
330
10
102
}
330
10
100
AcDbMaterial
  1
ByLayer
 72
     0
 43
0.0208333333333333
 43
0.0
 43
0.0
 43
0.0
 43
0.0
 43
0.0208333333333333
 43
0.0
 43
0.0
 43
0.0
 43
0.0
 43
1.0
 43
0.0
 43
0.0
 43
0.0
 43
0.0
 43
1.0
 77
     0
 47
0.0208333333333333
 47
0.0
 47
0.0
 47
0.0
 47
0.0
 47
0.0208333333333333
 47
0.0
 47
0.0
 47
0.0
 47
0.0
 47
1.0
 47
0.0
 47
0.0
 47
0.0
 47
0.0
 47
1.0
171
     0
 49
0.0208333333333333
 49
0.0
 49
0.0
 49
0.0
 49
0.0
 49
0.0208333333333333
 49
0.0
 49
0.0
 49
0.0
 49
0.0
 49
1.0
 49
0.0
 49
0.0
 49
0.0
 49
0.0
 49
1.0
175
     0
142
0.0208333333333333
142
0.0
142
0.0
142
0.0
142
0.0
142
0.0208333333333333
142
0.0
142
0.0
142
0.0
142
0.0
142
1.0
142
0.0
142
0.0
142
0.0
142
0.0
142
1.0
179
     0
144
0.0208333333333333
144
0.0
144
0.0
144
0.0
144
0.0
144
0.0208333333333333
144
0.0
144
0.0
144
0.0
144
0.0
144
1.0
144
0.0
144
0.0
144
0.0
144
0.0
144
1.0
147
0.0208333333333333
147
0.0
147
0.0
147
0.0
147
0.0
147
0.0208333333333333
147
0.0
147
0.0
147
0.0
147
0.0
147
1.0
147
0.0
147
0.0
147
0.0
147
0.0
147
1.0
  0
MATERIAL
  5
21
102
{ACAD_XDICTIONARY
360
22
102
}
102
{ACAD_REACTORS
330
10
102
}
330
10
100
AcDbMaterial
  1
Global
 72
     0
 43
0.0208333333333333
 43
0.0
 43
0.0
 43
0.0
 43
0.0
 43
0.0208333333333333
 43
0.0
 43
0.0
 43
0.0
 43
0.0
 43
1.0
 43
0.0
 43
0.0
 43
0.0
 43
0.0
 43
1.0
 77
     0
 47
0.0208333333333333
 47
0.0
 47
0.0
 47
0.0
 47
0.0
 47
0.0208333333333333
 47
0.0
 47
0.0
 47
0.0
 47
0.0
 47
1.0
 47
0.0
 47
0.0
 47
0.0
 47
0.0
 47
1.0
171
     0
 49
0.0208333333333333
 49
0.0
 49
0.0
 49
0.0
 49
0.0
 49
0.0208333333333333
 49
0.0
 49
0.0
 49
0.0
 49
0.0
 49
1.0
 49
0.0
 49
0.0
 49
0.0
 49
0.0
 49
1.0
175
     0
142
0.0208333333333333
142
0.0
142
0.0
142
0.0
142
0.0
142
0.0208333333333333
142
0.0
142
0.0
142
0.0
142
0.0
142
1.0
142
0.0
142
0.0
142
0.0
142
0.0
142
1.0
179
     0
144
0.0208333333333333
144
0.0
144
0.0
144
0.0
144
0.0
144
0.0208333333333333
144
0.0
144
0.0
144
0.0
144
0.0
144
1.0
144
0.0
144
0.0
144
0.0
144
0.0
144
1.0
147
0.0208333333333333
147
0.0
147
0.0
147
0.0
147
0.0
147
0.0208333333333333
147
0.0
147
0.0
147
0.0
147
0.0
147
1.0
147
0.0
147
0.0
147
0.0
147
0.0
147
1.0
  0
MLEADERSTYLE
  5
66
102
{ACAD_REACTORS
330
65
102
}
330
65
100
AcDbMLeaderStyle
179
     2
170
     2
171
     1
172
     0
 90
        2
 40
0.0
 41
0.0
173
     1
 91
-1056964608
340
5A
 92
       -2
290
     1
 42
0.09
291
     1
 43
0.36
  3
Standard
 44
0.18
300

342
55
174
     1
178
     6
175
     1
176
     0
 93
-1056964608
 45
0.18
292
     0
297
     0
 46
0.18
 94
-1056964608
 47
1.0
 49
1.0
140
1.0
293
     1
141
0.0
294
     1
177
     0
142
1.0
295
     0
296
     0
143
0.125
271
     0
272
     9
273
     9
298
     0
  0
MLINESTYLE
  5
5F
102
{ACAD_REACTORS
330
5E
102
}
330
5E
100
AcDbMlineStyle
  2
STANDARD
 70
     0
  3

 62
   256
 51
90.0
 52
90.0
 71
     2
 49
0.5
 62
   256
  6
BYLAYER
 49
-0.5
 62
   256
  6
BYLAYER
  0
ACDBPLACEHOLDER
  5
F
102
{ACAD_REACTORS
330
E
102
}
330
E
  0
DICTIONARY
  5
18C3
330
18C2
100
AcDbDictionary
280
     1
281
     1
  3
ACAD_XREC_ROUNDTRIP
360
18C5
  3
ADSK_XREC_MENTALRAYSETTINGSINFO
360
18C4
  0
RAPIDRTRENDERSETTINGS
  5
17F9
102
{ACAD_REACTORS
330
17F8
102
}
330
17F8
100
AcDbRenderSettings
 90
        2
  1
Bas
290
     1
290
     0
290
     1
290
     1
  1

  1
Applique 1 niveau de rendu
 90
        0
100
AcDbRapidRTRenderSettings
 90
        3
 70
     0
 90
        1
 90
        1
 70
     0
 70
     2
 40
3.0
 40
3.0
290
     1
  0
RAPIDRTRENDERSETTINGS
  5
17FB
102
{ACAD_REACTORS
330
17F8
102
}
330
17F8
100
AcDbRenderSettings
 90
        2
  1
Elevé
290
     1
290
     0
290
     1
290
     1
  1

  1
Applique 10 niveaux de rendu
 90
        2
100
AcDbRapidRTRenderSettings
 90
        3
 70
     0
 90
       10
 90
        1
 70
     2
 70
     2
 40
3.0
 40
3.0
290
     1
  0
RAPIDRTRENDERSETTINGS
  5
17FA
102
{ACAD_REACTORS
330
17F8
102
}
330
17F8
100
AcDbRenderSettings
 90
        2
  1
Moyenne
290
     1
290
     0
290
     1
290
     1
  1

  1
Applique 5 niveaux de rendu
 90
        1
100
AcDbRapidRTRenderSettings
 90
        3
 70
     0
 90
        5
 90
        1
 70
     1
 70
     2
 40
3.0
 40
3.0
290
     1
  0
RAPIDRTRENDERSETTINGS
  5
17FD
102
{ACAD_REACTORS
330
17F8
102
}
330
17F8
100
AcDbRenderSettings
 90
        2
  1
Temps d'un déjeuner
290
     1
290
     0
290
     1
290
     1
  1

  1
Effectue un rendu pendant 60 minutes
 90
        4
100
AcDbRapidRTRenderSettings
 90
        3
 70
     1
 90
        1
 90
       60
 70
     2
 70
     2
 40
3.0
 40
3.0
290
     1
  0
RAPIDRTRENDERSETTINGS
  5
17FE
102
{ACAD_REACTORS
330
17F8
102
}
330
17F8
100
AcDbRenderSettings
 90
        2
  1
Temps d'une nuit
290
     1
290
     0
290
     1
290
     1
  1

  1
Effectue un rendu pendant 12 heures
 90
        5
100
AcDbRapidRTRenderSettings
 90
        3
 70
     1
 90
        1
 90
      720
 70
     2
 70
     2
 40
3.0
 40
3.0
290
     1
  0
RAPIDRTRENDERSETTINGS
  5
17FC
102
{ACAD_REACTORS
330
17F8
102
}
330
17F8
100
AcDbRenderSettings
 90
        2
  1
Temps d'une pause café
290
     1
290
     0
290
     1
290
     1
  1

  1
Effectue un rendu pendant 10 minutes
 90
        3
100
AcDbRapidRTRenderSettings
 90
        3
 70
     1
 90
        1
 90
       10
 70
     1
 70
     2
 40
3.0
 40
3.0
290
     1
  0
SCALE
  5
43
102
{ACAD_REACTORS
330
42
102
}
330
42
100
AcDbScale
 70
     0
300
1:1
140
1.0
141
1.0
290
     1
  0
SCALE
  5
44
102
{ACAD_REACTORS
330
42
102
}
330
42
100
AcDbScale
 70
     0
300
1/128" = 1'-0"
140
0.0078125
141
12.0
290
     0
  0
SCALE
  5
45
102
{ACAD_REACTORS
330
42
102
}
330
42
100
AcDbScale
 70
     0
300
1/64" = 1'-0"
140
0.015625
141
12.0
290
     0
  0
SCALE
  5
46
102
{ACAD_REACTORS
330
42
102
}
330
42
100
AcDbScale
 70
     0
300
1/32" = 1'-0"
140
0.03125
141
12.0
290
     0
  0
SCALE
  5
47
102
{ACAD_REACTORS
330
42
102
}
330
42
100
AcDbScale
 70
     0
300
1/16" = 1'-0"
140
0.0625
141
12.0
290
     0
  0
SCALE
  5
48
102
{ACAD_REACTORS
330
42
102
}
330
42
100
AcDbScale
 70
     0
300
3/32" = 1'-0"
140
0.09375
141
12.0
290
     0
  0
SCALE
  5
49
102
{ACAD_REACTORS
330
42
102
}
330
42
100
AcDbScale
 70
     0
300
1/8" = 1'-0"
140
0.125
141
12.0
290
     0
  0
SCALE
  5
4A
102
{ACAD_REACTORS
330
42
102
}
330
42
100
AcDbScale
 70
     0
300
3/16" = 1'-0"
140
0.1875
141
12.0
290
     0
  0
SCALE
  5
4B
102
{ACAD_REACTORS
330
42
102
}
330
42
100
AcDbScale
 70
     0
300
1/4" = 1'-0"
140
0.25
141
12.0
290
     0
  0
SCALE
  5
4C
102
{ACAD_REACTORS
330
42
102
}
330
42
100
AcDbScale
 70
     0
300
3/8" = 1'-0"
140
0.375
141
12.0
290
     0
  0
SCALE
  5
4D
102
{ACAD_REACTORS
330
42
102
}
330
42
100
AcDbScale
 70
     0
300
1/2" = 1'-0"
140
0.5
141
12.0
290
     0
  0
SCALE
  5
4E
102
{ACAD_REACTORS
330
42
102
}
330
42
100
AcDbScale
 70
     0
300
3/4" = 1'-0"
140
0.75
141
12.0
290
     0
  0
SCALE
  5
4F
102
{ACAD_REACTORS
330
42
102
}
330
42
100
AcDbScale
 70
     0
300
1" = 1'-0"
140
1.0
141
12.0
290
     0
  0
SCALE
  5
50
102
{ACAD_REACTORS
330
42
102
}
330
42
100
AcDbScale
 70
     0
300
1-1/2" = 1'-0"
140
1.5
141
12.0
290
     0
  0
SCALE
  5
51
102
{ACAD_REACTORS
330
42
102
}
330
42
100
AcDbScale
 70
     0
300
3" = 1'-0"
140
3.0
141
12.0
290
     0
  0
SCALE
  5
52
102
{ACAD_REACTORS
330
42
102
}
330
42
100
AcDbScale
 70
     0
300
6" = 1'-0"
140
6.0
141
12.0
290
     0
  0
SCALE
  5
53
102
{ACAD_REACTORS
330
42
102
}
330
42
100
AcDbScale
 70
     0
300
1'-0" = 1'-0"
140
12.0
141
12.0
290
     0
  0
ACDBSECTIONVIEWSTYLE
  5
68
102
{ACAD_XDICTIONARY
360
18BE
102
}
102
{ACAD_REACTORS
330
67
102
}
330
67
100
AcDbModelDocViewStyle
 70
     0
  3
Imperial24
290
     0
100
AcDbSectionViewStyle
 70
     0
 71
     0
 90
       78
 71
     1
340
55
 62
   256
 40
0.24
340
0
340
0
 62
   256
 40
0.24
300
I, O, Q, S, X, Z
 40
0.48
 90
        3
 40
0.18
 90
        1
 71
     2
340
5C
 90
       25
 62
   256
340
5C
 90
       50
 62
   256
 40
0.24
 40
0.0
 40
0.24
 71
     3
340
55
 62
   256
 40
0.24
 90
        1
 40
0.75
 90
        1
300
%<\AcVar ViewType \f "%tc1">% %<\AcVar ViewSectionStartId>%-%<\AcVar ViewSectionEndId>%\PECHELLE %<\AcVar ViewScale \f "%sn">%
 71
     4
 62
   256
 62
   257
300
ANSI31
 40
1.0
 90
        0
290
     0
290
     0
 90
        6
 40
0.0
 40
1.570796326794896
 40
0.2617993877991494
 40
1.308996938995747
 40
-0.2617993877991494
 40
1.832595714594046
  0
TABLESTYLE
  5
64
102
{ACAD_XDICTIONARY
360
18B3
102
}
102
{ACAD_REACTORS
330
63
102
}
330
63
100
AcDbTableStyle
280
     0
  3
Standard
 70
     0
 71
     0
 40
0.06
 41
0.06
280
     0
281
     0
  7
Standard
140
0.18
170
     2
 62
     0
 63
     7
283
     0
 90
      512
 91
        0
  1

274
    -2
284
     1
 64
     0
275
    -2
285
     1
 65
     0
276
    -2
286
     1
 66
     0
277
    -2
287
     1
 67
     0
278
    -2
288
     1
 68
     0
279
    -2
289
     1
 69
     0
  7
Standard
140
0.25
170
     5
 62
     0
 63
     7
283
     0
 90
      512
 91
        0
  1

274
    -2
284
     1
 64
     0
275
    -2
285
     1
 65
     0
276
    -2
286
     1
 66
     0
277
    -2
287
     1
 67
     0
278
    -2
288
     1
 68
     0
279
    -2
289
     1
 69
     0
  7
Standard
140
0.18
170
     5
 62
     0
 63
     7
283
     0
 90
      512
 91
        0
  1

274
    -2
284
     1
 64
     0
275
    -2
285
     1
 65
     0
276
    -2
286
     1
 66
     0
277
    -2
287
     1
 67
     0
278
    -2
288
     1
 68
     0
279
    -2
289
     1
 69
     0
  0
VISUALSTYLE
  5
2F
102
{ACAD_REACTORS
330
29
102
}
330
29
100
AcDbVisualStyle
  2
2dWireframe
 70
     4
177
     3
291
     0
 70
    58
 90
        0
176
     1
 90
        2
176
     1
 90
        0
176
     1
 90
        0
176
     1
 40
0.6
176
     1
 40
30.0
176
     1
 62
     7
420
 16777215
176
     1
 90
        1
176
     1
 90
        4
176
     1
 62
     7
176
     1
 62
   257
176
     1
 90
        1
176
     1
 90
        1
176
     1
 40
1.0
176
     1
 90
        0
176
     1
 62
   257
176
     1
 40
1.0
176
     1
 90
        1
176
     1
 90
        6
176
     1
 90
        2
176
     1
 62
     7
176
     1
 90
        5
176
     1
 90
        0
176
     1
 90
        0
176
     1
290
     0
176
     1
 90
        1
176
     1
 40
0.0
176
     1
 90
        0
176
     1
290
     1
176
     1
290
     1
176
     1
290
     0
176
     1
290
     0
176
     1
290
     0
176
     1
290
     0
176
     1
290
     0
176
     1
290
     0
176
     1
290
     0
176
     1
 90
       50
176
     1
 40
0.0
176
     1
 40
1.0
176
     1
 90
        0
176
     1
 62
    18
420
        0
176
     1
 90
       50
176
     1
 90
        3
176
     1
 62
     5
420
      255
176
     1
290
     0
176
     1
 90
       50
176
     1
 90
       50
176
     1
 90
       50
176
     1
290
     0
176
     1
 90
       50
176
     1
 62
   256
176
     0
 40
1.0
176
     0
 90
        2
176
     1
  1
strokes_ogs.tif
176
     1
290
     0
176
     1
 40
1.0
176
     1
 40
1.0
176
     1
1001
ACAD
1000
AcDbSavedByObjectVersion
1070
     0
  0
VISUALSTYLE
  5
2E
102
{ACAD_REACTORS
330
29
102
}
330
29
100
AcDbVisualStyle
  2
Basic
 70
     7
177
     3
291
     1
 70
    58
 90
        1
176
     1
 90
        0
176
     1
 90
        1
176
     1
 90
        0
176
     1
 40
0.6
176
     1
 40
30.0
176
     1
 62
     7
420
 16777215
176
     1
 90
        0
176
     1
 90
        4
176
     1
 62
     7
176
     1
 62
   257
176
     1
 90
        1
176
     1
 90
        1
176
     1
 40
1.0
176
     1
 90
        8
176
     1
 62
     7
176
     1
 40
1.0
176
     1
 90
        1
176
     1
 90
        6
176
     1
 90
        2
176
     1
 62
     7
176
     1
 90
        5
176
     1
 90
        0
176
     1
 90
        0
176
     1
290
     0
176
     1
 90
        1
176
     1
 40
0.0
176
     1
 90
        0
176
     1
290
     0
176
     1
290
     1
176
     1
290
     1
176
     1
290
     0
176
     1
290
     0
176
     1
290
     0
176
     1
290
     0
176
     1
290
     0
176
     1
290
     0
176
     1
 90
       50
176
     1
 40
0.0
176
     1
 40
1.0
176
     1
 90
        0
176
     1
 62
    18
420
        0
176
     1
 90
       50
176
     1
 90
        3
176
     1
 62
     5
420
      255
176
     1
290
     0
176
     1
 90
       50
176
     1
 90
       50
176
     1
 90
       50
176
     1
290
     0
176
     1
 90
       50
176
     1
 62
   256
176
     0
 40
1.0
176
     0
 90
        2
176
     1
  1
strokes_ogs.tif
176
     1
290
     0
176
     1
 40
1.0
176
     1
 40
1.0
176
     1
1001
ACAD
1000
AcDbSavedByObjectVersion
1070
     0
  0
VISUALSTYLE
  5
35
102
{ACAD_REACTORS
330
29
102
}
330
29
100
AcDbVisualStyle
  2
Brighten
 70
    12
177
     3
291
     1
 70
    58
 90
        2
176
     1
 90
        2
176
     1
 90
        0
176
     1
 90
        0
176
     1
 40
0.6
176
     1
 40
30.0
176
     1
 62
     7
420
 16777215
176
     1
 90
        1
176
     1
 90
        4
176
     1
 62
     7
176
     1
 62
   257
176
     1
 90
        1
176
     1
 90
        1
176
     1
 40
1.0
176
     1
 90
        8
176
     1
 62
     7
176
     1
 40
1.0
176
     1
 90
        1
176
     1
 90
        6
176
     1
 90
        2
176
     1
 62
     7
176
     1
 90
        5
176
     1
 90
        0
176
     1
 90
        0
176
     1
290
     0
176
     1
 90
        1
176
     1
 40
50.0
176
     1
 90
        0
176
     1
290
     0
176
     1
290
     1
176
     1
290
     1
176
     1
290
     0
176
     1
290
     0
176
     1
290
     0
176
     1
290
     0
176
     1
290
     0
176
     1
290
     0
176
     1
 90
       50
176
     1
 40
0.0
176
     1
 40
1.0
176
     1
 90
        0
176
     1
 62
    18
420
        0
176
     1
 90
       50
176
     1
 90
        3
176
     1
 62
     5
420
      255
176
     1
290
     0
176
     1
 90
       50
176
     1
 90
       50
176
     1
 90
       50
176
     1
290
     0
176
     1
 90
       50
176
     1
 62
   256
176
     0
 40
1.0
176
     0
 90
        2
176
     1
  1
strokes_ogs.tif
176
     1
290
     0
176
     1
 40
1.0
176
     1
 40
1.0
176
     1
1001
ACAD
1000
AcDbSavedByObjectVersion
1070
     0
  0
VISUALSTYLE
  5
39
102
{ACAD_REACTORS
330
29
102
}
330
29
100
AcDbVisualStyle
  2
ColorChange
 70
    16
177
     3
291
     1
 70
    58
 90
        2
176
     1
 90
        2
176
     1
 90
        3
176
     1
 90
        0
176
     1
 40
0.6
176
     1
 40
30.0
176
     1
 62
     8
420
  8421504
176
     1
 90
        1
176
     1
 90
        4
176
     1
 62
     7
176
     1
 62
   257
176
     1
 90
        1
176
     1
 90
        1
176
     1
 40
1.0
176
     1
 90
        8
176
     1
 62
     8
420
  8421504
176
     1
 40
1.0
176
     1
 90
        1
176
     1
 90
        6
176
     1
 90
        2
176
     1
 62
     7
176
     1
 90
        5
176
     1
 90
        0
176
     1
 90
        0
176
     1
290
     0
176
     1
 90
        1
176
     1
 40
0.0
176
     1
 90
        0
176
     1
290
     0
176
     1
290
     1
176
     1
290
     1
176
     1
290
     0
176
     1
290
     0
176
     1
290
     0
176
     1
290
     0
176
     1
290
     0
176
     1
290
     0
176
     1
 90
       50
176
     1
 40
0.0
176
     1
 40
1.0
176
     1
 90
        0
176
     1
 62
    18
420
        0
176
     1
 90
       50
176
     1
 90
        3
176
     1
 62
     5
420
      255
176
     1
290
     0
176
     1
 90
       50
176
     1
 90
       50
176
     1
 90
       50
176
     1
290
     0
176
     1
 90
       50
176
     1
 62
   256
176
     0
 40
1.0
176
     0
 90
        2
176
     1
  1
strokes_ogs.tif
176
     1
290
     0
176
     1
 40
1.0
176
     1
 40
1.0
176
     1
1001
ACAD
1000
AcDbSavedByObjectVersion
1070
     0
  0
VISUALSTYLE
  5
32
102
{ACAD_REACTORS
330
29
102
}
330
29
100
AcDbVisualStyle
  2
Conceptual
 70
     9
177
     3
291
     0
 70
    58
 90
        3
176
     1
 90
        2
176
     1
 90
        0
176
     1
 90
        0
176
     1
 40
0.6
176
     1
 40
30.0
176
     1
 62
     7
420
 16777215
176
     1
 90
        2
176
     1
 90
        2
176
     1
 62
     7
176
     1
 62
   257
176
     1
 90
        1
176
     1
 90
        1
176
     1
 40
179.0
176
     1
 90
        8
176
     1
 62
     7
176
     1
 40
1.0
176
     1
 90
        1
176
     1
 90
        6
176
     1
 90
        2
176
     1
 62
     7
176
     1
 90
        3
176
     1
 90
        0
176
     1
 90
        0
176
     1
290
     0
176
     1
 90
        1
176
     1
 40
0.0
176
     1
 90
        0
176
     1
290
     0
176
     1
290
     1
176
     1
290
     1
176
     1
290
     0
176
     1
290
     0
176
     1
290
     0
176
     1
290
     0
176
     1
290
     0
176
     1
290
     0
176
     1
 90
       50
176
     1
 40
0.0
176
     1
 40
1.0
176
     1
 90
        0
176
     1
 62
    18
420
        0
176
     1
 90
       50
176
     1
 90
        3
176
     1
 62
     5
420
      255
176
     1
290
     0
176
     1
 90
       50
176
     1
 90
       50
176
     1
 90
       50
176
     1
290
     0
176
     1
 90
       50
176
     1
 62
   256
176
     0
 40
1.0
176
     0
 90
        2
176
     1
  1
strokes_ogs.tif
176
     1
290
     0
176
     1
 40
1.0
176
     1
 40
1.0
176
     1
1001
ACAD
1000
AcDbSavedByObjectVersion
1070
     0
  0
VISUALSTYLE
  5
34
102
{ACAD_REACTORS
330
29
102
}
330
29
100
AcDbVisualStyle
  2
Dim
 70
    11
177
     3
291
     1
 70
    58
 90
        2
176
     1
 90
        2
176
     1
 90
        0
176
     1
 90
        0
176
     1
 40
0.6
176
     1
 40
30.0
176
     1
 62
     7
420
 16777215
176
     1
 90
        1
176
     1
 90
        4
176
     1
 62
     7
176
     1
 62
   257
176
     1
 90
        1
176
     1
 90
        1
176
     1
 40
1.0
176
     1
 90
        8
176
     1
 62
     7
176
     1
 40
1.0
176
     1
 90
        1
176
     1
 90
        6
176
     1
 90
        2
176
     1
 62
     7
176
     1
 90
        5
176
     1
 90
        0
176
     1
 90
        0
176
     1
290
     0
176
     1
 90
        1
176
     1
 40
-50.0
176
     1
 90
        0
176
     1
290
     0
176
     1
290
     1
176
     1
290
     1
176
     1
290
     0
176
     1
290
     0
176
     1
290
     0
176
     1
290
     0
176
     1
290
     0
176
     1
290
     0
176
     1
 90
       50
176
     1
 40
0.0
176
     1
 40
1.0
176
     1
 90
        0
176
     1
 62
    18
420
        0
176
     1
 90
       50
176
     1
 90
        3
176
     1
 62
     5
420
      255
176
     1
290
     0
176
     1
 90
       50
176
     1
 90
       50
176
     1
 90
       50
176
     1
290
     0
176
     1
 90
       50
176
     1
 62
   256
176
     0
 40
1.0
176
     0
 90
        2
176
     1
  1
strokes_ogs.tif
176
     1
290
     0
176
     1
 40
1.0
176
     1
 40
1.0
176
     1
1001
ACAD
1000
AcDbSavedByObjectVersion
1070
     0
  0
VISUALSTYLE
  5
41
102
{ACAD_REACTORS
330
29
102
}
330
29
100
AcDbVisualStyle
  2
EdgeColorOff
 70
    22
177
     3
291
     1
 70
    58
 90
        2
176
     0
 90
        2
176
     0
 90
        0
176
     0
 90
        0
176
     0
 40
0.6
176
     0
 40
30.0
176
     0
 62
     7
420
 16777215
176
     0
 90
        1
176
     0
 90
        4
176
     0
 62
     7
176
     0
 62
   257
176
     0
 90
        1
176
     0
 90
        1
176
     0
 40
1.0
176
     0
 90
        8
176
     2
 62
     7
176
     0
 40
1.0
176
     0
 90
        1
176
     0
 90
        6
176
     0
 90
        2
176
     0
 62
     7
176
     0
 90
        5
176
     0
 90
        0
176
     0
 90
        0
176
     0
290
     0
176
     0
 90
        1
176
     0
 40
0.0
176
     0
 90
        0
176
     0
290
     0
176
     1
290
     1
176
     1
290
     1
176
     1
290
     0
176
     1
290
     0
176
     1
290
     0
176
     1
290
     0
176
     1
290
     0
176
     1
290
     0
176
     1
 90
       50
176
     0
 40
0.0
176
     0
 40
1.0
176
     0
 90
        0
176
     0
 62
    18
420
        0
176
     0
 90
       50
176
     0
 90
        3
176
     0
 62
     5
420
      255
176
     0
290
     0
176
     1
 90
       50
176
     0
 90
       50
176
     0
 90
       50
176
     0
290
     0
176
     1
 90
       50
176
     0
 62
   256
176
     0
 40
1.0
176
     0
 90
        2
176
     0
  1
strokes_ogs.tif
176
     0
290
     0
176
     1
 40
1.0
176
     0
 40
1.0
176
     0
1001
ACAD
1000
AcDbSavedByObjectVersion
1070
     0
  0
VISUALSTYLE
  5
38
102
{ACAD_REACTORS
330
29
102
}
330
29
100
AcDbVisualStyle
  2
Facepattern
 70
    15
177
     3
291
     1
 70
    58
 90
        2
176
     1
 90
        2
176
     1
 90
        0
176
     1
 90
        0
176
     1
 40
0.6
176
     1
 40
30.0
176
     1
 62
     7
420
 16777215
176
     1
 90
        1
176
     1
 90
        4
176
     1
 62
     7
176
     1
 62
   257
176
     1
 90
        1
176
     1
 90
        1
176
     1
 40
1.0
176
     1
 90
        8
176
     1
 62
     7
176
     1
 40
1.0
176
     1
 90
        1
176
     1
 90
        6
176
     1
 90
        2
176
     1
 62
     7
176
     1
 90
        5
176
     1
 90
        0
176
     1
 90
        0
176
     1
290
     0
176
     1
 90
        1
176
     1
 40
0.0
176
     1
 90
        0
176
     1
290
     0
176
     1
290
     1
176
     1
290
     1
176
     1
290
     0
176
     1
290
     0
176
     1
290
     0
176
     1
290
     0
176
     1
290
     0
176
     1
290
     0
176
     1
 90
       50
176
     1
 40
0.0
176
     1
 40
1.0
176
     1
 90
        0
176
     1
 62
    18
420
        0
176
     1
 90
       50
176
     1
 90
        3
176
     1
 62
     5
420
      255
176
     1
290
     0
176
     1
 90
       50
176
     1
 90
       50
176
     1
 90
       50
176
     1
290
     0
176
     1
 90
       50
176
     1
 62
   256
176
     0
 40
1.0
176
     0
 90
        2
176
     1
  1
strokes_ogs.tif
176
     1
290
     0
176
     1
 40
1.0
176
     1
 40
1.0
176
     1
1001
ACAD
1000
AcDbSavedByObjectVersion
1070
     0
  0
VISUALSTYLE
  5
2A
102
{ACAD_REACTORS
330
29
102
}
330
29
100
AcDbVisualStyle
  2
Flat
 70
     0
177
     3
291
     1
 70
    58
 90
        2
176
     1
 90
        1
176
     1
 90
        1
176
     1
 90
        2
176
     1
 40
0.6
176
     1
 40
30.0
176
     1
 62
     7
420
 16777215
176
     1
 90
        0
176
     1
 90
        0
176
     1
 62
     7
176
     1
 62
   257
176
     1
 90
        1
176
     1
 90
        1
176
     1
 40
1.0
176
     1
 90
        8
176
     1
 62
     7
176
     1
 40
1.0
176
     1
 90
        1
176
     1
 90
        6
176
     1
 90
        2
176
     1
 62
     7
176
     1
 90
        5
176
     1
 90
        0
176
     1
 90
        0
176
     1
290
     0
176
     1
 90
       13
176
     1
 40
0.0
176
     1
 90
        0
176
     1
290
     0
176
     1
290
     1
176
     1
290
     1
176
     1
290
     0
176
     1
290
     0
176
     1
290
     0
176
     1
290
     0
176
     1
290
     0
176
     1
290
     0
176
     1
 90
       50
176
     1
 40
0.0
176
     1
 40
1.0
176
     1
 90
        0
176
     1
 62
    18
420
        0
176
     1
 90
       50
176
     1
 90
        3
176
     1
 62
     5
420
      255
176
     1
290
     0
176
     1
 90
       50
176
     1
 90
       50
176
     1
 90
       50
176
     1
290
     0
176
     1
 90
       50
176
     1
 62
   256
176
     0
 40
1.0
176
     0
 90
        2
176
     1
  1
strokes_ogs.tif
176
     1
290
     0
176
     1
 40
1.0
176
     1
 40
1.0
176
     1
1001
ACAD
1000
AcDbSavedByObjectVersion
1070
     0
  0
VISUALSTYLE
  5
2B
102
{ACAD_REACTORS
330
29
102
}
330
29
100
AcDbVisualStyle
  2
FlatWithEdges
 70
     1
177
     3
291
     1
 70
    58
 90
        2
176
     1
 90
        1
176
     1
 90
        1
176
     1
 90
        2
176
     1
 40
0.6
176
     1
 40
30.0
176
     1
 62
     7
420
 16777215
176
     1
 90
        1
176
     1
 90
        0
176
     1
 62
     7
176
     1
 62
   257
176
     1
 90
        1
176
     1
 90
        1
176
     1
 40
1.0
176
     1
 90
        0
176
     1
 62
   257
176
     1
 40
1.0
176
     1
 90
        1
176
     1
 90
        6
176
     1
 90
        2
176
     1
 62
     7
176
     1
 90
        5
176
     1
 90
        0
176
     1
 90
        0
176
     1
290
     0
176
     1
 90
       13
176
     1
 40
0.0
176
     1
 90
        0
176
     1
290
     0
176
     1
290
     1
176
     1
290
     1
176
     1
290
     0
176
     1
290
     0
176
     1
290
     0
176
     1
290
     0
176
     1
290
     0
176
     1
290
     0
176
     1
 90
       50
176
     1
 40
0.0
176
     1
 40
1.0
176
     1
 90
        0
176
     1
 62
    18
420
        0
176
     1
 90
       50
176
     1
 90
        3
176
     1
 62
     5
420
      255
176
     1
290
     0
176
     1
 90
       50
176
     1
 90
       50
176
     1
 90
       50
176
     1
290
     0
176
     1
 90
       50
176
     1
 62
   256
176
     0
 40
1.0
176
     0
 90
        2
176
     1
  1
strokes_ogs.tif
176
     1
290
     0
176
     1
 40
1.0
176
     1
 40
1.0
176
     1
1001
ACAD
1000
AcDbSavedByObjectVersion
1070
     0
  0
VISUALSTYLE
  5
2C
102
{ACAD_REACTORS
330
29
102
}
330
29
100
AcDbVisualStyle
  2
Gouraud
 70
     2
177
     3
291
     1
 70
    58
 90
        2
176
     1
 90
        2
176
     1
 90
        1
176
     1
 90
        2
176
     1
 40
0.6
176
     1
 40
30.0
176
     1
 62
     7
420
 16777215
176
     1
 90
        0
176
     1
 90
        0
176
     1
 62
     7
176
     1
 62
   257
176
     1
 90
        1
176
     1
 90
        1
176
     1
 40
1.0
176
     1
 90
        0
176
     1
 62
     7
176
     1
 40
1.0
176
     1
 90
        1
176
     1
 90
        6
176
     1
 90
        2
176
     1
 62
     7
176
     1
 90
        5
176
     1
 90
        0
176
     1
 90
        0
176
     1
290
     0
176
     1
 90
       13
176
     1
 40
0.0
176
     1
 90
        0
176
     1
290
     0
176
     1
290
     1
176
     1
290
     1
176
     1
290
     0
176
     1
290
     0
176
     1
290
     0
176
     1
290
     0
176
     1
290
     0
176
     1
290
     0
176
     1
 90
       50
176
     1
 40
0.0
176
     1
 40
1.0
176
     1
 90
        0
176
     1
 62
    18
420
        0
176
     1
 90
       50
176
     1
 90
        3
176
     1
 62
     5
420
      255
176
     1
290
     0
176
     1
 90
       50
176
     1
 90
       50
176
     1
 90
       50
176
     1
290
     0
176
     1
 90
       50
176
     1
 62
   256
176
     0
 40
1.0
176
     0
 90
        2
176
     1
  1
strokes_ogs.tif
176
     1
290
     0
176
     1
 40
1.0
176
     1
 40
1.0
176
     1
1001
ACAD
1000
AcDbSavedByObjectVersion
1070
     0
  0
VISUALSTYLE
  5
2D
102
{ACAD_REACTORS
330
29
102
}
330
29
100
AcDbVisualStyle
  2
GouraudWithEdges
 70
     3
177
     3
291
     1
 70
    58
 90
        2
176
     1
 90
        2
176
     1
 90
        1
176
     1
 90
        2
176
     1
 40
0.6
176
     1
 40
30.0
176
     1
 62
     7
420
 16777215
176
     1
 90
        1
176
     1
 90
        0
176
     1
 62
     7
176
     1
 62
   257
176
     1
 90
        1
176
     1
 90
        1
176
     1
 40
1.0
176
     1
 90
        0
176
     1
 62
   257
176
     1
 40
1.0
176
     1
 90
        1
176
     1
 90
        6
176
     1
 90
        2
176
     1
 62
     7
176
     1
 90
        5
176
     1
 90
        0
176
     1
 90
        0
176
     1
290
     0
176
     1
 90
       13
176
     1
 40
0.0
176
     1
 90
        0
176
     1
290
     0
176
     1
290
     1
176
     1
290
     1
176
     1
290
     0
176
     1
290
     0
176
     1
290
     0
176
     1
290
     0
176
     1
290
     0
176
     1
290
     0
176
     1
 90
       50
176
     1
 40
0.0
176
     1
 40
1.0
176
     1
 90
        0
176
     1
 62
    18
420
        0
176
     1
 90
       50
176
     1
 90
        3
176
     1
 62
     5
420
      255
176
     1
290
     0
176
     1
 90
       50
176
     1
 90
       50
176
     1
 90
       50
176
     1
290
     0
176
     1
 90
       50
176
     1
 62
   256
176
     0
 40
1.0
176
     0
 90
        2
176
     1
  1
strokes_ogs.tif
176
     1
290
     0
176
     1
 40
1.0
176
     1
 40
1.0
176
     1
1001
ACAD
1000
AcDbSavedByObjectVersion
1070
     0
  0
VISUALSTYLE
  5
31
102
{ACAD_REACTORS
330
29
102
}
330
29
100
AcDbVisualStyle
  2
Hidden
 70
     6
177
     3
291
     0
 70
    58
 90
        1
176
     1
 90
        2
176
     1
 90
        2
176
     1
 90
        0
176
     1
 40
0.6
176
     1
 40
30.0
176
     1
 62
     7
420
 16777215
176
     1
 90
        2
176
     1
 90
        2
176
     1
 62
     7
176
     1
 62
   257
176
     1
 90
        2
176
     1
 90
        1
176
     1
 40
40.0
176
     1
 90
        0
176
     1
 62
   257
176
     1
 40
1.0
176
     1
 90
        1
176
     1
 90
        6
176
     1
 90
        2
176
     1
 62
     7
176
     1
 90
        3
176
     1
 90
        0
176
     1
 90
        0
176
     1
290
     0
176
     1
 90
        1
176
     1
 40
0.0
176
     1
 90
        0
176
     1
290
     0
176
     1
290
     1
176
     1
290
     1
176
     1
290
     0
176
     1
290
     0
176
     1
290
     0
176
     1
290
     0
176
     1
290
     0
176
     1
290
     0
176
     1
 90
       50
176
     1
 40
0.0
176
     1
 40
1.0
176
     1
 90
        0
176
     1
 62
    18
420
        0
176
     1
 90
       50
176
     1
 90
        3
176
     1
 62
     5
420
      255
176
     1
290
     0
176
     1
 90
       50
176
     1
 90
       50
176
     1
 90
       50
176
     1
290
     0
176
     1
 90
       50
176
     1
 62
   256
176
     0
 40
1.0
176
     0
 90
        2
176
     1
  1
strokes_ogs.tif
176
     1
290
     0
176
     1
 40
1.0
176
     1
 40
1.0
176
     1
1001
ACAD
1000
AcDbSavedByObjectVersion
1070
     0
  0
VISUALSTYLE
  5
3F
102
{ACAD_REACTORS
330
29
102
}
330
29
100
AcDbVisualStyle
  2
JitterOff
 70
    20
177
     3
291
     1
 70
    58
 90
        2
176
     0
 90
        2
176
     0
 90
        0
176
     0
 90
        0
176
     0
 40
0.6
176
     0
 40
30.0
176
     0
 62
     7
420
 16777215
176
     0
 90
        1
176
     0
 90
        4
176
     0
 62
     7
176
     0
 62
   257
176
     0
 90
        1
176
     0
 90
        1
176
     0
 40
1.0
176
     0
 90
       10
176
     2
 62
     7
176
     0
 40
1.0
176
     0
 90
        1
176
     0
 90
        6
176
     0
 90
        2
176
     0
 62
     7
176
     0
 90
        5
176
     0
 90
        0
176
     0
 90
        0
176
     0
290
     0
176
     0
 90
        1
176
     0
 40
0.0
176
     0
 90
        0
176
     0
290
     0
176
     1
290
     1
176
     1
290
     1
176
     1
290
     0
176
     1
290
     0
176
     1
290
     0
176
     1
290
     0
176
     1
290
     0
176
     1
290
     0
176
     1
 90
       50
176
     0
 40
0.0
176
     0
 40
1.0
176
     0
 90
        0
176
     0
 62
    18
420
        0
176
     0
 90
       50
176
     0
 90
        3
176
     0
 62
     5
420
      255
176
     0
290
     0
176
     1
 90
       50
176
     0
 90
       50
176
     0
 90
       50
176
     0
290
     0
176
     1
 90
       50
176
     0
 62
   256
176
     0
 40
1.0
176
     0
 90
        2
176
     0
  1
strokes_ogs.tif
176
     0
290
     0
176
     1
 40
1.0
176
     0
 40
1.0
176
     0
1001
ACAD
1000
AcDbSavedByObjectVersion
1070
     0
  0
VISUALSTYLE
  5
37
102
{ACAD_REACTORS
330
29
102
}
330
29
100
AcDbVisualStyle
  2
Linepattern
 70
    14
177
     3
291
     1
 70
    58
 90
        2
176
     1
 90
        2
176
     1
 90
        0
176
     1
 90
        0
176
     1
 40
0.6
176
     1
 40
30.0
176
     1
 62
     7
420
 16777215
176
     1
 90
        1
176
     1
 90
        4
176
     1
 62
     7
176
     1
 62
   257
176
     1
 90
        7
176
     1
 90
        7
176
     1
 40
1.0
176
     1
 90
        8
176
     1
 62
     7
176
     1
 40
1.0
176
     1
 90
        1
176
     1
 90
        6
176
     1
 90
        2
176
     1
 62
     7
176
     1
 90
        5
176
     1
 90
        0
176
     1
 90
        0
176
     1
290
     0
176
     1
 90
        1
176
     1
 40
0.0
176
     1
 90
        0
176
     1
290
     0
176
     1
290
     1
176
     1
290
     1
176
     1
290
     0
176
     1
290
     0
176
     1
290
     0
176
     1
290
     0
176
     1
290
     0
176
     1
290
     0
176
     1
 90
       50
176
     1
 40
0.0
176
     1
 40
1.0
176
     1
 90
        0
176
     1
 62
    18
420
        0
176
     1
 90
       50
176
     1
 90
        3
176
     1
 62
     5
420
      255
176
     1
290
     0
176
     1
 90
       50
176
     1
 90
       50
176
     1
 90
       50
176
     1
290
     0
176
     1
 90
       50
176
     1
 62
   256
176
     0
 40
1.0
176
     0
 90
        2
176
     1
  1
strokes_ogs.tif
176
     1
290
     0
176
     1
 40
1.0
176
     1
 40
1.0
176
     1
1001
ACAD
1000
AcDbSavedByObjectVersion
1070
     0
  0
VISUALSTYLE
  5
40
102
{ACAD_REACTORS
330
29
102
}
330
29
100
AcDbVisualStyle
  2
OverhangOff
 70
    21
177
     3
291
     1
 70
    58
 90
        2
176
     0
 90
        2
176
     0
 90
        0
176
     0
 90
        0
176
     0
 40
0.6
176
     0
 40
30.0
176
     0
 62
     7
420
 16777215
176
     0
 90
        1
176
     0
 90
        4
176
     0
 62
     7
176
     0
 62
   257
176
     0
 90
        1
176
     0
 90
        1
176
     0
 40
1.0
176
     0
 90
        9
176
     2
 62
     7
176
     0
 40
1.0
176
     0
 90
        1
176
     0
 90
        6
176
     0
 90
        2
176
     0
 62
     7
176
     0
 90
        5
176
     0
 90
        0
176
     0
 90
        0
176
     0
290
     0
176
     0
 90
        1
176
     0
 40
0.0
176
     0
 90
        0
176
     0
290
     0
176
     1
290
     1
176
     1
290
     1
176
     1
290
     0
176
     1
290
     0
176
     1
290
     0
176
     1
290
     0
176
     1
290
     0
176
     1
290
     0
176
     1
 90
       50
176
     0
 40
0.0
176
     0
 40
1.0
176
     0
 90
        0
176
     0
 62
    18
420
        0
176
     0
 90
       50
176
     0
 90
        3
176
     0
 62
     5
420
      255
176
     0
290
     0
176
     1
 90
       50
176
     0
 90
       50
176
     0
 90
       50
176
     0
290
     0
176
     1
 90
       50
176
     0
 62
   256
176
     0
 40
1.0
176
     0
 90
        2
176
     0
  1
strokes_ogs.tif
176
     0
290
     0
176
     1
 40
1.0
176
     0
 40
1.0
176
     0
1001
ACAD
1000
AcDbSavedByObjectVersion
1070
     0
  0
VISUALSTYLE
  5
33
102
{ACAD_REACTORS
330
29
102
}
330
29
100
AcDbVisualStyle
  2
Realistic
 70
     8
177
     3
291
     0
 70
    58
 90
        2
176
     1
 90
        3
176
     1
 90
        0
176
     1
 90
        2
176
     1
 40
0.6
176
     1
 40
30.0
176
     1
 62
     7
420
 16777215
176
     1
 90
        0
176
     1
 90
        0
176
     1
 62
     7
176
     1
 62
   257
176
     1
 90
        1
176
     1
 90
        1
176
     1
 40
1.0
176
     1
 90
        8
176
     1
 62
   257
176
     1
 40
1.0
176
     1
 90
        1
176
     1
 90
        6
176
     1
 90
        2
176
     1
 62
     7
176
     1
 90
        3
176
     1
 90
        0
176
     1
 90
        0
176
     1
290
     0
176
     1
 90
       13
176
     1
 40
0.0
176
     1
 90
        0
176
     1
290
     0
176
     1
290
     1
176
     1
290
     1
176
     1
290
     0
176
     1
290
     0
176
     1
290
     0
176
     1
290
     0
176
     1
290
     0
176
     1
290
     0
176
     1
 90
       50
176
     1
 40
0.0
176
     1
 40
1.0
176
     1
 90
        0
176
     1
 62
    18
420
        0
176
     1
 90
       50
176
     1
 90
        3
176
     1
 62
     5
420
      255
176
     1
290
     0
176
     1
 90
       50
176
     1
 90
       50
176
     1
 90
       50
176
     1
290
     0
176
     1
 90
       50
176
     1
 62
   256
176
     0
 40
1.0
176
     0
 90
        2
176
     1
  1
strokes_ogs.tif
176
     1
290
     0
176
     1
 40
1.0
176
     1
 40
1.0
176
     1
1001
ACAD
1000
AcDbSavedByObjectVersion
1070
     0
  0
VISUALSTYLE
  5
3E
102
{ACAD_REACTORS
330
29
102
}
330
29
100
AcDbVisualStyle
  2
Shaded
 70
    27
177
     3
291
     0
 70
    58
 90
        2
176
     1
 90
        2
176
     1
 90
        1
176
     1
 90
        2
176
     1
 40
0.6
176
     1
 40
30.0
176
     1
 62
     7
420
 16777215
176
     1
 90
        0
176
     1
 90
        4
176
     1
 62
     7
176
     1
 62
   257
176
     1
 90
        1
176
     1
 90
        1
176
     1
 40
1.0
176
     1
 90
        8
176
     1
 62
   257
176
     1
 40
1.0
176
     1
 90
        1
176
     1
 90
        6
176
     1
 90
        2
176
     1
 62
     8
420
  7895160
176
     1
 90
        3
176
     1
 90
        0
176
     1
 90
        0
176
     1
290
     0
176
     1
 90
        5
176
     1
 40
0.0
176
     1
 90
        0
176
     1
290
     0
176
     1
290
     1
176
     1
290
     1
176
     1
290
     0
176
     1
290
     0
176
     1
290
     0
176
     1
290
     0
176
     1
290
     0
176
     1
290
     0
176
     1
 90
       50
176
     1
 40
0.0
176
     1
 40
1.0
176
     1
 90
        0
176
     1
 62
    18
420
        0
176
     1
 90
       50
176
     1
 90
        3
176
     1
 62
     5
420
      255
176
     1
290
     0
176
     1
 90
       50
176
     1
 90
       50
176
     1
 90
       50
176
     1
290
     0
176
     1
 90
       50
176
     1
 62
   256
176
     0
 40
1.0
176
     0
 90
        2
176
     1
  1
strokes_ogs.tif
176
     1
290
     0
176
     1
 40
1.0
176
     1
 40
1.0
176
     1
1001
ACAD
1000
AcDbSavedByObjectVersion
1070
     0
  0
VISUALSTYLE
  5
3D
102
{ACAD_REACTORS
330
29
102
}
330
29
100
AcDbVisualStyle
  2
Shaded with edges
 70
    26
177
     3
291
     0
 70
    58
 90
        2
176
     1
 90
        2
176
     1
 90
        1
176
     1
 90
        2
176
     1
 40
0.6
176
     1
 40
30.0
176
     1
 62
     7
420
 16777215
176
     1
 90
        1
176
     1
 90
        2
176
     1
 62
     7
176
     1
 62
   257
176
     1
 90
        2
176
     1
 90
        1
176
     1
 40
1.0
176
     1
 90
        8
176
     1
 62
   257
176
     1
 40
1.0
176
     1
 90
        1
176
     1
 90
        6
176
     1
 90
        2
176
     1
 62
     7
176
     1
 90
        3
176
     1
 90
        0
176
     1
 90
        0
176
     1
290
     0
176
     1
 90
        5
176
     1
 40
0.0
176
     1
 90
        0
176
     1
290
     0
176
     1
290
     1
176
     1
290
     1
176
     1
290
     0
176
     1
290
     0
176
     1
290
     0
176
     1
290
     0
176
     1
290
     0
176
     1
290
     0
176
     1
 90
       50
176
     1
 40
0.0
176
     1
 40
1.0
176
     1
 90
        0
176
     1
 62
    18
420
        0
176
     1
 90
       50
176
     1
 90
        3
176
     1
 62
     5
420
      255
176
     1
290
     0
176
     1
 90
       50
176
     1
 90
       50
176
     1
 90
       50
176
     1
290
     0
176
     1
 90
       50
176
     1
 62
   256
176
     0
 40
1.0
176
     0
 90
        2
176
     1
  1
strokes_ogs.tif
176
     1
290
     0
176
     1
 40
1.0
176
     1
 40
1.0
176
     1
1001
ACAD
1000
AcDbSavedByObjectVersion
1070
     0
  0
VISUALSTYLE
  5
3A
102
{ACAD_REACTORS
330
29
102
}
330
29
100
AcDbVisualStyle
  2
Shades of Gray
 70
    23
177
     3
291
     0
 70
    58
 90
        2
176
     1
 90
        2
176
     1
 90
        3
176
     1
 90
        0
176
     1
 40
0.6
176
     1
 40
30.0
176
     1
 62
     7
420
 16777215
176
     1
 90
        2
176
     1
 90
        2
176
     1
 62
     7
176
     1
 62
     7
176
     1
 90
        1
176
     1
 90
        1
176
     1
 40
40.0
176
     1
 90
        8
176
     1
 62
     7
176
     1
 40
1.0
176
     1
 90
        1
176
     1
 90
        6
176
     1
 90
        2
176
     1
 62
     7
176
     1
 90
        3
176
     1
 90
        0
176
     1
 90
        0
176
     1
290
     0
176
     1
 90
        1
176
     1
 40
0.0
176
     1
 90
        0
176
     1
290
     0
176
     1
290
     1
176
     1
290
     1
176
     1
290
     0
176
     1
290
     0
176
     1
290
     0
176
     1
290
     0
176
     1
290
     0
176
     1
290
     0
176
     1
 90
       50
176
     1
 40
0.0
176
     1
 40
1.0
176
     1
 90
        0
176
     1
 62
    18
420
        0
176
     1
 90
       50
176
     1
 90
        3
176
     1
 62
     5
420
      255
176
     1
290
     0
176
     1
 90
       50
176
     1
 90
       50
176
     1
 90
       50
176
     1
290
     0
176
     1
 90
       50
176
     1
 62
   256
176
     0
 40
1.0
176
     0
 90
        2
176
     1
  1
strokes_ogs.tif
176
     1
290
     0
176
     1
 40
1.0
176
     1
 40
1.0
176
     1
1001
ACAD
1000
AcDbSavedByObjectVersion
1070
     0
  0
VISUALSTYLE
  5
3B
102
{ACAD_REACTORS
330
29
102
}
330
29
100
AcDbVisualStyle
  2
Sketchy
 70
    24
177
     3
291
     0
 70
    58
 90
        1
176
     1
 90
        2
176
     1
 90
        2
176
     1
 90
        0
176
     1
 40
0.6
176
     1
 40
30.0
176
     1
 62
     7
420
 16777215
176
     1
 90
        2
176
     1
 90
        2
176
     1
 62
     7
176
     1
 62
     7
176
     1
 90
        1
176
     1
 90
        1
176
     1
 40
40.0
176
     1
 90
       11
176
     1
 62
     7
176
     1
 40
1.0
176
     1
 90
        1
176
     1
 90
        6
176
     1
 90
        2
176
     1
 62
     7
176
     1
 90
        6
176
     1
 90
        0
176
     1
 90
        0
176
     1
290
     0
176
     1
 90
        1
176
     1
 40
0.0
176
     1
 90
        0
176
     1
290
     0
176
     1
290
     1
176
     1
290
     1
176
     1
290
     0
176
     1
290
     0
176
     1
290
     0
176
     1
290
     0
176
     1
290
     0
176
     1
290
     0
176
     1
 90
       50
176
     1
 40
0.0
176
     1
 40
1.0
176
     1
 90
        0
176
     1
 62
    18
420
        0
176
     1
 90
       50
176
     1
 90
        3
176
     1
 62
     5
420
      255
176
     1
290
     0
176
     1
 90
       50
176
     1
 90
       50
176
     1
 90
       50
176
     1
290
     0
176
     1
 90
       50
176
     1
 62
   256
176
     0
 40
1.0
176
     0
 90
        2
176
     1
  1
strokes_ogs.tif
176
     1
290
     0
176
     1
 40
1.0
176
     1
 40
1.0
176
     1
1001
ACAD
1000
AcDbSavedByObjectVersion
1070
     0
  0
VISUALSTYLE
  5
36
102
{ACAD_REACTORS
330
29
102
}
330
29
100
AcDbVisualStyle
  2
Thicken
 70
    13
177
     3
291
     1
 70
    58
 90
        2
176
     1
 90
        2
176
     1
 90
        0
176
     1
 90
        0
176
     1
 40
0.6
176
     1
 40
30.0
176
     1
 62
     7
420
 16777215
176
     1
 90
        1
176
     1
 90
        4
176
     1
 62
     7
176
     1
 62
   257
176
     1
 90
        1
176
     1
 90
        1
176
     1
 40
1.0
176
     1
 90
       12
176
     1
 62
     7
176
     1
 40
1.0
176
     1
 90
        1
176
     1
 90
        6
176
     1
 90
        2
176
     1
 62
     7
176
     1
 90
        5
176
     1
 90
        0
176
     1
 90
        0
176
     1
290
     0
176
     1
 90
        1
176
     1
 40
0.0
176
     1
 90
        0
176
     1
290
     0
176
     1
290
     1
176
     1
290
     1
176
     1
290
     0
176
     1
290
     0
176
     1
290
     0
176
     1
290
     0
176
     1
290
     0
176
     1
290
     0
176
     1
 90
       50
176
     1
 40
0.0
176
     1
 40
1.0
176
     1
 90
        0
176
     1
 62
    18
420
        0
176
     1
 90
       50
176
     1
 90
        3
176
     1
 62
     5
420
      255
176
     1
290
     0
176
     1
 90
       50
176
     1
 90
       50
176
     1
 90
       50
176
     1
290
     0
176
     1
 90
       50
176
     1
 62
   256
176
     0
 40
1.0
176
     0
 90
        2
176
     1
  1
strokes_ogs.tif
176
     1
290
     0
176
     1
 40
1.0
176
     1
 40
1.0
176
     1
1001
ACAD
1000
AcDbSavedByObjectVersion
1070
     0
  0
VISUALSTYLE
  5
30
102
{ACAD_REACTORS
330
29
102
}
330
29
100
AcDbVisualStyle
  2
Wireframe
 70
     5
177
     3
291
     0
 70
    58
 90
        0
176
     1
 90
        2
176
     1
 90
        0
176
     1
 90
        0
176
     1
 40
0.6
176
     1
 40
30.0
176
     1
 62
     7
420
 16777215
176
     1
 90
        1
176
     1
 90
        4
176
     1
 62
     7
176
     1
 62
   257
176
     1
 90
        1
176
     1
 90
        1
176
     1
 40
1.0
176
     1
 90
        0
176
     1
 62
   257
176
     1
 40
1.0
176
     1
 90
        1
176
     1
 90
        6
176
     1
 90
        2
176
     1
 62
     7
176
     1
 90
        3
176
     1
 90
        0
176
     1
 90
        0
176
     1
290
     0
176
     1
 90
        1
176
     1
 40
0.0
176
     1
 90
        0
176
     1
290
     0
176
     1
290
     1
176
     1
290
     1
176
     1
290
     0
176
     1
290
     0
176
     1
290
     0
176
     1
290
     0
176
     1
290
     0
176
     1
290
     0
176
     1
 90
       50
176
     1
 40
0.0
176
     1
 40
1.0
176
     1
 90
        0
176
     1
 62
    18
420
        0
176
     1
 90
       50
176
     1
 90
        3
176
     1
 62
     5
420
      255
176
     1
290
     0
176
     1
 90
       50
176
     1
 90
       50
176
     1
 90
       50
176
     1
290
     0
176
     1
 90
       50
176
     1
 62
   256
176
     0
 40
1.0
176
     0
 90
        2
176
     1
  1
strokes_ogs.tif
176
     1
290
     0
176
     1
 40
1.0
176
     1
 40
1.0
176
     1
1001
ACAD
1000
AcDbSavedByObjectVersion
1070
     0
  0
VISUALSTYLE
  5
3C
102
{ACAD_REACTORS
330
29
102
}
330
29
100
AcDbVisualStyle
  2
X-Ray
 70
    25
177
     3
291
     0
 70
    58
 90
        2
176
     1
 90
        2
176
     1
 90
        1
176
     1
 90
        1
176
     1
 40
0.5
176
     1
 40
30.0
176
     1
 62
     7
420
 16777215
176
     1
 90
        1
176
     1
 90
        0
176
     1
 62
     7
176
     1
 62
   257
176
     1
 90
        1
176
     1
 90
        1
176
     1
 40
1.0
176
     1
 90
        8
176
     1
 62
     7
176
     1
 40
1.0
176
     1
 90
        1
176
     1
 90
        6
176
     1
 90
        2
176
     1
 62
     7
176
     1
 90
        3
176
     1
 90
        0
176
     1
 90
        0
176
     1
290
     0
176
     1
 90
       13
176
     1
 40
0.0
176
     1
 90
        0
176
     1
290
     0
176
     1
290
     1
176
     1
290
     1
176
     1
290
     0
176
     1
290
     0
176
     1
290
     0
176
     1
290
     0
176
     1
290
     0
176
     1
290
     0
176
     1
 90
       50
176
     1
 40
0.0
176
     1
 40
1.0
176
     1
 90
        0
176
     1
 62
    18
420
        0
176
     1
 90
       50
176
     1
 90
        3
176
     1
 62
     5
420
      255
176
     1
290
     0
176
     1
 90
       50
176
     1
 90
       50
176
     1
 90
       50
176
     1
290
     0
176
     1
 90
       50
176
     1
 62
   256
176
     0
 40
1.0
176
     0
 90
        2
176
     1
  1
strokes_ogs.tif
176
     1
290
     0
176
     1
 40
1.0
176
     1
 40
1.0
176
     1
1001
ACAD
1000
AcDbSavedByObjectVersion
1070
     0
  0
DICTIONARYVAR
  5
180D
102
{ACAD_REACTORS
330
1807
102
}
330
1807
100
DictionaryVariables
280
     0
  1
1:1
  0
DICTIONARYVAR
  5
1809
102
{ACAD_REACTORS
330
1807
102
}
330
1807
100
DictionaryVariables
280
     0
  1
STANDARD
  0
DICTIONARYVAR
  5
1808
102
{ACAD_REACTORS
330
1807
102
}
330
1807
100
DictionaryVariables
280
     0
  1
STANDARD
  0
DICTIONARYVAR
  5
180A
102
{ACAD_REACTORS
330
1807
102
}
330
1807
100
DictionaryVariables
280
     0
  1
Imperial24
  0
DICTIONARYVAR
  5
180B
102
{ACAD_REACTORS
330
1807
102
}
330
1807
100
DictionaryVariables
280
     0
  1
Imperial24
  0
DICTIONARYVAR
  5
180F
102
{ACAD_REACTORS
330
1807
102
}
330
1807
100
DictionaryVariables
280
     0
  1
1
  0
DICTIONARYVAR
  5
1810
102
{ACAD_REACTORS
330
1807
102
}
330
1807
100
DictionaryVariables
280
     0
  1
15
  0
DICTIONARYVAR
  5
180E
102
{ACAD_REACTORS
330
1807
102
}
330
1807
100
DictionaryVariables
280
     0
  1
0
  0
DICTIONARYVAR
  5
180C
102
{ACAD_REACTORS
330
1807
102
}
330
1807
100
DictionaryVariables
280
     0
  1
0
  0
DICTIONARY
  5
18BD
102
{ACAD_REACTORS
330
18BB
102
}
330
18BB
100
AcDbDictionary
281
     1
  0
DICTIONARY
  5
18BC
102
{ACAD_REACTORS
330
18BB
102
}
330
18BB
100
AcDbDictionary
281
     1
  3
2315815754208
350
18B6
  3
2315815754224
350
18B7
  3
2315815754240
350
18B8
  3
2315815754256
350
18B9
  3
2315815754272
350
18BA
  0
DICTIONARY
  5
18C0
330
6A
100
AcDbDictionary
280
     1
281
     1
  3
ACAD_XREC_ROUNDTRIP
360
18C1
  0
DICTIONARY
  5
1A
330
19
100
AcDbDictionary
280
     1
281
     1
  3
BUMPTILE
360
1C
  3
DIFFUSETILE
360
1B
  3
OPACITYTILE
360
1F
  3
REFLECTIONTILE
360
1E
  3
REFRACTIONTILE
360
20
  3
SPECULARTILE
360
1D
  0
DICTIONARY
  5
12
330
11
100
AcDbDictionary
280
     1
281
     1
  3
BUMPTILE
360
14
  3
DIFFUSETILE
360
13
  3
OPACITYTILE
360
17
  3
REFLECTIONTILE
360
16
  3
REFRACTIONTILE
360
18
  3
SPECULARTILE
360
15
  0
DICTIONARY
  5
22
330
21
100
AcDbDictionary
280
     1
281
     1
  3
BUMPTILE
360
24
  3
DIFFUSETILE
360
23
  3
OPACITYTILE
360
27
  3
REFLECTIONTILE
360
26
  3
REFRACTIONTILE
360
28
  3
SPECULARTILE
360
25
  0
XRECORD
  5
18C5
102
{ACAD_REACTORS
330
18C3
102
}
330
18C3
100
AcDbXrecord
280
     1
102
ACAD_MENTALRAY_SETTING_RT
330
17FF
 70
     1
  0
XRECORD
  5
18C4
102
{ACAD_REACTORS
330
18C3
102
}
330
18C3
100
AcDbXrecord
280
     1
 70
     2
 71
     3
 72
     0
  0
DICTIONARY
  5
18BE
330
68
100
AcDbDictionary
280
     1
281
     1
  3
ACAD_XREC_ROUNDTRIP
360
18BF
  0
DICTIONARY
  5
18B3
330
64
100
AcDbDictionary
280
     1
281
     1
  3
ACAD_ROUNDTRIP_2008_TABLESTYLE_CELLSTYLEMAP
360
18B4
  0
XRECORD
  5
18B6
102
{ACAD_REACTORS
330
18BC
102
}
330
18BC
100
AcDbXrecord
280
     1
  1
AcDb_Thumbnail_Schema
102
{ATTRRECORD
341
18B7
  2
AcDbDs::TreatedAsObjectData
280
     1
291
     1
102
ATTRRECORD}
102
{ATTRRECORD
341
18B8
  2
AcDbDs::Legacy
280
     1
291
     1
102
ATTRRECORD}
  2
AcDbDs::ID
280
    10
 91
        8
102
{ATTRRECORD
341
18B9
  2
AcDs:Indexable
280
     1
291
     1
102
ATTRRECORD}
102
{ATTRRECORD
341
18BA
  2
AcDbDs::HandleAttribute
280
     7
282
     1
102
ATTRRECORD}
  2
Thumbnail_Data
280
    15
 91
        0
  0
XRECORD
  5
18B7
102
{ACAD_REACTORS
330
18BC
102
}
330
18BC
100
AcDbXrecord
280
     1
  1
AcDbDs::TreatedAsObjectDataSchema
  2
AcDbDs::TreatedAsObjectData
280
     1
 91
        0
  0
XRECORD
  5
18B8
102
{ACAD_REACTORS
330
18BC
102
}
330
18BC
100
AcDbXrecord
280
     1
  1
AcDbDs::LegacySchema
  2
AcDbDs::Legacy
280
     1
 91
        0
  0
XRECORD
  5
18B9
102
{ACAD_REACTORS
330
18BC
102
}
330
18BC
100
AcDbXrecord
280
     1
  1
AcDbDs::IndexedPropertySchema
  2
AcDs:Indexable
280
     1
 91
        0
  0
XRECORD
  5
18BA
102
{ACAD_REACTORS
330
18BC
102
}
330
18BC
100
AcDbXrecord
280
     1
  1
AcDbDs::HandleAttributeSchema
  2
AcDbDs::HandleAttribute
280
     7
 91
        1
284
     1
  0
XRECORD
  5
18C1
102
{ACAD_REACTORS
330
18C0
102
}
330
18C0
100
AcDbXrecord
280
     1
102
DISPLAYNAME
  1
Imperial24
102
FLAGS
 90
        0
  0
XRECORD
  5
1C
102
{ACAD_REACTORS
330
1A
102
}
330
1A
100
AcDbXrecord
280
     1
270
     1
271
     1
  0
XRECORD
  5
1B
102
{ACAD_REACTORS
330
1A
102
}
330
1A
100
AcDbXrecord
280
     1
270
     1
271
     1
  0
XRECORD
  5
1F
102
{ACAD_REACTORS
330
1A
102
}
330
1A
100
AcDbXrecord
280
     1
270
     1
271
     1
  0
XRECORD
  5
1E
102
{ACAD_REACTORS
330
1A
102
}
330
1A
100
AcDbXrecord
280
     1
270
     1
271
     1
  0
XRECORD
  5
20
102
{ACAD_REACTORS
330
1A
102
}
330
1A
100
AcDbXrecord
280
     1
270
     1
271
     1
  0
XRECORD
  5
1D
102
{ACAD_REACTORS
330
1A
102
}
330
1A
100
AcDbXrecord
280
     1
270
     1
271
     1
  0
XRECORD
  5
14
102
{ACAD_REACTORS
330
12
102
}
330
12
100
AcDbXrecord
280
     1
270
     1
271
     1
  0
XRECORD
  5
13
102
{ACAD_REACTORS
330
12
102
}
330
12
100
AcDbXrecord
280
     1
270
     1
271
     1
  0
XRECORD
  5
17
102
{ACAD_REACTORS
330
12
102
}
330
12
100
AcDbXrecord
280
     1
270
     1
271
     1
  0
XRECORD
  5
16
102
{ACAD_REACTORS
330
12
102
}
330
12
100
AcDbXrecord
280
     1
270
     1
271
     1
  0
XRECORD
  5
18
102
{ACAD_REACTORS
330
12
102
}
330
12
100
AcDbXrecord
280
     1
270
     1
271
     1
  0
XRECORD
  5
15
102
{ACAD_REACTORS
330
12
102
}
330
12
100
AcDbXrecord
280
     1
270
     1
271
     1
  0
XRECORD
  5
24
102
{ACAD_REACTORS
330
22
102
}
330
22
100
AcDbXrecord
280
     1
270
     1
271
     1
  0
XRECORD
  5
23
102
{ACAD_REACTORS
330
22
102
}
330
22
100
AcDbXrecord
280
     1
270
     1
271
     1
  0
XRECORD
  5
27
102
{ACAD_REACTORS
330
22
102
}
330
22
100
AcDbXrecord
280
     1
270
     1
271
     1
  0
XRECORD
  5
26
102
{ACAD_REACTORS
330
22
102
}
330
22
100
AcDbXrecord
280
     1
270
     1
271
     1
  0
XRECORD
  5
28
102
{ACAD_REACTORS
330
22
102
}
330
22
100
AcDbXrecord
280
     1
270
     1
271
     1
  0
XRECORD
  5
25
102
{ACAD_REACTORS
330
22
102
}
330
22
100
AcDbXrecord
280
     1
270
     1
271
     1
  0
XRECORD
  5
18BF
102
{ACAD_REACTORS
330
18BE
102
}
330
18BE
100
AcDbXrecord
280
     1
102
DISPLAYNAME
  1
Imperial24
102
FLAGS
 90
        0
  0
CELLSTYLEMAP
  5
18B4
102
{ACAD_REACTORS
330
18B3
102
}
330
18B3
100
AcDbCellStyleMap
 90
        3
300
CELLSTYLE
  1
TABLEFORMAT_BEGIN
 90
        5
170
     1
 91
        0
 92
    32768
 62
   257
 93
        1
300
CONTENTFORMAT
  1
CONTENTFORMAT_BEGIN
 90
        0
 91
        0
 92
      512
 93
        0
300

 40
0.0
140
1.0
 94
        5
 62
     0
340
55
144
0.25
309
CONTENTFORMAT_END
171
     0
 94
        0
309
TABLEFORMAT_END
  1
CELLSTYLE_BEGIN
 90
        1
 91
        1
300
_TITLE
309
CELLSTYLE_END
300
CELLSTYLE
  1
TABLEFORMAT_BEGIN
 90
        5
170
     1
 91
        0
 92
        0
 62
   257
 93
        1
300
CONTENTFORMAT
  1
CONTENTFORMAT_BEGIN
 90
        0
 91
        0
 92
      512
 93
        0
300

 40
0.0
140
1.0
 94
        5
 62
     0
340
55
144
0.18
309
CONTENTFORMAT_END
171
     0
 94
        0
309
TABLEFORMAT_END
  1
CELLSTYLE_BEGIN
 90
        2
 91
        1
300
_HEADER
309
CELLSTYLE_END
300
CELLSTYLE
  1
TABLEFORMAT_BEGIN
 90
        5
170
     1
 91
        0
 92
        0
 62
   257
 93
        1
300
CONTENTFORMAT
  1
CONTENTFORMAT_BEGIN
 90
        0
 91
        0
 92
      512
 93
        0
300

 40
0.0
140
1.0
 94
        2
 62
     0
340
55
144
0.18
309
CONTENTFORMAT_END
171
     0
 94
        0
309
TABLEFORMAT_END
  1
CELLSTYLE_BEGIN
 90
        3
 91
        2
300
_DATA
309
CELLSTYLE_END
  0
ENDSEC
  0
SECTION
  2
ACDSDATA
 70
     2
 71
     8
  0
ACDSSCHEMA
 90
        0
  1
AcDb_Thumbnail_Schema
  2
AcDbDs::ID
280
    10
 91
        8
  2
Thumbnail_Data
280
    15
 91
        0
101
ACDSRECORD
 95
        0
 90
        1
  2
AcDbDs::TreatedAsObjectData
280
     1
291
     1
101
ACDSRECORD
 95
        0
 90
        2
  2
AcDbDs::Legacy
280
     1
291
     1
101
ACDSRECORD
  1
AcDbDs::ID
 90
        3
  2
AcDs:Indexable
280
     1
291
     1
101
ACDSRECORD
  1
AcDbDs::ID
 90
        4
  2
AcDbDs::HandleAttribute
280
     7
282
     1
  0
ACDSSCHEMA
 90
        1
  1
AcDbDs::TreatedAsObjectDataSchema
  2
AcDbDs::TreatedAsObjectData
280
     1
 91
        0
  0
ACDSSCHEMA
 90
        2
  1
AcDbDs::LegacySchema
  2
AcDbDs::Legacy
280
     1
 91
        0
  0
ACDSSCHEMA
 90
        3
  1
AcDbDs::IndexedPropertySchema
  2
AcDs:Indexable
280
     1
 91
        0
  0
ACDSSCHEMA
 90
        4
  1
AcDbDs::HandleAttributeSchema
  2
AcDbDs::HandleAttribute
280
     7
 91
        1
284
     1
  0
ACDSRECORD
 90
        0
  2
AcDbDs::ID
280
    10
320
72
  2
Thumbnail_Data
280
    15
 94
     1434
310
89504E470D0A1A0A0000000D49484452000001000000008108030000001837949D00000300504C5445D6D6D6FFFFFFD6D6D60000000000000000000000000000000000000000000000000000330000660000990000CC0000FF0033000033330033660033990033CC0033FF0066000066330066660066990066CC0066FF0099
310
000099330099660099990099CC0099FF00CC0000CC3300CC6600CC9900CCCC00CCFF00FF0000FF3300FF6600FF9900FFCC00FFFF3300003300333300663300993300CC3300FF3333003333333333663333993333CC3333FF3366003366333366663366993366CC3366FF3399003399333399663399993399CC3399FF33CC00
310
33CC3333CC6633CC9933CCCC33CCFF33FF0033FF3333FF6633FF9933FFCC33FFFF6600006600336600666600996600CC6600FF6633006633336633666633996633CC6633FF6666006666336666666666996666CC6666FF6699006699336699666699996699CC6699FF66CC0066CC3366CC6666CC9966CCCC66CCFF66FF0066
310
FF3366FF6666FF9966FFCC66FFFF9900009900339900669900999900CC9900FF9933009933339933669933999933CC9933FF9966009966339966669966999966CC9966FF9999009999339999669999999999CC9999FF99CC0099CC3399CC6699CC9999CCCC99CCFF99FF0099FF3399FF6699FF9999FFCC99FFFFCC0000CC00
310
33CC0066CC0099CC00CCCC00FFCC3300CC3333CC3366CC3399CC33CCCC33FFCC6600CC6633CC6666CC6699CC66CCCC66FFCC9900CC9933CC9966CC9999CC99CCCC99FFCCCC00CCCC33CCCC66CCCC99CCCCCCCCCCFFCCFF00CCFF33CCFF66CCFF99CCFFCCCCFFFFFF0000FF0033FF0066FF0099FF00CCFF00FFFF3300FF3333
310
FF3366FF3399FF33CCFF33FFFF6600FF6633FF6666FF6699FF66CCFF66FFFF9900FF9933FF9966FF9999FF99CCFF99FFFFCC00FFCC33FFCC66FFCC99FFCCCCFFCCFFFFFF00FFFF33FFFF66FFFF99FFFFCCFFFFFF0000000D0D0D1A1A1A2828283535354343435050505D5D5D6B6B6B787878868686939393A1A1A1AEAEAEBB
310
BBBBC9C9C9D6D6D6E4E4E4F1F1F1FFFFFF0000000000000000000000000000000000000000000000000000000000008A60A2FA000001A44944415478DAED9A4172C3200C45B9FF31FF493A1D0C48D8495D77B2E8D77B93459C78A3070809BB3500000000000000000000000000000000F808DAAF75718F8CE3FF2684D82FB7
310
B0656C40DD40FFF4F037019271FC23FCE861081871ABBBF0B33047BC4D010A020E1FEB3E430133AC29A0857430034FAE0C0D040169CD2B7C95E55EB0C6F42C40637FD469C3B01430D6FB36F55FAC1887C87F9AD197F1DB2443A5117F52375964FFA7067C6A3FFD216BFCF70A48CF86D4250D1E3950F7C734EE171E0674B7D5
310
512A827C7A02A5FEF7DD9E90FEB12985B455817733814CCE0652DBBF6ADF1C5A9C2366695059C02CF3AEF2C45635782481D0E2AE65701EEBB550F46292B8A481581D6E4DE1DA3165762892A319B5A11437856399E41F0DBBE135C04144B8C16DEE9F0584F6404DA1540C4590E1B9B0F289F8CCFC21D73B3F10D9CE39B63EC9
310
FA59C08D4651AD64F42BF157175074FA07017527400FBEBA00B5F2020AC78F80F94A406903084000021080000420000108404055017443084040D9F83DDF8BFE8D00957D2C040000000000000000000000000000000000000000F011BE00B4D74EB99217C3F40000000049454E44AE426082A04D887B7E5F42CB09A80B30ED
310
F775809FE65C0B8DAF9E8D03E902CE8CBF09901D2AA03E791DF45DB1794638F804D4D0CF3D01084080C2A87CAA808313C04E3F017D124400024E167070FCA68B9B32470001084000021080000420000108400006F68F1F010840C0A9F13FFCAF55000000000000000000000000000000000000F0CD17BF08418E438BE4A700
310
00000049454E44AE426082ADADED3FEC03686B89F29C0471950000000049454E44AE426082
  0
ENDSEC
  0
EOF
