  0
SECTION
  2
HEADER
  9
$ACADVER
  1
AC1027
  9
$ACADMAINTVER
 70
   125
  9
$DWGCODEPAGE
  3
ANSI_1252
  9
$LASTSAVEDBY
  1
Lebatard
  9
$REQUIREDVERSIONS
160
                 0
  9
$INSBASE
 10
0.0
 20
0.0
 30
0.0
  9
$EXTMIN
 10
-2303.284689888291
 20
-1936.548932046881
 30
0.0
  9
$EXTMAX
 10
2418.237052360906
 20
2361.674798066842
 30
0.0
  9
$LIMMIN
 10
0.0
 20
0.0
  9
$LIMMAX
 10
12.0
 20
9.0
  9
$ORTHOMODE
 70
     0
  9
$REGENMODE
 70
     1
  9
$FILLMODE
 70
     1
  9
$QTEXTMODE
 70
     0
  9
$MIRRTEXT
 70
     0
  9
$LTSCALE
 40
1.0
  9
$ATTMODE
 70
     1
  9
$TEXTSIZE
 40
0.2
  9
$TRACEWID
 40
0.05
  9
$TEXTSTYLE
  7
Standard
  9
$CLAYER
  8
0
  9
$CELTYPE
  6
Continuous
  9
$CECOLOR
 62
   256
  9
$CELTSCALE
 40
1.0
  9
$DISPSILH
 70
     0
  9
$DIMSCALE
 40
1.0
  9
$DIMASZ
 40
0.18
  9
$DIMEXO
 40
0.0625
  9
$DIMDLI
 40
0.38
  9
$DIMRND
 40
0.0
  9
$DIMDLE
 40
0.0
  9
$DIMEXE
 40
0.18
  9
$DIMTP
 40
0.0
  9
$DIMTM
 40
0.0
  9
$DIMTXT
 40
0.18
  9
$DIMCEN
 40
0.09
  9
$DIMTSZ
 40
0.0
  9
$DIMTOL
 70
     0
  9
$DIMLIM
 70
     0
  9
$DIMTIH
 70
     1
  9
$DIMTOH
 70
     1
  9
$DIMSE1
 70
     0
  9
$DIMSE2
 70
     0
  9
$DIMTAD
 70
     0
  9
$DIMZIN
 70
     0
  9
$DIMBLK
  1

  9
$DIMASO
 70
     1
  9
$DIMSHO
 70
     1
  9
$DIMPOST
  1

  9
$DIMAPOST
  1

  9
$DIMALT
 70
     0
  9
$DIMALTD
 70
     2
  9
$DIMALTF
 40
25.4
  9
$DIMLFAC
 40
1.0
  9
$DIMTOFL
 70
     0
  9
$DIMTVP
 40
0.0
  9
$DIMTIX
 70
     0
  9
$DIMSOXD
 70
     0
  9
$DIMSAH
 70
     0
  9
$DIMBLK1
  1

  9
$DIMBLK2
  1

  9
$DIMSTYLE
  2
Standard
  9
$DIMCLRD
 70
     0
  9
$DIMCLRE
 70
     0
  9
$DIMCLRT
 70
     0
  9
$DIMTFAC
 40
1.0
  9
$DIMGAP
 40
0.09
  9
$DIMJUST
 70
     0
  9
$DIMSD1
 70
     0
  9
$DIMSD2
 70
     0
  9
$DIMTOLJ
 70
     1
  9
$DIMTZIN
 70
     0
  9
$DIMALTZ
 70
     0
  9
$DIMALTTZ
 70
     0
  9
$DIMUPT
 70
     0
  9
$DIMDEC
 70
     4
  9
$DIMTDEC
 70
     4
  9
$DIMALTU
 70
     2
  9
$DIMALTTD
 70
     2
  9
$DIMTXSTY
  7
Standard
  9
$DIMAUNIT
 70
     0
  9
$DIMADEC
 70
     0
  9
$DIMALTRND
 40
0.0
  9
$DIMAZIN
 70
     0
  9
$DIMDSEP
 70
    46
  9
$DIMATFIT
 70
     3
  9
$DIMFRAC
 70
     0
  9
$DIMLDRBLK
  1

  9
$DIMLUNIT
 70
     2
  9
$DIMLWD
 70
    -2
  9
$DIMLWE
 70
    -2
  9
$DIMTMOVE
 70
     0
  9
$DIMFXL
 40
1.0
  9
$DIMFXLON
 70
     0
  9
$DIMJOGANG
 40
0.7853981633974483
  9
$DIMTFILL
 70
     0
  9
$DIMTFILLCLR
 70
     0
  9
$DIMARCSYM
 70
     0
  9
$DIMLTYPE
  6

  9
$DIMLTEX1
  6

  9
$DIMLTEX2
  6

  9
$DIMTXTDIRECTION
 70
     0
  9
$LUNITS
 70
     2
  9
$LUPREC
 70
     4
  9
$SKETCHINC
 40
0.1
  9
$FILLETRAD
 40
0.0
  9
$AUNITS
 70
     0
  9
$AUPREC
 70
     0
  9
$MENU
  1
.
  9
$ELEVATION
 40
0.0
  9
$PELEVATION
 40
0.0
  9
$THICKNESS
 40
0.0
  9
$LIMCHECK
 70
     0
  9
$CHAMFERA
 40
0.0
  9
$CHAMFERB
 40
0.0
  9
$CHAMFERC
 40
0.0
  9
$CHAMFERD
 40
0.0
  9
$SKPOLY
 70
     0
  9
$TDCREATE
 40
2460993.463009259
  9
$TDUCREATE
 40
2460993.421342593
  9
$TDUPDATE
 40
2460993.466076389
  9
$TDUUPDATE
 40
2460993.424409723
  9
$TDINDWG
 40
0.0030671296
  9
$TDUSRTIMER
 40
0.0030671296
  9
$USRTIMER
 70
     1
  9
$ANGBASE
 50
0.0
  9
$ANGDIR
 70
     0
  9
$PDMODE
 70
     0
  9
$PDSIZE
 40
0.0
  9
$PLINEWID
 40
0.0
  9
$SPLFRAME
 70
     0
  9
$SPLINETYPE
 70
     6
  9
$SPLINESEGS
 70
     8
  9
$HANDSEED
  5
162A
  9
$SURFTAB1
 70
     6
  9
$SURFTAB2
 70
     6
  9
$SURFTYPE
 70
     6
  9
$SURFU
 70
     6
  9
$SURFV
 70
     6
  9
$UCSBASE
  2

  9
$UCSNAME
  2

  9
$UCSORG
 10
0.0
 20
0.0
 30
0.0
  9
$UCSXDIR
 10
1.0
 20
0.0
 30
0.0
  9
$UCSYDIR
 10
0.0
 20
1.0
 30
0.0
  9
$UCSORTHOREF
  2

  9
$UCSORTHOVIEW
 70
     0
  9
$UCSORGTOP
 10
0.0
 20
0.0
 30
0.0
  9
$UCSORGBOTTOM
 10
0.0
 20
0.0
 30
0.0
  9
$UCSORGLEFT
 10
0.0
 20
0.0
 30
0.0
  9
$UCSORGRIGHT
 10
0.0
 20
0.0
 30
0.0
  9
$UCSORGFRONT
 10
0.0
 20
0.0
 30
0.0
  9
$UCSORGBACK
 10
0.0
 20
0.0
 30
0.0
  9
$PUCSBASE
  2

  9
$PUCSNAME
  2

  9
$PUCSORG
 10
0.0
 20
0.0
 30
0.0
  9
$PUCSXDIR
 10
1.0
 20
0.0
 30
0.0
  9
$PUCSYDIR
 10
0.0
 20
1.0
 30
0.0
  9
$PUCSORTHOREF
  2

  9
$PUCSORTHOVIEW
 70
     0
  9
$PUCSORGTOP
 10
0.0
 20
0.0
 30
0.0
  9
$PUCSORGBOTTOM
 10
0.0
 20
0.0
 30
0.0
  9
$PUCSORGLEFT
 10
0.0
 20
0.0
 30
0.0
  9
$PUCSORGRIGHT
 10
0.0
 20
0.0
 30
0.0
  9
$PUCSORGFRONT
 10
0.0
 20
0.0
 30
0.0
  9
$PUCSORGBACK
 10
0.0
 20
0.0
 30
0.0
  9
$USERI1
 70
     0
  9
$USERI2
 70
     0
  9
$USERI3
 70
     0
  9
$USERI4
 70
     0
  9
$USERI5
 70
     0
  9
$USERR1
 40
0.0
  9
$USERR2
 40
0.0
  9
$USERR3
 40
0.0
  9
$USERR4
 40
0.0
  9
$USERR5
 40
0.0
  9
$WORLDVIEW
 70
     1
  9
$SHADEDGE
 70
     3
  9
$SHADEDIF
 70
    70
  9
$TILEMODE
 70
     1
  9
$MAXACTVP
 70
    64
  9
$PINSBASE
 10
0.0
 20
0.0
 30
0.0
  9
$PLIMCHECK
 70
     0
  9
$PEXTMIN
 10
1.000000000000000E+20
 20
1.000000000000000E+20
 30
1.000000000000000E+20
  9
$PEXTMAX
 10
-1.000000000000000E+20
 20
-1.000000000000000E+20
 30
-1.000000000000000E+20
  9
$PLIMMIN
 10
0.0
 20
0.0
  9
$PLIMMAX
 10
12.0
 20
9.0
  9
$UNITMODE
 70
     0
  9
$VISRETAIN
 70
     1
  9
$PLINEGEN
 70
     0
  9
$PSLTSCALE
 70
     1
  9
$TREEDEPTH
 70
  3020
  9
$CMLSTYLE
  2
Standard
  9
$CMLJUST
 70
     0
  9
$CMLSCALE
 40
1.0
  9
$PROXYGRAPHICS
 70
     1
  9
$MEASUREMENT
 70
     0
  9
$CELWEIGHT
370
    -1
  9
$ENDCAPS
280
     0
  9
$JOINSTYLE
280
     0
  9
$LWDISPLAY
290
     0
  9
$INSUNITS
 70
     0
  9
$HYPERLINKBASE
  1

  9
$STYLESHEET
  1

  9
$XEDIT
290
     1
  9
$CEPSNTYPE
380
     0
  9
$PSTYLEMODE
290
     1
  9
$FINGERPRINTGUID
  2
{9EA2D472-01B1-A042-8582-3FACC88A8B0F}
  9
$VERSIONGUID
  2
{101118C8-B7E2-3041-9150-FEA01322E8F0}
  9
$EXTNAMES
290
     1
  9
$PSVPSCALE
 40
0.0
  9
$OLESTARTUP
290
     0
  9
$SORTENTS
280
   127
  9
$INDEXCTL
280
     0
  9
$HIDETEXT
280
     0
  9
$XCLIPFRAME
280
     2
  9
$HALOGAP
280
     0
  9
$OBSCOLOR
 70
   257
  9
$OBSLTYPE
280
     0
  9
$INTERSECTIONDISPLAY
280
     0
  9
$INTERSECTIONCOLOR
 70
   257
  9
$DIMASSOC
280
     1
  9
$PROJECTNAME
  1

  9
$CAMERADISPLAY
290
     0
  9
$LENSLENGTH
 40
50.0
  9
$CAMERAHEIGHT
 40
0.0
  9
$STEPSPERSEC
 40
2.0
  9
$STEPSIZE
 40
6.0
  9
$3DDWFPREC
 40
2.0
  9
$PSOLWIDTH
 40
0.25
  9
$PSOLHEIGHT
 40
4.0
  9
$LOFTANG1
 40
1.570796326794896
  9
$LOFTANG2
 40
1.570796326794896
  9
$LOFTMAG1
 40
0.0
  9
$LOFTMAG2
 40
0.0
  9
$LOFTPARAM
 70
     7
  9
$LOFTNORMALS
280
     1
  9
$LATITUDE
 40
37.795
  9
$LONGITUDE
 40
-122.394
  9
$NORTHDIRECTION
 40
0.0
  9
$TIMEZONE
 70
 -8000
  9
$LIGHTGLYPHDISPLAY
280
     1
  9
$TILEMODELIGHTSYNCH
280
     1
  9
$CMATERIAL
347
11
  9
$SOLIDHIST
280
     0
  9
$SHOWHIST
280
     1
  9
$DWFFRAME
280
     2
  9
$DGNFRAME
280
     0
  9
$REALWORLDSCALE
290
     1
  9
$INTERFERECOLOR
 62
     1
  9
$INTERFEREOBJVS
345
33
  9
$INTERFEREVPVS
346
30
  9
$CSHADOW
280
     0
  9
$SHADOWPLANELOCATION
 40
0.0
  0
ENDSEC
  0
SECTION
  2
CLASSES
  0
CLASS
  1
ACDBDICTIONARYWDFLT
  2
AcDbDictionaryWithDefault
  3
ObjectDBX Classes
 90
        0
 91
        1
280
     0
281
     0
  0
CLASS
  1
MATERIAL
  2
AcDbMaterial
  3
ObjectDBX Classes
 90
     1153
 91
        3
280
     0
281
     0
  0
CLASS
  1
VISUALSTYLE
  2
AcDbVisualStyle
  3
ObjectDBX Classes
 90
     4095
 91
       24
280
     0
281
     0
  0
CLASS
  1
SCALE
  2
AcDbScale
  3
ObjectDBX Classes
 90
     1153
 91
       17
280
     0
281
     0
  0
CLASS
  1
TABLESTYLE
  2
AcDbTableStyle
  3
ObjectDBX Classes
 90
     4095
 91
        1
280
     0
281
     0
  0
CLASS
  1
MLEADERSTYLE
  2
AcDbMLeaderStyle
  3
ACDB_MLEADERSTYLE_CLASS
 90
     4095
 91
        1
280
     0
281
     0
  0
CLASS
  1
ACDBSECTIONVIEWSTYLE
  2
AcDbSectionViewStyle
  3
ObjectDBX Classes
 90
     1025
 91
        1
280
     0
281
     0
  0
CLASS
  1
ACDBDETAILVIEWSTYLE
  2
AcDbDetailViewStyle
  3
ObjectDBX Classes
 90
     1025
 91
        1
280
     0
281
     0
  0
CLASS
  1
VARDICTIONARY
  2
CVarDictionary
  3
SPIKERNELAPP|Product Desc: CVarDictionary|Company: 2020 Technologies|WEB Address: www.2020spaces.com
 90
     3071
 91
        1
280
     0
281
     0
  0
CLASS
  1
RAPIDRTRENDERSETTINGS
  2
AcDbRapidRTRenderSettings
  3
ObjectDBX Classes
 90
     1024
 91
        7
280
     0
281
     0
  0
CLASS
  1
NPOCOLLECTION
  2
AcDbImpNonPersistentObjectsCollection
  3
ObjectDBX Classes
 90
     1153
 91
        1
280
     0
281
     0
  0
CLASS
  1
SORTENTSTABLE
  2
AcDbSortentsTable
  3
ObjectDBX Classes
 90
        0
 91
        1
280
     0
281
     0
  0
CLASS
  1
ACAD_EVALUATION_GRAPH
  2
AcDbEvalGraph
  3
ObjectDBX Classes
 90
     1153
 91
        1
280
     0
281
     0
  0
CLASS
  1
ACAECUSTOBJ
  2
AcAeEditorObj
  3
AcAeEditorObj
 90
     1024
 91
        1
280
     0
281
     0
  0
CLASS
  1
ACDB_DYNAMICBLOCKPURGEPREVENTER_VERSION
  2
AcDbDynamicBlockPurgePreventer
  3
ObjectDBX Classes
 90
     1153
 91
        1
280
     0
281
     0
  0
CLASS
  1
SPIFILEHEADER
  2
CSPIFileHeader
  3
SPIKERNELAPP|Product Desc: CSPIFileHeader|Company: 2020 Technologies|WEB Address: www.2020spaces.com
 90
     3071
 91
        1
280
     0
281
     0
  0
CLASS
  1
SPIFILEHEADER
  2
CSPIFHVersion
  3
SPIKERNELAPP|Product Desc: CSPIFHVersion|Company: 2020 Technologies|WEB Address: www.2020spaces.com
 90
     3071
 91
        1
280
     0
281
     0
  0
CLASS
  1
DICTIONARYVAR
  2
AcDbDictionaryVar
  3
ObjectDBX Classes
 90
        0
 91
       27
280
     0
281
     0
  0
CLASS
  1
CELLSTYLEMAP
  2
AcDbCellStyleMap
  3
ObjectDBX Classes
 90
     1152
 91
        1
280
     0
281
     0
  0
CLASS
  1
MENTALRAYRENDERSETTINGS
  2
AcDbMentalRayRenderSettings
  3
SCENEOE
 90
     1024
 91
        1
280
     0
281
     0
  0
ENDSEC
  0
SECTION
  2
TABLES
  0
TABLE
  2
VPORT
  5
8
330
0
100
AcDbSymbolTable
 70
     1
1001
ACAD
1000
DbSaveVer
1071
      123
  0
VPORT
  5
1540
330
8
100
AcDbSymbolTableRecord
100
AcDbViewportTableRecord
  2
*Active
 70
     0
 10
0.0
 20
0.0
 11
1.0
 21
1.0
 12
299.7847978772497
 22
-247.1876195074142
 13
0.0
 23
0.0
 14
1.0
 24
1.0
 15
0.0
 25
0.0
 16
0.0
 26
0.0
 36
1.0
 17
0.0
 27
0.0
 37
0.0
 40
6960.050883389065
 41
2.686882933709449
 42
50.0
 43
0.0
 44
0.0
 50
0.0
 51
0.0
 71
     0
 72
  1000
 73
     1
 74
     3
 75
     0
 76
     0
 77
     0
 78
     0
281
     0
 65
     1
110
0.0
120
0.0
130
0.0
111
1.0
121
0.0
131
0.0
112
0.0
122
1.0
132
0.0
 79
     0
146
0.0
348
2F
 60
     3
 61
     5
292
     1
282
     1
141
0.0
142
0.0
 63
   250
421
  3355443
1001
ACAD_NAV_VCDISPLAY
1070
     0
  0
ENDTAB
  0
TABLE
  2
LTYPE
  5
5
330
0
100
AcDbSymbolTable
 70
     2
  0
LTYPE
  5
5A
330
5
100
AcDbSymbolTableRecord
100
AcDbLinetypeTableRecord
  2
ByBlock
 70
     0
  3

 72
    65
 73
     0
 40
0.0
  0
LTYPE
  5
5B
330
5
100
AcDbSymbolTableRecord
100
AcDbLinetypeTableRecord
  2
ByLayer
 70
     0
  3

 72
    65
 73
     0
 40
0.0
  0
LTYPE
  5
5C
330
5
100
AcDbSymbolTableRecord
100
AcDbLinetypeTableRecord
  2
Continuous
 70
     0
  3
Solid line
 72
    65
 73
     0
 40
0.0
  0
ENDTAB
  0
TABLE
  2
LAYER
  5
2
102
{ACAD_XDICTIONARY
360
15FD
102
}
330
0
100
AcDbSymbolTable
 70
     2
  0
LAYER
  5
54
102
{ACAD_XDICTIONARY
360
15EE
102
}
330
2
100
AcDbSymbolTableRecord
100
AcDbLayerTableRecord
  2
0
 70
     0
 62
     7
  6
Continuous
370
    -3
390
F
347
21
348
0
  0
ENDTAB
  0
TABLE
  2
STYLE
  5
3
330
0
100
AcDbSymbolTable
 70
     2
  0
STYLE
  5
55
330
3
100
AcDbSymbolTableRecord
100
AcDbTextStyleTableRecord
  2
Standard
 70
     0
 40
0.0
 41
1.0
 50
0.0
 71
     0
 42
0.2
  3
txt
  4

  0
ENDTAB
  0
TABLE
  2
VIEW
  5
6
330
0
100
AcDbSymbolTable
 70
     1
  0
ENDTAB
  0
TABLE
  2
UCS
  5
7
330
0
100
AcDbSymbolTable
 70
     0
  0
ENDTAB
  0
TABLE
  2
APPID
  5
9
330
0
100
AcDbSymbolTable
 70
     7
  0
APPID
  5
56
330
9
100
AcDbSymbolTableRecord
100
AcDbRegAppTableRecord
  2
ACAD
 70
     0
  0
APPID
  5
5D
330
9
100
AcDbSymbolTableRecord
100
AcDbRegAppTableRecord
  2
AcadAnnotative
 70
     0
  0
APPID
  5
153F
330
9
100
AcDbSymbolTableRecord
100
AcDbRegAppTableRecord
  2
ACAD_NAV_VCDISPLAY
 70
     0
  0
APPID
  5
15B4
330
9
100
AcDbSymbolTableRecord
100
AcDbRegAppTableRecord
  2
ACAD_EXEMPT_FROM_CAD_STANDARDS
 70
     0
  0
APPID
  5
15E4
330
9
100
AcDbSymbolTableRecord
100
AcDbRegAppTableRecord
  2
ACAUTHENVIRON
 70
     0
  0
APPID
  5
15E8
330
9
100
AcDbSymbolTableRecord
100
AcDbRegAppTableRecord
  2
AcDbDynamicBlockTrueName
 70
     0
  0
APPID
  5
15E9
330
9
100
AcDbSymbolTableRecord
100
AcDbRegAppTableRecord
  2
AcDbDynamicBlockGUID
 70
     0
  0
ENDTAB
  0
TABLE
  2
DIMSTYLE
  5
A
330
0
100
AcDbSymbolTable
 70
     3
100
AcDbDimStyleTable
 71
     1
340
57
  0
DIMSTYLE
105
57
330
A
100
AcDbSymbolTableRecord
100
AcDbDimStyleTableRecord
  2
Standard
 70
     0
340
55
  0
ENDTAB
  0
TABLE
  2
BLOCK_RECORD
  5
1
330
0
100
AcDbSymbolTable
 70
     3
  0
BLOCK_RECORD
  5
6F
102
{ACAD_XDICTIONARY
360
15B1
102
}
330
1
100
AcDbSymbolTableRecord
100
AcDbBlockTableRecord
  2
*Model_Space
340
72
 70
     0
280
     1
281
     0
  0
BLOCK_RECORD
  5
6B
330
1
100
AcDbSymbolTableRecord
100
AcDbBlockTableRecord
  2
*Paper_Space
340
6E
 70
     0
280
     1
281
     0
  0
BLOCK_RECORD
  5
15BB
102
{ACAD_XDICTIONARY
360
15E5
102
}
330
1
100
AcDbSymbolTableRecord
100
AcDbBlockTableRecord
  2
Vue de dessus Erable
340
0
310
28000000200000002000000001002000000000000010000001000000010000000000000000000000805EA304D6D6D6FFD6D6D6FFD6D6D6FFD6D6D6FFD6D6D6FFD6D6D6FFD6D6D6FFD6D6D6FFD6D6D6FFD6D6D6FFD6D6D6FFD6D6D6FFD6D6D6FFD6D6D6FFD6D6D6FFD6D6D6FFD6D6D6FFD6D6D6FFD6D6D6FFD6D6D6FFD6D6D6
310
FFD6D6D6FFD6D6D6FFD6D6D6FFD6D6D6FFD6D6D6FFD6D6D6FFD6D6D6FFD6D6D6FFD6D6D6FFD6D6D6FFD6D6D6FFD6D6D6FFD6D6D6FFD6D6D6FFD6D6D6FFD6D6D6FFD6D6D6FFD6D6D6FFD6D6D6FFD6D6D6FFD6D6D6FFD6D6D6FFD6D6D6FFD6D6D6FFD6D6D6FFD6D6D6FFD6D6D6FFD6D6D6FFD6D6D6FFD6D6D6FFD6D6D6FFD6D6
310
D6FFD6D6D6FFD6D6D6FFD6D6D6FFD6D6D6FFD6D6D6FFD6D6D6FFD6D6D6FFD6D6D6FFD6D6D6FFD6D6D6FFD6D6D6FFD6D6D6FFD6D6D6FFD6D6D6FFD6D6D6FFD6D6D6FFD6D6D6FFD6D6D6FFD6D6D6FFD6D6D6FFD6D6D6FFD6D6D6FFD6D6D6FFD6D6D6FFD6D6D6FFD6D6D6FFD6D6D6FFD6D6D6FFD6D6D6FFD6D6D6FFD6D6D6FFD6
310
D6D6FFD6D6D6FFD6D6D6FFD6D6D6FFD6D6D6FFD6D6D6FFD6D6D6FFD6D6D6FFD6D6D6FFD6D6D6FFD6D6D6FFD6D6D6FFD6D6D6FFD6D6D6FFD6D6D6FFD6D6D6FFD6D6D6FFD6D6D6FFD6D6D6FFD6D6D6FFD6D6D6FFD6D6D6FFD6D6D6FF000000FF000000FF000000FF000000FFD6D6D6FFD6D6D6FFD6D6D6FFD6D6D6FFD6D6D6FF
310
D6D6D6FFD6D6D6FFD6D6D6FFD6D6D6FFD6D6D6FFD6D6D6FFD6D6D6FFD6D6D6FFD6D6D6FFD6D6D6FFD6D6D6FFD6D6D6FFD6D6D6FFD6D6D6FFD6D6D6FFD6D6D6FFD6D6D6FFD6D6D6FFD6D6D6FFD6D6D6FFD6D6D6FF000000FF000000FF000000FFD6D6D6FFD6D6D6FF000000FF000000FFD6D6D6FFD6D6D6FFD6D6D6FF000000
310
FFD6D6D6FFD6D6D6FFD6D6D6FFD6D6D6FFD6D6D6FFD6D6D6FFD6D6D6FFD6D6D6FFD6D6D6FFD6D6D6FFD6D6D6FFD6D6D6FFD6D6D6FFD6D6D6FFD6D6D6FFD6D6D6FFD6D6D6FFD6D6D6FFD6D6D6FFD6D6D6FF000000FF000000FF000000FF000000FFD6D6D6FF000000FF000000FF000000FFD6D6D6FFD6D6D6FF000000FF0000
310
00FFD6D6D6FFD6D6D6FFD6D6D6FFD6D6D6FF000000FF000000FFD6D6D6FFD6D6D6FFD6D6D6FFD6D6D6FFD6D6D6FFD6D6D6FFD6D6D6FFD6D6D6FFD6D6D6FFD6D6D6FFD6D6D6FFD6D6D6FFD6D6D6FFD6D6D6FF000000FF000000FF000000FF000000FF000000FF000000FF000000FF000000FFD6D6D6FFD6D6D6FF000000FFD6
310
D6D6FF000000FF000000FFD6D6D6FF000000FF000000FF000000FF000000FFD6D6D6FFD6D6D6FFD6D6D6FFD6D6D6FFD6D6D6FFD6D6D6FFD6D6D6FFD6D6D6FFD6D6D6FFD6D6D6FFD6D6D6FFD6D6D6FFD6D6D6FFD6D6D6FF000000FF000000FF000000FF000000FF000000FF000000FF000000FFD6D6D6FF000000FF000000FF
310
D6D6D6FFD6D6D6FF000000FF000000FF000000FF000000FF000000FF000000FFD6D6D6FFD6D6D6FFD6D6D6FFD6D6D6FFD6D6D6FFD6D6D6FFD6D6D6FFD6D6D6FFD6D6D6FFD6D6D6FFD6D6D6FFD6D6D6FFD6D6D6FFD6D6D6FF000000FF000000FF000000FF000000FF000000FF000000FF000000FFD6D6D6FF000000FFD6D6D6
310
FFD6D6D6FF000000FF000000FF000000FF000000FF000000FF000000FF000000FFD6D6D6FFD6D6D6FFD6D6D6FFD6D6D6FFD6D6D6FFD6D6D6FFD6D6D6FFD6D6D6FFD6D6D6FFD6D6D6FFD6D6D6FF000000FF000000FF000000FF000000FFD6D6D6FF000000FF000000FF000000FF000000FF000000FF000000FF000000FF0000
310
00FF000000FF000000FF000000FF000000FFD6D6D6FFD6D6D6FF000000FF000000FF000000FF000000FFD6D6D6FFD6D6D6FFD6D6D6FFD6D6D6FFD6D6D6FFD6D6D6FFD6D6D6FFD6D6D6FFD6D6D6FF000000FFD6D6D6FFD6D6D6FFD6D6D6FFD6D6D6FFD6D6D6FFD6D6D6FF000000FF000000FF000000FF000000FF000000FF00
310
0000FF000000FF000000FF000000FFD6D6D6FFD6D6D6FFD6D6D6FF000000FF000000FF000000FF000000FFD6D6D6FFD6D6D6FFD6D6D6FFD6D6D6FFD6D6D6FFD6D6D6FFD6D6D6FFD6D6D6FF000000FFD6D6D6FFD6D6D6FFD6D6D6FFD6D6D6FFD6D6D6FFD6D6D6FFD6D6D6FF000000FF000000FF000000FFD6D6D6FFD6D6D6FF
310
D6D6D6FFD6D6D6FFD6D6D6FFD6D6D6FFD6D6D6FFD6D6D6FFD6D6D6FF000000FF000000FF000000FF000000FF000000FF000000FFD6D6D6FFD6D6D6FFD6D6D6FFD6D6D6FFD6D6D6FF000000FF000000FF000000FFD6D6D6FFD6D6D6FFD6D6D6FFD6D6D6FFD6D6D6FFD6D6D6FFD6D6D6FFD6D6D6FFD6D6D6FFD6D6D6FFD6D6D6
310
FFD6D6D6FFD6D6D6FFD6D6D6FFD6D6D6FFD6D6D6FFD6D6D6FFD6D6D6FFD6D6D6FF000000FFD6D6D6FF000000FF000000FF000000FFD6D6D6FFD6D6D6FFD6D6D6FFD6D6D6FF000000FF000000FF000000FF000000FFD6D6D6FFD6D6D6FFD6D6D6FFD6D6D6FFD6D6D6FFD6D6D6FFD6D6D6FFD6D6D6FFD6D6D6FFD6D6D6FFD6D6
310
D6FFD6D6D6FFD6D6D6FFD6D6D6FFD6D6D6FFD6D6D6FFD6D6D6FFD6D6D6FFD6D6D6FF000000FF000000FF000000FF000000FFD6D6D6FFD6D6D6FFD6D6D6FFD6D6D6FFD6D6D6FFD6D6D6FFD6D6D6FFD6D6D6FF000000FFD6D6D6FFD6D6D6FFD6D6D6FFD6D6D6FFD6D6D6FFD6D6D6FFD6D6D6FFD6D6D6FFD6D6D6FFD6D6D6FFD6
310
D6D6FFD6D6D6FFD6D6D6FFD6D6D6FFD6D6D6FFD6D6D6FFD6D6D6FFD6D6D6FFD6D6D6FF000000FF000000FFD6D6D6FFD6D6D6FFD6D6D6FFD6D6D6FFD6D6D6FFD6D6D6FFD6D6D6FFD6D6D6FFD6D6D6FF000000FF000000FF000000FF000000FF000000FF000000FF000000FFD6D6D6FFD6D6D6FFD6D6D6FFD6D6D6FFD6D6D6FF
310
D6D6D6FFD6D6D6FFD6D6D6FFD6D6D6FFD6D6D6FFD6D6D6FFD6D6D6FFD6D6D6FFD6D6D6FF000000FF000000FFD6D6D6FFD6D6D6FFD6D6D6FFD6D6D6FFD6D6D6FFD6D6D6FFD6D6D6FFD6D6D6FF000000FF000000FF000000FF000000FF000000FF000000FF000000FF000000FFD6D6D6FFD6D6D6FFD6D6D6FFD6D6D6FFD6D6D6
310
FFD6D6D6FFD6D6D6FFD6D6D6FFD6D6D6FFD6D6D6FFD6D6D6FFD6D6D6FFD6D6D6FFD6D6D6FF000000FF000000FFD6D6D6FFD6D6D6FFD6D6D6FFD6D6D6FFD6D6D6FFD6D6D6FFD6D6D6FFD6D6D6FFD6D6D6FFD6D6D6FF000000FF000000FF000000FF000000FF000000FF000000FFD6D6D6FFD6D6D6FFD6D6D6FFD6D6D6FFD6D6
310
D6FFD6D6D6FFD6D6D6FFD6D6D6FFD6D6D6FFD6D6D6FFD6D6D6FFD6D6D6FFD6D6D6FF000000FF000000FFD6D6D6FFD6D6D6FFD6D6D6FFD6D6D6FFD6D6D6FFD6D6D6FFD6D6D6FFD6D6D6FFD6D6D6FF000000FF000000FFD6D6D6FFD6D6D6FF000000FF000000FF000000FF000000FF000000FF000000FF000000FFD6D6D6FFD6
310
D6D6FFD6D6D6FFD6D6D6FFD6D6D6FFD6D6D6FFD6D6D6FFD6D6D6FFD6D6D6FFD6D6D6FF000000FF000000FF000000FFD6D6D6FFD6D6D6FFD6D6D6FFD6D6D6FFD6D6D6FFD6D6D6FFD6D6D6FFD6D6D6FF000000FF000000FF000000FFD6D6D6FFD6D6D6FF000000FF000000FF000000FF000000FF000000FF000000FF000000FF
310
D6D6D6FFD6D6D6FFD6D6D6FFD6D6D6FFD6D6D6FFD6D6D6FF000000FF000000FFD6D6D6FF000000FF000000FF000000FFD6D6D6FFD6D6D6FFD6D6D6FFD6D6D6FFD6D6D6FFD6D6D6FFD6D6D6FFD6D6D6FFD6D6D6FF000000FF000000FFD6D6D6FFD6D6D6FF000000FF000000FF000000FF000000FF000000FF000000FF000000
310
FFD6D6D6FFD6D6D6FFD6D6D6FFD6D6D6FFD6D6D6FFD6D6D6FF000000FFD6D6D6FFD6D6D6FF000000FF000000FFD6D6D6FFD6D6D6FFD6D6D6FFD6D6D6FFD6D6D6FFD6D6D6FFD6D6D6FFD6D6D6FF000000FF000000FF000000FF000000FF000000FFD6D6D6FFD6D6D6FF000000FF000000FF000000FF000000FF000000FF0000
310
00FFD6D6D6FFD6D6D6FFD6D6D6FFD6D6D6FFD6D6D6FFD6D6D6FFD6D6D6FFD6D6D6FF000000FF000000FFD6D6D6FFD6D6D6FFD6D6D6FFD6D6D6FFD6D6D6FFD6D6D6FFD6D6D6FFD6D6D6FFD6D6D6FF000000FF000000FFD6D6D6FF000000FF000000FFD6D6D6FF000000FF000000FF000000FF000000FF000000FF000000FF00
310
0000FF000000FFD6D6D6FFD6D6D6FFD6D6D6FFD6D6D6FFD6D6D6FFD6D6D6FF000000FF000000FF000000FFD6D6D6FFD6D6D6FFD6D6D6FFD6D6D6FFD6D6D6FFD6D6D6FFD6D6D6FFD6D6D6FF000000FF000000FF000000FFD6D6D6FFD6D6D6FFD6D6D6FFD6D6D6FF000000FF000000FF000000FFD6D6D6FFD6D6D6FF000000FF
310
000000FFD6D6D6FFD6D6D6FFD6D6D6FFD6D6D6FFD6D6D6FF000000FF000000FF000000FF000000FFD6D6D6FFD6D6D6FFD6D6D6FFD6D6D6FFD6D6D6FFD6D6D6FFD6D6D6FFD6D6D6FF000000FF000000FFD6D6D6FF000000FF000000FF000000FFD6D6D6FFD6D6D6FF000000FF000000FF000000FF000000FF000000FF000000
310
FF000000FF000000FFD6D6D6FFD6D6D6FFD6D6D6FF000000FF000000FF000000FFD6D6D6FFD6D6D6FFD6D6D6FFD6D6D6FFD6D6D6FFD6D6D6FFD6D6D6FFD6D6D6FFD6D6D6FFD6D6D6FFD6D6D6FF000000FF000000FF000000FF000000FF000000FF000000FF000000FF000000FF000000FF000000FF000000FFD6D6D6FF0000
310
00FF000000FFD6D6D6FFD6D6D6FFD6D6D6FF000000FF000000FF000000FFD6D6D6FFD6D6D6FFD6D6D6FFD6D6D6FFD6D6D6FFD6D6D6FFD6D6D6FFD6D6D6FFD6D6D6FFD6D6D6FFD6D6D6FFD6D6D6FFD6D6D6FFD6D6D6FFD6D6D6FFD6D6D6FFD6D6D6FFD6D6D6FFD6D6D6FF000000FF000000FFD6D6D6FFD6D6D6FFD6D6D6FFD6
310
D6D6FF000000FF000000FFD6D6D6FFD6D6D6FF000000FF000000FF000000FFD6D6D6FFD6D6D6FFD6D6D6FFD6D6D6FFD6D6D6FFD6D6D6FFD6D6D6FFD6D6D6FFD6D6D6FFD6D6D6FFD6D6D6FFD6D6D6FFD6D6D6FFD6D6D6FFD6D6D6FFD6D6D6FFD6D6D6FFD6D6D6FFD6D6D6FFD6D6D6FFD6D6D6FFD6D6D6FFD6D6D6FFD6D6D6FF
310
D6D6D6FFD6D6D6FFD6D6D6FF000000FF000000FF000000FF000000FFD6D6D6FFD6D6D6FFD6D6D6FFD6D6D6FFD6D6D6FFD6D6D6FFD6D6D6FFD6D6D6FFD6D6D6FFD6D6D6FFD6D6D6FFD6D6D6FFD6D6D6FFD6D6D6FFD6D6D6FFD6D6D6FFD6D6D6FFD6D6D6FFD6D6D6FFD6D6D6FFD6D6D6FFD6D6D6FFD6D6D6FFD6D6D6FFD6D6D6
310
FFD6D6D6FFD6D6D6FFD6D6D6FFD6D6D6FFD6D6D6FF000000FF000000FFD6D6D6FFD6D6D6FFD6D6D6FFD6D6D6FFD6D6D6FFD6D6D6FFD6D6D6FFD6D6D6FFD6D6D6FFD6D6D6FFD6D6D6FFD6D6D6FFD6D6D6FFD6D6D6FFD6D6D6FFD6D6D6FFD6D6D6FFD6D6D6FFD6D6D6FFD6D6D6FFD6D6D6FFD6D6D6FFD6D6D6FFD6D6D6FFD6D6
310
D6FFD6D6D6FFD6D6D6FFD6D6D6FFD6D6D6FFD6D6D6FFD6D6D6FFD6D6D6FFD6D6D6FFD6D6D6FFD6D6D6FFD6D6D6FFD6D6D6FFD6D6D6FFD6D6D6FFD6D6D6FFD6D6D6FFD6D6D6FFD6D6D6FFD6D6D6FFD6D6D6FFD6D6D6FFD6D6D6FFD6D6D6FFD6D6D6FFD6D6D6FFD6D6D6FFD6D6D6FFD6D6D6FFD6D6D6FFD6D6D6FFD6D6D6FFD6
310
D6D6FFD6D6D6FFD6D6D6FFD6D6D6FFD6D6D6FFD6D6D6FFD6D6D6FFD6D6D6FFD6D6D6FFD6D6D6FFD6D6D6FFD6D6D6FFD6D6D6FFD6D6D6FFD6D6D6FFD6D6D6FFD6D6D6FFD6D6D6FFD6D6D6FFD6D6D6FFD6D6D6FFD6D6D6FFD6D6D6FFD6D6D6FFD6D6D6FFD6D6D6FFD6D6D6FFD6D6D6FFD6D6D6FFD6D6D6FFD6D6D6FFD6D6D6FF
310
D6D6D6FFD6D6D6FFD6D6D6FFD6D6D6FFD6D6D6FFD6D6D6FFD6D6D6FFD6D6D6FFD6D6D6FFD6D6D6FFD6D6D6FFD6D6D6FFD6D6D6FFD6D6D6FFD6D6D6FFD6D6D6FFD6D6D6FFD6D6D6FF
102
{BLKREFS
331
15CF
102
}
 70
     0
280
     1
281
     0
1001
AcDbDynamicBlockGUID
1000
{27D989D9-25A0-B84D-AA21-A96C58BA39C1}
  0
ENDTAB
  0
ENDSEC
  0
SECTION
  2
BLOCKS
  0
BLOCK
  5
70
330
6F
100
AcDbEntity
  8
0
100
AcDbBlockBegin
  2
*Model_Space
 70
     0
 10
0.0
 20
0.0
 30
0.0
  3
*Model_Space
  1

  0
ENDBLK
  5
71
330
6F
100
AcDbEntity
  8
0
100
AcDbBlockEnd
  0
BLOCK
  5
6C
330
6B
100
AcDbEntity
 67
     1
  8
0
100
AcDbBlockBegin
  2
*Paper_Space
 70
     0
 10
0.0
 20
0.0
 30
0.0
  3
*Paper_Space
  1

  0
ENDBLK
  5
6D
330
6B
100
AcDbEntity
 67
     1
  8
0
100
AcDbBlockEnd
  0
BLOCK
  5
15BC
330
15BB
100
AcDbEntity
  8
0
100
AcDbBlockBegin
  2
Vue de dessus Erable
 70
     0
 10
0.0
 20
0.0
 30
0.0
  3
Vue de dessus Erable
  1

  0
LWPOLYLINE
  5
15D3
330
15BB
100
AcDbEntity
  8
0
  6
ByBlock
 62
     0
370
    -2
100
AcDbPolyline
 90
       62
 70
     1
 43
0.0
 10
-364.7740512279138
 20
-1656.513160871274
 10
-360.4402061337641
 20
-1661.983048645309
 10
-360.1714426598564
 20
-1668.864655414265
 10
-357.5962048756683
 20
-1677.924761305084
 10
-347.7100242065471
 20
-1688.628409778484
 10
-336.2220700934881
 20
-1704.26591848308
 10
-328.7045014136238
 20
-1726.764840671423
 10
-326.3945025280082
 20
-1750.325107909896
 10
-330.5292188521116
 20
-1769.146671237669
 10
-333.5509872275311
 20
-1780.953745464509
 10
-327.2112303661938
 20
-1790.359902340317
 10
-319.2767686843818
 20
-1798.86992133254
 10
-317.3800019158361
 20
-1805.022155207808
 10
-321.1802730389277
 20
-1807.308961998262
 10
-330.3368860864407
 20
-1804.222699736044
 10
-347.6018333747088
 20
-1797.745562327799
 10
-350.6332407821228
 20
-1800.778800177653
 10
-351.3989888510946
 20
-1808.275747170887
 10
-353.2438022108313
 20
-1814.013346888067
 10
-358.327486102964
 20
-1816.885038456255
 10
-375.5068894163823
 20
-1814.911763088305
 10
-397.5280661280667
 20
-1804.117936115581
 10
-418.9818446291492
 20
-1786.265650477798
 10
-435.9556931511916
 20
-1763.594335662697
 10
-438.6184027166282
 20
-1754.527570077045
 10
-437.9418595073843
 20
-1745.817604457515
 10
-437.941976344136
 20
-1732.767445613673
 10
-443.6101166125817
 20
-1722.331392246667
 10
-453.1230817520031
 20
-1716.466596252747
 10
-464.657634256097
 20
-1717.13026794654
 10
-472.4846450721639
 20
-1716.932755418222
 10
-475.0512953551206
 20
-1708.15173358102
 10
-473.7121514556397
 20
-1694.07748113797
 10
-469.9540778726123
 20
-1683.113851419812
 10
-464.1660241515997
 20
-1675.996331776897
 10
-456.737017729331
 20
-1673.460390086779
 10
-450.933950485758
 20
-1671.447604424048
 10
-450.9940435215844
 20
-1666.61141971706
 10
-451.6857365629321
 20
-1664.068604131398
 10
-449.5823634722478
 20
-1663.229872038357
 10
-437.0831678026379
 20
-1666.659517513071
 10
-421.9177185194643
 20
-1670.332163958
 10
-410.9307019782263
 20
-1669.476042661786
 10
-409.105536665525
 20
-1668.940424047577
 10
-410.0548352710175
 20
-1670.492736600071
 10
-419.1947990814501
 20
-1678.660657584062
 10
-430.7786177490702
 20
-1691.888875637106
 10
-431.28566977755
 20
-1698.007421582373
 10
-428.7091662618886
 20
-1705.019203965231
 10
-424.9755505054968
 20
-1717.190380455158
 10
-425.4873344224111
 20
-1728.073490178777
 10
-424.6945386454795
 20
-1729.662080542594
 10
-419.9229841348324
 20
-1726.629173730204
 10
-401.5812109268694
 20
-1709.182175310392
 10
-384.4047090594449
 20
-1688.644727978102
 10
-380.9013395945681
 20
-1682.273308357124
 10
-381.6594543291121
 20
-1679.787275432664
 10
-384.6150931032135
 20
-1678.415923535368
 10
-380.5946820676081
 20
-1675.782306321042
 10
-374.5288489700347
 20
-1670.354479777526
 10
-372.0077066017657
 20
-1662.180561173627
 10
-369.8824266201855
 20
-1656.332823345418
  0
LWPOLYLINE
  5
15D4
330
15BB
100
AcDbEntity
  8
0
  6
ByBlock
 62
     0
370
    -2
100
AcDbPolyline
 90
      557
 70
     1
 43
0.0
 10
-1070.532893826889
 20
1112.223419766809
 10
-1085.206733005565
 20
1104.6840610328
 10
-1099.270470140986
 20
1097.923555556718
 10
-1109.696767639246
 20
1101.194322522259
 10
-1117.046344543324
 20
1105.373592594246
 10
-1122.185642729144
 20
1105.0344155048
 10
-1123.867819330869
 20
1113.111320659417
 10
-1122.906953886984
 20
1137.541223311687
 10
-1118.610886009135
 20
1164.433032099244
 10
-1112.279716649029
 20
1178.428926027659
 10
-1108.346894231424
 20
1184.641603449008
 10
-1113.626162845476
 20
1194.228954653515
 10
-1118.862591317332
 20
1203.339495075376
 10
-1118.288027119308
 20
1209.182286814439
 10
-1113.057167865938
 20
1210.359767595505
 10
-1104.324750117338
 20
1205.474433561742
 10
-1096.962282225018
 20
1201.390482806143
 10
-1097.936058129938
 20
1210.784624969343
 10
-1098.446225805123
 20
1217.661811414537
 10
-1096.092432610508
 20
1224.110732747307
 10
-1082.053601175937
 20
1236.937071320963
 10
-1056.786563199561
 20
1256.066480016002
 10
-1043.339256764765
 20
1272.136771520744
 10
-1041.362982586861
 20
1278.417350567473
 10
-1042.719613053476
 20
1283.204288583727
 10
-1047.535117655458
 20
1286.254623544876
 10
-1055.93548535645
 20
1287.325393426287
 10
-1063.234413528777
 20
1292.380549678276
 10
-1065.834537541022
 20
1306.560188871129
 10
-1068.355679909291
 20
1322.68652307098
 10
-1074.421513006864
 20
1334.44378589612
 10
-1078.899612543465
 20
1340.458093986307
 10
-1070.986726715086
 20
1338.517455017594
 10
-1062.173049005856
 20
1330.059292070219
 10
-1058.964964957465
 20
1314.810557656059
 10
-1055.155794768472
 20
1298.640429147207
 10
-1040.341556760143
 20
1291.00748417529
 10
-1024.249572565217
 20
1289.983059538619
 10
-1013.825008145437
 20
1297.135143387172
 10
-1001.172970532145
 20
1304.932964488167
 10
-980.9266219660813
 20
1307.934111176958
 10
-964.0034221757902
 20
1310.485825828521
 10
-956.029567035949
 20
1317.028567072703
 10
-957.6877142124597
 20
1325.893633479776
 10
-969.6605213712246
 20
1335.412401511186
 10
-979.2068628759755
 20
1343.056095464235
 10
-982.9222326263495
 20
1351.670955968088
 10
-980.6713726097573
 20
1359.72167021759
 10
-972.3190442864009
 20
1365.672866989203
 10
-965.2425343432426
 20
1371.010534506186
 10
-969.0422602281604
 20
1379.315836037085
 10
-976.0911966979774
 20
1385.107531170184
 10
-988.0804194203205
 20
1390.331204963342
 10
-1034.62607813457
 20
1401.717511102643
 10
-1045.000947989403
 20
1405.682015752683
 10
-1052.326378631516
 20
1412.041615388973
 10
-1055.665319841525
 20
1419.574645465612
 10
-1054.080701927258
 20
1427.059363545527
 10
-1054.161747687176
 20
1429.35789295671
 10
-1057.676060861105
 20
1430.495863442994
 10
-1073.425421282418
 20
1429.12024700427
 10
-1086.861005096486
 20
1427.352292754193
 10
-1095.682822432733
 20
1429.907668290636
 10
-1103.129023330256
 20
1439.131248269519
 10
-1112.437718882567
 20
1457.367926819556
 10
-1138.432182473441
 20
1507.15171610011
 10
-1144.915336974384
 20
1525.624852762281
 10
-1145.597137837443
 20
1546.060983158276
 10
-1146.201670662213
 20
1565.445193335426
 10
-1155.338207261269
 20
1579.460832674834
 10
-1163.093830822203
 20
1585.553285078946
 10
-1170.142981492731
 20
1587.086066421156
 10
-1194.30928096095
 20
1575.112402459547
 10
-1225.788236919789
 20
1554.264110950038
 10
-1258.168822089531
 20
1525.981204854189
 10
-1278.791287631289
 20
1502.281181388197
 10
-1276.526913497113
 20
1501.193217031532
 10
-1271.083625556824
 20
1505.241980452155
 10
-1263.025842683861
 20
1509.364156298269
 10
-1254.242873567469
 20
1509.217740375916
 10
-1248.19055458748
 20
1505.663157468323
 10
-1248.324741596515
 20
1499.560832358714
 10
-1255.697510595754
 20
1495.219276038969
 10
-1268.088495960734
 20
1493.412570932997
 10
-1280.292406213857
 20
1497.561366085648
 10
-1287.839378809502
 20
1507.148288888735
 10
-1288.911356004012
 20
1517.884125887157
 10
-1281.690241108148
 20
1525.479741516986
 10
-1273.269115410982
 20
1530.997824450993
 10
-1273.828880287156
 20
1537.696406448811
 10
-1283.416543056335
 20
1545.645686925264
 10
-1302.079130510975
 20
1554.91584582239
 10
-1324.618205596232
 20
1566.054866977258
 10
-1336.461343433685
 20
1574.679619659401
 10
-1348.885607800034
 20
1582.161650494035
 10
-1370.881333572695
 20
1586.301215543323
 10
-1396.148702586534
 20
1586.517383006288
 10
-1418.387877203622
 20
1582.22927950033
 10
-1440.490722804567
 20
1577.351870892873
 10
-1457.997833732997
 20
1585.107630763349
 10
-1477.823414211523
 20
1596.195107438039
 10
-1517.055540159516
 20
1562.705955697793
 10
-1545.174426929126
 20
1539.223599099743
 10
-1568.125663127898
 20
1526.403686547416
 10
-1586.772263420382
 20
1523.929356770892
 10
-1601.977203525543
 20
1531.483748500254
 10
-1613.559736988898
 20
1538.093125638342
 10
-1626.334978956589
 20
1538.427161910723
 10
-1639.772295849136
 20
1532.59661855777
 10
-1653.340995668683
 20
1520.712256819849
 10
-1666.625022743334
 20
1511.136920327948
 10
-1681.320768812906
 20
1507.15171610011
 10
-1693.558912234203
 20
1505.291772381062
 10
-1700.933394839131
 20
1500.824830754224
 10
-1712.647739630907
 20
1492.935137021008
 10
-1735.315607761841
 20
1482.860907600435
 10
-1752.877885109745
 20
1476.572033144354
 10
-1764.057896491579
 20
1474.741064939663
 10
-1772.950341644075
 20
1477.572837284442
 10
-1783.649920303966
 20
1485.272126058385
 10
-1794.073530556943
 20
1492.7270118211
 10
-1802.497440863351
 20
1495.66150314319
 10
-1812.071589514946
 20
1494.359610694628
 10
-1825.945875857899
 20
1489.105345145385
 10
-1854.418096436671
 20
1480.937755198855
 10
-1866.13818570206
 20
1480.907708680941
 10
-1876.396024077528
 20
1483.674091390495
 10
-1885.352924171238
 20
1489.30733641584
 10
-1893.170218064143
 20
1497.877896318106
 10
-1906.031354516938
 20
1524.112693106702
 10
-1916.524307381898
 20
1525.840825497328
 10
-1936.92295265347
 20
1521.306469064908
 10
-1956.805121065279
 20
1513.660204703326
 10
-1965.748545986989
 20
1506.052593833681
 10
-1963.224833210188
 20
1501.897353186908
 10
-1957.161570521147
 20
1500.014236845489
 10
-1954.430355673779
 20
1499.00412471087
 10
-1956.806717834216
 20
1496.636019014203
 10
-1972.046222145014
 20
1489.666083661154
 10
-1993.208161913778
 20
1482.785022130372
 10
-2010.620596127954
 20
1479.673425765883
 10
-2034.343383287686
 20
1483.982696196645
 10
-2061.041535159723
 20
1495.146272542108
 10
-2085.604125416051
 20
1510.517919218791
 10
-2102.920169310285
 20
1527.45130327925
 10
-2111.92296677452
 20
1539.38364597643
 10
-2118.484908191522
 20
1544.529915421755
 10
-2125.307025581201
 20
1543.778246181332
 10
-2135.090370436258
 20
1538.016714402897
 10
-2150.388059449276
 20
1530.808802059947
 10
-2163.578500286019
 20
1528.92825612706
 10
-2182.545389059798
 20
1526.276607107427
 10
-2188.230918531417
 20
1527.247247892851
 10
-2198.337667514475
 20
1533.268975116753
 10
-2226.098469113697
 20
1556.495848684977
 10
-2258.370006648758
 20
1584.077189033979
 10
-2266.358894783952
 20
1585.326154434137
 10
-2273.258085484
 20
1580.415700498812
 10
-2280.376150365089
 20
1567.872827356954
 10
-2283.822639804804
 20
1549.627132904263
 10
-2283.414003266625
 20
1528.059574880066
 10
-2278.966709686821
 20
1505.551111023687
 10
-2277.179224226461
 20
1494.436236130784
 10
-2280.48917044932
 20
1483.837253913887
 10
-2310.230140784829
 20
1450.3609542163
 10
-2331.63776876909
 20
1429.885878236491
 10
-2346.452532542801
 20
1419.331956060068
 10
-2360.534398847487
 20
1415.853278095329
 10
-2379.743334424677
 20
1416.603876332197
 10
-2407.376199781067
 20
1422.011957464718
 10
-2416.288390344557
 20
1427.042831145198
 10
-2422.870505573975
 20
1434.004510034477
 10
-2431.344675156296
 20
1442.310785204973
 10
-2438.430960440993
 20
1440.493681628122
 10
-2444.555075604745
 20
1428.095277129425
 10
-2450.142715351445
 20
1404.65768847997
 10
-2450.990249146429
 20
1382.816751930183
 10
-2446.816665129678
 20
1376.118169932366
 10
-2438.807914746739
 20
1369.863314443746
 10
-2396.22687751928
 20
1335.507720827573
 10
-2382.884237340987
 20
1319.889412295798
 10
-2377.922901000409
 20
1308.421846195866
 10
-2372.741307910565
 20
1294.034393367774
 10
-2359.428285848764
 20
1279.904546103827
 10
-2341.331480362997
 20
1268.729461338346
 10
-2321.798498055674
 20
1263.206315478444
 10
-2274.927390570274
 20
1255.024666176158
 10
-2261.787520574114
 20
1250.902607166793
 10
-2253.994957126932
 20
1245.083533288273
 10
-2249.560320861869
 20
1234.976570104504
 10
-2246.494232412068
 20
1217.990804233814
 10
-2238.597664783307
 20
1186.110825598431
 10
-2225.837436338177
 20
1153.00464525663
 10
-2209.015572956973
 20
1125.347750475026
 10
-2200.598848110778
 20
1119.382805912326
 10
-2190.369829467333
 20
1116.815727227947
 10
-2179.640301653488
 20
1116.1490567242
 10
-2174.1344476328
 20
1118.628449426619
 10
-2172.452796796457
 20
1126.212342435721
 10
-2173.195898008441
 20
1140.859231270396
 10
-2172.324315315451
 20
1162.69502700312
 10
-2167.978358144735
 20
1166.353828293004
 10
-2159.958235651321
 20
1167.307099348045
 10
-2146.681062999422
 20
1169.910650571668
 10
-2136.258212185329
 20
1175.894055341096
 10
-2126.591217261919
 20
1182.14988446931
 10
-2114.333971031761
 20
1183.749418542179
 10
-2098.882369071506
 20
1180.660469034679
 10
-2079.6323264306
 20
1172.850827948994
 10
-2062.84522198295
 20
1163.091648828693
 10
-2053.397432278043
 20
1153.012375955017
 10
-2050.925672910052
 20
1141.965772670542
 10
-2055.066737364317
 20
1129.304621790637
 10
-2059.340684150559
 20
1123.158930773451
 10
-2064.57421117642
 20
1120.161211296037
 10
-2082.531279907458
 20
1122.455651420918
 10
-2100.555315569867
 20
1124.726042647794
 10
-2105.814624572213
 20
1121.620989141387
 10
-2110.181300793519
 20
1115.270074370287
 10
-2112.470911666007
 20
1098.780105254354
 10
-2106.642627156913
 20
1076.846848198132
 10
-2094.007005107199
 20
1052.736786152943
 10
-2075.874661776202
 20
1029.716421542899
 10
-2061.29314310396
 20
1012.076214081781
 10
-2053.898895615246
 20
998.6041187828863
 10
-2060.653403471421
 20
982.4881051627468
 10
-2080.092585340126
 20
958.4789511252234
 10
-2106.339494205289
 20
935.0854878222303
 10
-2114.719084437316
 20
933.5253472073905
 10
-2123.6113153891
 20
936.9016177594863
 10
-2135.262977263726
 20
941.5703559288617
 10
-2142.138566939983
 20
941.483624113705
 10
-2143.5250297238
 20
934.2515849815823
 10
-2140.865104767606
 20
923.5050963659864
 10
-2135.846791037906
 20
913.7517006648828
 10
-2130.158029082831
 20
909.4989013306516
 10
-2125.631831750218
 20
905.4630288982721
 10
-2123.7487154088
 20
895.7597561635379
 10
-2122.647217461758
 20
888.723924882675
 10
-2118.373270675516
 20
884.5443237732247
 10
-2094.491196077981
 20
882.0206109964233
 10
-2069.785656056259
 20
885.0492337945947
 10
-2062.191870868868
 20
889.2919462226169
 10
-2056.646720754111
 20
895.7597561635379
 10
-2051.18209063389
 20
902.1435215345858
 10
-2043.760269671836
 20
906.3955809027234
 10
-2020.430346088838
 20
909.4989013306516
 10
-2003.843013013368
 20
910.2420999065948
 10
-1994.206609846045
 20
914.4862143756339
 10
-1988.415031549697
 20
925.2529741676067
 10
-1983.36213414157
 20
945.5641671307226
 10
-1976.224635414157
 20
960.6669140239532
 10
-1969.725591115017
 20
963.6251232065873
 10
-1960.122369585104
 20
964.4554819991085
 10
-1944.592837511635
 20
966.4914597570009
 10
-1934.086682093762
 20
971.3868806969717
 10
-1914.5121643213
 20
977.229341398573
 10
-1879.416059374468
 20
978.7021075961243
 10
-1839.972789943822
 20
975.9900345032024
 10
-1807.356817665501
 20
969.2779189150101
 10
-1769.757056917534
 20
961.7814976871573
 10
-1722.290899857022
 20
958.3346966827717
 10
-1684.553330160725
 20
959.8921500523287
 10
-1660.069741021165
 20
966.1213598740054
 10
-1646.843664975231
 20
977.9818869146325
 10
-1642.87863455981
 20
996.4333503594103
 10
-1639.770153842026
 20
1008.702397101465
 10
-1629.840178863905
 20
1012.542490084006
 10
-1611.440902501439
 20
1007.681613876879
 10
-1587.533922203053
 20
995.6502130872655
 10
-1564.652242816975
 20
980.2750418352475
 10
-1549.328791300264
 20
965.3828737137041
 10
-1539.346453984703
 20
954.666236888103
 10
-1529.539274432351
 20
951.5020445126706
 10
-1519.683159753935
 20
955.9051153820515
 10
-1509.5539781146
 20
967.890268290886
 10
-1498.575529601801
 20
980.019364077501
 10
-1487.983518644407
 20
985.0641997497792
 10
-1479.145694673212
 20
980.404905884478
 10
-1471.564372072643
 20
968.0225080207305
 10
-1466.26417020729
 20
950.3101733383859
 10
-1464.269747387328
 20
929.6610884900914
 10
-1465.116307542716
 20
917.0343849790711
 10
-1470.820745095278
 20
910.283752208485
 10
-1486.13011778344
 20
907.1834305905099
 10
-1515.791541764006
 20
905.5076800101145
 10
-1573.929587174315
 20
898.3573097672511
 10
-1589.437114992928
 20
892.2237502994244
 10
-1594.791626474911
 20
884.6791339115993
 10
-1591.980261616052
 20
877.9495317562746
 10
-1585.222307075709
 20
875.1510384128664
 10
-1576.999200199451
 20
873.3508372193906
 10
-1571.958784850937
 20
868.3450055493045
 10
-1569.968276062149
 20
860.7257499500997
 10
-1570.894966756236
 20
851.0851990780988
 10
-1580.968865139346
 20
828.1090571784783
 10
-1601.118511820797
 20
804.1539985568729
 10
-1616.055525782103
 20
788.5557859463456
 10
-1622.269916809139
 20
778.3931111049301
 10
-1626.615893452647
 20
773.0442856781833
 10
-1639.473894785945
 20
773.1052549896462
 10
-1689.646692030436
 20
789.2813811184046
 10
-1724.769085246343
 20
801.4104769050186
 10
-1749.865366310482
 20
806.4553125772969
 10
-1764.28973955203
 20
809.8316999661451
 10
-1771.4083301985
 20
820.1944577444105
 10
-1777.676388240034
 20
830.2010581586879
 10
-1788.27486416434
 20
833.3977700966055
 10
-1801.42106281787
 20
829.8142116746525
 10
-1815.332386411031
 20
819.4800204821154
 10
-1825.747506526736
 20
803.6568192338886
 10
-1825.636745286366
 20
784.2734658595832
 10
-1821.487521732292
 20
750.640040204094
 10
-1818.733679500728
 20
741.5438707026619
 10
-1812.110554571553
 20
737.7595867417271
 10
-1800.356718957788
 20
733.7237143093466
 10
-1785.264273171476
 20
724.0204415746124
 10
-1766.900184143987
 20
714.3171688398792
 10
-1747.26865003682
 20
710.2812964074987
 10
-1727.515410980231
 20
703.8196009232374
 10
-1706.897891527617
 20
687.8779077362537
 10
-1690.672616072085
 20
667.6212580632705
 10
-1684.096070061152
 20
648.214712593804
 10
-1687.82495392911
 20
639.3424412537237
 10
-1696.6158679446
 20
634.7658093900713
 10
-1706.875147306669
 20
635.2563290182229
 10
-1715.009146687158
 20
641.5855705719291
 10
-1721.420173966877
 20
646.3736574829049
 10
-1730.870981954529
 20
648.2353148076422
 10
-1738.196529433393
 20
646.3212756726748
 10
-1729.153598545036
 20
637.9309559323068
 10
-1720.133840279049
 20
629.5913043964815
 10
-1727.436195662751
 20
627.8464254048153
 10
-1735.640199730148
 20
625.7082739077836
 10
-1739.052650729608
 20
620.5715461304939
 10
-1741.245754445403
 20
616.7898520508838
 10
-1746.519882242391
 20
617.9130232153188
 10
-1750.802202329153
 20
624.966360536107
 10
-1750.607279682159
 20
635.4510374645055
 10
-1750.190912445592
 20
641.0008999949054
 10
-1753.835109141544
 20
641.5898545861487
 10
-1777.872596091294
 20
626.3625986614601
 10
-1804.912962808313
 20
610.0877260049396
 10
-1813.049746798046
 20
609.3014730860891
 10
-1820.154823326932
 20
612.5822295938783
 10
-1843.225213539386
 20
627.6673925560175
 10
-1860.863902122735
 20
636.1860769406398
 10
-1874.339658306509
 20
638.5839954817178
 10
-1884.921153956272
 20
635.3067830220547
 10
-1900.66107007351
 20
630.8192391813786
 10
-1921.027624184018
 20
631.7208683922813
 10
-1934.197034405502
 20
633.530455471457
 10
-1942.510495036211
 20
631.6890887958884
 10
-1948.590504326293
 20
624.5654546963146
 10
-1955.059482634728
 20
610.5282395034723
 10
-1962.850449312974
 20
588.8166217647417
 10
-1964.597898713172
 20
572.6777470869015
 10
-1959.982399156873
 20
558.7555966214417
 10
-1948.684518965623
 20
543.6941709926381
 10
-1933.775195314409
 20
531.6180996183861
 10
-1917.465758452252
 20
525.4142238989811
 10
-1903.356299201432
 20
525.7742368757676
 10
-1895.046908384232
 20
533.3898121173028
 10
-1890.710492881551
 20
538.5419818185742
 10
-1882.798463856016
 20
533.3898121173028
 10
-1872.737105950894
 20
527.323979019729
 10
-1861.331034927806
 20
524.8028366514604
 10
-1851.836004229731
 20
523.5264925058804
 10
-1850.458226311106
 20
518.7550353591936
 10
-1874.383238414798
 20
493.072272748383
 10
-1896.200126066579
 20
476.9219091233185
 10
-1911.58195701343
 20
473.5283467320082
 10
-1922.977298528177
 20
472.0753259454518
 10
-1933.221116493472
 20
462.9140004822962
 10
-1939.78629039393
 20
449.4441640272639
 10
-1940.145641295792
 20
435.0656102650741
 10
-1941.126271623464
 20
420.4471517065835
 10
-1948.361660075796
 20
403.9533075050607
 10
-1955.61850754481
 20
386.8497896617069
 10
-1956.213576592712
 20
370.8488407689488
 10
-1948.554654916391
 20
357.5391485545638
 10
-1935.433128290209
 20
346.6928618804409
 10
-1921.368748552655
 20
341.0515356464525
 10
-1910.881267542221
 20
343.3568221164264
 10
-1905.002314828584
 20
355.5066174808385
 10
-1902.949493105692
 20
373.0462479717539
 10
-1904.759508586289
 20
390.9503896543879
 10
-1910.469086955914
 20
404.1937575395354
 10
-1916.034313519128
 20
414.6887355748544
 10
-1912.083439823424
 20
423.2155985320782
 10
-1907.198748391795
 20
425.632931446688
 10
-1900.719449503649
 20
424.0373698233675
 10
-1880.277321487746
 20
407.4705415977764
 10
-1856.638267333217
 20
389.3657717401207
 10
-1833.983270717734
 20
383.9765986885418
 10
-1814.702110555359
 20
380.2807601484506
 10
-1803.159496315416
 20
366.9194455627189
 10
-1793.485432768543
 20
352.2443211797768
 10
-1782.275997998137
 20
340.9181080763015
 10
-1771.469299509963
 20
326.1107634363084
 10
-1762.780150304982
 20
303.0805066479747
 10
-1751.918499598045
 20
277.2603634902575
 10
-1732.478460926496
 20
258.6069087750225
 10
-1710.403091434933
 20
247.0205002260787
 10
-1702.599058513317
 20
248.246195639907
 10
-1693.108954431596
 20
253.6676740532598
 10
-1683.777280984834
 20
259.0856278912775
 10
-1676.314567159774
 20
260.7759635928119
 10
-1657.201690865063
 20
252.7059323337375
 10
-1640.887210549802
 20
246.1573103064015
 10
-1626.962684403728
 20
245.6405803003431
 10
-1618.387431558614
 20
250.5748689329607
 10
-1618.120693255065
 20
260.3792444032793
 10
-1626.096262000594
 20
280.0330943299718
 10
-1626.935558804601
 20
285.6602638442441
 10
-1624.62499520802
 20
289.8249293223011
 10
-1612.558913376018
 20
293.6666190737792
 10
-1593.907055429719
 20
291.35790539243
 10
-1572.678479767048
 20
282.6984911406912
 10
-1557.467094167764
 20
274.6356453418325
 10
-1547.230150098013
 20
271.6084245846782
 10
-1538.152421330517
 20
273.3637020472247
 10
-1526.41877900196
 20
279.6484093258382
 10
-1506.832752809481
 20
287.6325655725991
 10
-1488.313251429778
 20
283.1175261497497
 10
-1471.178810792874
 20
278.2770574285428
 10
-1456.981139794713
 20
283.0350978216052
 10
-1444.62952841497
 20
289.0950306632308
 10
-1433.848709267241
 20
290.7710928082956
 10
-1424.434490655583
 20
288.0536452248075
 10
-1416.182739302429
 20
280.9330099351869
 10
-1406.587014797401
 20
273.19572974423
 10
-1394.194958428867
 20
271.5199791638347
 10
-1376.952112759413
 20
276.1066979336961
 10
-1352.804059297212
 20
287.1568452662982
 10
-1329.348769879914
 20
301.2781050290127
 10
-1327.844652487392
 20
305.3926670134929
 10
-1332.195341546541
 20
308.5418263935712
 10
-1339.06748453863
 20
313.031083839935
 10
-1335.465251709238
 20
316.6547951587995
 10
-1329.399438084457
 20
323.6780664888834
 10
-1326.878295716188
 20
336.0544667327236
 10
-1324.464604213665
 20
350.0397285167578
 10
-1318.264700943809
 20
357.0367115777658
 10
-1309.840362235978
 20
356.3711120775738
 10
-1300.753306001158
 20
347.3686456508008
 10
-1293.930857574017
 20
339.6980987177108
 10
-1286.124994209962
 20
335.0607312160987
 10
-1269.896914672395
 20
334.2151252275139
 10
-1256.736948754987
 20
343.4909896526692
 10
-1252.766232284329
 20
351.5054455636368
 10
-1251.312997297061
 20
361.5474475136021
 10
-1248.026768934745
 20
375.4660539309366
 10
-1240.129325030349
 20
391.2240018534808
 10
-1234.039131470099
 20
407.8600558543034
 10
-1232.053296151369
 20
430.285254052485
 10
-1234.162141096579
 20
454.571661701189
 10
-1240.356027273737
 20
476.7914024719543
 10
-1237.889428195601
 20
489.1470641924138
 10
-1226.754282126322
 20
506.4481919280465
 10
-1211.317051086495
 20
523.1117415110416
 10
-1195.944236042298
 20
533.5546687735918
 10
-1190.782622036952
 20
536.7301358955378
 10
-1198.073800038099
 20
537.9992945809021
 10
-1205.868739165894
 20
540.4684640675709
 10
-1209.890338041806
 20
545.3514418935124
 10
-1209.255641862372
 20
550.1287992961484
 10
-1203.081734769711
 20
552.2811269856879
 10
-1195.826600906385
 20
557.3259626579652
 10
-1188.236573967833
 20
569.455058444581
 10
-1180.825930388333
 20
582.586360412301
 10
-1175.480649009714
 20
585.6818527778828
 10
-1172.630299621457
 20
578.9328167762337
 10
-1172.704471485833
 20
562.5305336422602
 10
-1172.215022861236
 20
546.6171733675023
 10
-1170.621700608986
 20
542.6978650674804
 10
-1168.314817370076
 20
542.3271225823523
 10
-1163.860766731482
 20
548.7192612539216
 10
-1162.00855371082
 20
558.6148667543262
 10
-1155.820781990322
 20
575.2040302722348
 10
-1140.946450946166
 20
597.7027382598675
 10
-1128.300410952782
 20
616.6721974421776
 10
-1127.216204844954
 20
621.4526704915183
 10
-1129.858954798685
 20
622.5705840021387
 10
-1138.168559816596
 20
624.5619106481877
 10
-1144.133932780719
 20
631.9269489490393
 10
-1145.110259621379
 20
639.4912133838984
 10
-1139.270271964349
 20
639.6002610185801
 10
-1130.403375114836
 20
640.9552947162579
 10
-1121.958940485757
 20
649.1421043084005
 10
-1113.513668526626
 20
658.3602124327567
 10
-1104.661356798251
 20
662.1942883225997
 10
-1090.858457710432
 20
654.7309318954062
 10
-1073.442596284881
 20
637.6664764726179
 10
-1059.437472253102
 20
618.9894012607988
 10
-1055.866785346601
 20
606.6881465209294
 10
-1058.098639918291
 20
595.7345063450206
 10
-1055.668435488231
 20
582.2659550942539
 10
-1050.050301349403
 20
570.8415407011885
 10
-1042.718425213169
 20
566.0202721528016
 10
-1010.218471829034
 20
578.0420339104225
 10
-986.6412437888104
 20
586.5311001785544
 10
-962.7909487876676
 20
590.0637761952516
 10
-949.5553310736987
 20
590.6628176927029
 10
-942.0560083998518
 20
593.6093432001921
 10
-938.355126406657
 20
600.6273568764604
 10
-936.5148307346432
 20
613.4409407714169
 10
-938.3988233516975
 20
635.7988215279743
 10
-948.5365924922639
 20
656.1009791156452
 10
-958.0814345920378
 20
675.2353144270369
 10
-962.3066409801351
 20
696.9148215319115
 10
-960.9056709663475
 20
716.6596872879804
 10
-953.5719838604661
 20
729.9900985529553
 10
-945.7123366451623
 20
734.0431459877977
 10
-939.7641386835026
 20
733.0470542633515
 10
-933.6356226687787
 20
733.6953813971208
 10
-925.3586540501045
 20
741.6958558435003
 10
-914.7709271069306
 20
750.9792172935399
 10
-901.4731522411926
 20
746.3465622075687
 10
-885.8272702360766
 20
739.8723067725264
 10
-868.5198138430742
 20
739.4177339182374
 10
-847.811901690426
 20
745.2269156184688
 10
-821.9647108247492
 20
757.5439627925766
 10
-800.0275981557297
 20
772.3148154205359
 10
-787.0861753818999
 20
787.59318742398
 10
-783.709787993052
 20
802.3331367311826
 10
-790.4677230606035
 20
815.4887991615792
 10
-795.732387080725
 20
823.7503258562705
 10
-797.9212067822995
 20
833.1504656393795
 10
-802.3074336866805
 20
845.0279534817578
 10
-812.8556503350742
 20
859.2548531405714
 10
-821.0356055044648
 20
870.47972983496
 10
-821.6794149505119
 20
873.89605592001
 10
-819.7252229186311
 20
875.1510384128664
 10
-813.2072900113403
 20
878.0374319389451
 10
-812.1223244646278
 20
885.3875540811964
 10
-816.1354526760604
 20
895.237768503664
 10
-824.9117620976196
 20
905.6244583431848
 10
-839.0536240741733
 20
922.8121375931637
 10
-850.753364272019
 20
945.1313648577848
 10
-858.545187753109
 20
969.1044747574892
 10
-860.9632801066029
 20
991.2536850759648
 10
-862.5527272732636
 20
1010.668818046663
 10
-867.6198982378592
 20
1024.055895136089
 10
-881.2597516390367
 20
1030.862025363611
 10
-902.7431482566102
 20
1032.825759063527
 10
-925.9924739539028
 20
1030.055929669807
 10
-944.930056175861
 20
1022.661370616423
 10
-961.088150499313
 20
1016.029658186017
 10
-977.601740111829
 20
1018.512147062348
 10
-991.4347051903535
 20
1025.397921008773
 10
-1001.734546377966
 20
1035.121912794097
 10
-1010.004446373178
 20
1049.646454077216
 10
-1017.747529456123
 20
1070.933857044242
 10
-1033.224679719361
 20
1106.999122844312
 10
-1042.681933201135
 20
1113.463388737106
 10
-1055.737992300924
 20
1115.177344935222
  0
LWPOLYLINE
  5
15D5
330
15BB
100
AcDbEntity
  8
0
  6
ByBlock
 62
     0
370
    -2
100
AcDbPolyline
 90
       43
 70
     1
 43
0.0
 10
-118.3942595259263
 20
1449.223178457935
 10
-121.0765003016463
 20
1446.128971296618
 10
-127.9249254331916
 20
1445.325562848097
 10
-134.1968390875226
 20
1442.527926307533
 10
-134.0594585406152
 20
1435.021203972762
 10
-125.5472001773219
 20
1427.666466778829
 10
-110.2289089504661
 20
1424.716845097427
 10
-95.38462442422405
 20
1422.109847189637
 10
-90.35523067592885
 20
1414.412486222091
 10
-88.84048113902554
 20
1407.534326137303
 10
-85.20306097465709
 20
1405.468301861497
 10
-74.6758554687317
 20
1405.081669578173
 10
-62.82198812293791
 20
1400.556562721908
 10
-53.14233588478874
 20
1393.738729346449
 10
-49.13779517458761
 20
1386.473936978336
 10
-47.11984922200099
 20
1379.521936066635
 10
-42.26822259102982
 20
1376.629837012528
 10
-37.3547698457528
 20
1380.159942620692
 10
-35.19256945071538
 20
1388.651598770149
 10
-34.01271298903794
 20
1397.240268368886
 10
-27.97951629070122
 20
1388.651598770149
 10
-24.41936416462204
 20
1379.541681477628
 10
-28.18559684745878
 20
1376.629837012528
 10
-33.28110072428035
 20
1374.611891059941
 10
-35.39865000747295
 20
1369.760264428971
 10
-32.4532149763304
 20
1364.956813485179
 10
-25.60177156203963
 20
1363.054711171651
 10
-17.82167070167816
 20
1364.206546285773
 10
-12.0901854411577
 20
1368.564966043311
 10
-9.412988118541306
 20
1380.596795234346
 10
-14.4241358608192
 20
1392.910726761749
 10
-25.80594378519072
 20
1403.653223455004
 10
-42.24074648164878
 20
1410.970826034769
 10
-64.21220915559252
 20
1420.996977132121
 10
-76.63668772265328
 20
1438.50406858776
 10
-85.18674277503851
 20
1453.024637421332
 10
-93.78314307216397
 20
1459.064708015211
 10
-102.3890071461569
 20
1462.091617207695
 10
-110.9639484265999
 20
1469.369066890548
 10
-119.5356766963787
 20
1477.383074927301
 10
-125.7335353230851
 20
1479.341959902032
 10
-128.0414895655503
 20
1475.569067524364
 10
-124.943524155396
 20
1466.387665612752
  0
LWPOLYLINE
  5
15D6
330
15BB
100
AcDbEntity
  8
0
  6
ByBlock
 62
     0
370
    -2
100
AcDbPolyline
 90
       14
 70
     1
 43
0.0
 10
1743.526123156188
 20
-327.5255296828504
 10
1730.473062866352
 20
-341.7087323966243
 10
1724.32394463779
 20
-358.1704854370823
 10
1727.319931036723
 20
-373.331942797915
 10
1739.977128939871
 20
-383.7640431881636
 10
1759.527928851789
 20
-391.5672387797276
 10
1779.130253771095
 20
-394.8107438365978
 10
1791.942007223613
 20
-391.5637920955596
 10
1797.167180421746
 20
-376.9298916130865
 10
1800.398456565298
 20
-351.0745416476007
 10
1800.379762685068
 20
-329.3421074943212
 10
1795.596621863236
 20
-318.2096486703254
 10
1783.425231172597
 20
-315.5409220121896
 10
1761.241885049908
 20
-319.1997233020729
  0
LWPOLYLINE
  5
15D7
330
15BB
100
AcDbEntity
  8
0
  6
ByBlock
 62
     0
370
    -2
100
AcDbPolyline
 90
       77
 70
     1
 43
0.0
 10
-2117.56041792292
 20
-418.9448353070011
 10
-2129.102681652609
 20
-432.6747503707515
 10
-2133.492452605117
 20
-448.547977221388
 10
-2129.319939591922
 20
-463.9484825756776
 10
-2111.640981274907
 20
-478.1094668338842
 10
-2075.995743596283
 20
-496.8571698619521
 10
-2027.83713405554
 20
-517.6193721584382
 10
-1972.618118570546
 20
-537.8238736946923
 10
-1914.226751610311
 20
-560.362929307158
 10
-1866.83786258809
 20
-579.9386349199258
 10
-1823.864390185318
 20
-592.7392304626801
 10
-1822.945157570531
 20
-585.5364784095854
 10
-1826.526359784662
 20
-574.7272095128796
 10
-1832.492998480258
 20
-564.886556231238
 10
-1838.730153201034
 20
-560.5896315505451
 10
-1848.056354793271
 20
-557.3807880632698
 10
-1851.111694261939
 20
-549.499564994533
 10
-1847.916170164328
 20
-539.5639039611742
 10
-1838.489722639352
 20
-530.1917660528284
 10
-1818.983671203237
 20
-520.7433142729964
 10
-1805.629970479141
 20
-519.5525141022671
 10
-1802.47282725438
 20
-521.7071785268358
 10
-1802.308846873727
 20
-525.5103705687133
 10
-1812.900565739242
 20
-537.5078692276174
 10
-1821.381044506142
 20
-546.7895170719685
 10
-1813.457000768
 20
-555.7877968484818
 10
-1805.275331992921
 20
-568.6278832132252
 10
-1802.946541863114
 20
-588.4182763567737
 10
-1802.672618099351
 20
-604.8966591615212
 10
-1798.158454952138
 20
-596.6548778778237
 10
-1792.311593399565
 20
-585.7399885578106
 10
-1786.335919328523
 20
-581.1983493012166
 10
-1781.764116717264
 20
-582.2464917984316
 10
-1780.782726950708
 20
-585.873961366135
 10
-1790.072962296291
 20
-603.7649004958552
 10
-1795.65824583517
 20
-619.3607568985603
 10
-1796.062384158419
 20
-636.7663172171933
 10
-1791.890065873143
 20
-650.9208559812787
 10
-1783.746096423197
 20
-656.7636477203432
 10
-1774.65763814736
 20
-653.7394257731435
 10
-1766.80058081338
 20
-646.4343831441579
 10
-1762.207397076606
 20
-637.4999741251017
 10
-1762.910676429138
 20
-629.5876140621039
 10
-1763.14251948959
 20
-624.5230329788324
 10
-1757.469978370173
 20
-622.4157848025583
 10
-1747.941882871439
 20
-619.3304961799363
 10
-1738.887774600527
 20
-611.912199793217
 10
-1735.075917166251
 20
-605.9665917128804
 10
-1734.65869312684
 20
-600.3764789216079
 10
-1745.139086041019
 20
-585.4712250839034
 10
-1755.952658424737
 20
-569.1233489305204
 10
-1753.231452592411
 20
-551.4462210559454
 10
-1749.941991746638
 20
-538.7578082673699
 10
-1756.262645799113
 20
-528.9166097475554
 10
-1778.54732833089
 20
-517.1162925795074
 10
-1823.149952923022
 20
-498.5505238462319
 10
-1863.197852542398
 20
-484.7203628497418
 10
-1874.332356009543
 20
-483.6059739144575
 10
-1881.08106097373
 20
-486.0272987514081
 10
-1888.940708189034
 20
-489.4234315512504
 10
-1894.105768878549
 20
-482.7985930163868
 10
-1899.849599889139
 20
-476.3781214325936
 10
-1907.927361846599
 20
-475.8877965323618
 10
-1915.009888882457
 20
-475.6010012531474
 10
-1917.66153790209
 20
-468.5854411486598
 10
-1920.432555136116
 20
-460.7884768505059
 10
-1927.093457281592
 20
-457.5460427971907
 10
-1968.716199473697
 20
-443.3054148200812
 10
-1996.36623983255
 20
-433.6407955772847
 10
-2004.509683517115
 20
-433.8991411075217
 10
-2010.806074470874
 20
-437.2739317274335
 10
-2018.769628503795
 20
-441.3003598557383
 10
-2020.705126655445
 20
-432.2866186824503
 10
-2026.46268598433
 20
-420.3395740273785
 10
-2043.518982307309
 20
-410.839811440871
 10
-2070.603980663381
 20
-403.7298082956317
 10
-2100.275394186195
 20
-409.9742458405808
  0
LWPOLYLINE
  5
15D8
330
15BB
100
AcDbEntity
  8
0
  6
ByBlock
 62
     0
370
    -2
100
AcDbPolyline
 90
       31
 70
     1
 43
0.0
 10
-933.5514807349463
 20
875.8139506677757
 10
-934.2885648542301
 20
870.4533247291333
 10
-937.3048419023321
 20
867.0518174387249
 10
-944.3203825340278
 20
864.704138700768
 10
-950.4394542446766
 20
865.7053712422779
 10
-954.4476363669643
 20
866.5814521501983
 10
-955.6156728439539
 20
863.2340402757085
 10
-949.6425886542363
 20
848.387185340935
 10
-942.2698196549966
 20
842.8004997610374
 10
-933.0731705473215
 20
842.8297089488992
 10
-923.2488354652984
 20
842.7661497561134
 10
-914.3673340218549
 20
836.9630825125399
 10
-910.1743161587808
 20
830.5937075347124
 10
-911.5405077662217
 20
827.1378711548809
 10
-935.0516062051275
 20
826.9884564225753
 10
-948.2551522308241
 20
830.745147437377
 10
-959.2084613692703
 20
838.6950705159637
 10
-966.503728656718
 20
849.397550621849
 10
-968.7331296566283
 20
861.4118932457527
 10
-970.0271940428434
 20
883.0570503457025
 10
-973.6106356280442
 20
887.56145762417
 10
-979.5595735557967
 20
888.8901835799812
 10
-987.7987649581703
 20
890.9081295325673
 10
-993.7040254136741
 20
895.7597561635379
 10
-995.9096890802491
 20
903.9414249386178
 10
-992.0699271351692
 20
910.474371368468
 10
-982.8525784496962
 20
914.8022188427107
 10
-968.925481895091
 20
916.3684739142095
 10
-958.2935322414948
 20
915.427977010659
 10
-950.5751406586883
 20
912.0028686964573
 10
-939.0153514162818
 20
894.0767032861772
  0
LWPOLYLINE
  5
15D9
330
15BB
100
AcDbEntity
  8
0
  6
ByBlock
 62
     0
370
    -2
100
AcDbPolyline
 90
       17
 70
     1
 43
0.0
 10
-280.7110795666326
 20
-1504.173517856273
 10
-300.5985056322566
 20
-1520.083450919656
 10
-317.6702438792181
 20
-1531.272264003431
 10
-330.790271100424
 20
-1535.81476006287
 10
-342.0563716952806
 20
-1533.135946498526
 10
-352.2199033395409
 20
-1526.780416675744
 10
-359.0139020177048
 20
-1518.682149868405
 10
-360.1714426598564
 20
-1510.775164295974
 10
-361.3572967414411
 20
-1499.005867285434
 10
-368.0508352861543
 20
-1482.115323367172
 10
-374.6061170083235
 20
-1465.218742883419
 10
-373.7388378023461
 20
-1460.790123711056
 10
-370.1872731774975
 20
-1458.147373757324
 10
-354.2094969071095
 20
-1454.32542941684
 10
-338.7005865202714
 20
-1456.341544926987
 10
-322.8825260891085
 20
-1464.448808164187
 10
-305.9773775769158
 20
-1478.900345950446
  0
LWPOLYLINE
  5
15DA
330
15BB
100
AcDbEntity
  8
0
  6
ByBlock
 62
     0
370
    -2
100
AcDbPolyline
 90
       14
 70
     1
 43
0.0
 10
244.8703619445005
 20
-1056.533172213737
 10
273.7209583428289
 20
-1082.296746910963
 10
297.9384517809717
 20
-1107.767937637698
 10
305.7855390454952
 20
-1121.613891068424
 10
288.4407338376145
 20
-1124.447591219601
 10
257.9321070995275
 20
-1119.965188195989
 10
235.8283852229474
 20
-1108.841316873225
 10
211.7410868714978
 20
-1088.961952543451
 10
192.3731948939667
 20
-1066.809178704055
 10
184.4276726663511
 20
-1048.865117798012
 10
186.5006682016596
 20
-1039.545673264567
 10
193.1803615913259
 20
-1035.34751458443
 10
205.1577838017738
 20
-1036.14438017487
 10
223.1239657994238
 20
-1041.810066871535
  0
LWPOLYLINE
  5
15DB
330
15BB
100
AcDbEntity
  8
0
  6
ByBlock
 62
     0
370
    -2
100
AcDbPolyline
 90
       19
 70
     1
 43
0.0
 10
1221.57513054992
 20
-1352.232307636492
 10
1233.933498988454
 20
-1363.672728664505
 10
1232.51449716936
 20
-1367.794145071735
 10
1226.507491376139
 20
-1372.841025387163
 10
1217.298827555857
 20
-1383.505183038574
 10
1211.737904479654
 20
-1396.987579444387
 10
1204.500062455542
 20
-1417.904785164458
 10
1199.292862644339
 20
-1423.56677203066
 10
1192.950476956095
 20
-1426.040712351345
 10
1176.631284225192
 20
-1421.453331506559
 10
1155.084542615543
 20
-1404.200632604401
 10
1141.694934063169
 20
-1388.295567738995
 10
1134.197169212675
 20
-1372.996768776839
 10
1132.198715524788
 20
-1359.052205127893
 10
1135.307040460237
 20
-1347.209787783741
 10
1143.129611479749
 20
-1338.217505627135
 10
1155.27387657126
 20
-1332.823289122453
 10
1171.347342141082
 20
-1331.775107679654
 10
1190.95745617715
 20
-1335.820891763115
  0
LWPOLYLINE
  5
15DC
330
15BB
100
AcDbEntity
  8
0
  6
ByBlock
 62
     0
370
    -2
100
AcDbPolyline
 90
       16
 70
     1
 43
0.0
 10
-212.255686928785
 20
1179.881946814215
 10
-225.4410843124247
 20
1162.889092847271
 10
-247.7548397225196
 20
1141.793827917999
 10
-277.1663888373278
 20
1118.773560671915
 10
-309.4121638686938
 20
1095.554398329287
 10
-330.4055666234985
 20
1124.097480397812
 10
-346.2513173647535
 20
1148.637423797151
 10
-350.8356799267935
 20
1165.135454648932
 10
-348.8593668033059
 20
1170.90752120779
 10
-344.0131341356932
 20
1175.315616057482
 10
-325.6381013991522
 20
1180.901970599917
 10
-289.5728355990818
 20
1191.117027251563
 10
-271.735660847819
 20
1195.949667910425
 10
-246.4310598558532
 20
1197.432735214894
 10
-222.8614456772657
 20
1195.627432149939
 10
-210.2292703117196
 20
1190.594942227731
  0
LWPOLYLINE
  5
15DD
330
15BB
100
AcDbEntity
  8
0
  6
ByBlock
 62
     0
370
    -2
100
AcDbPolyline
 90
       25
 70
     1
 43
0.0
 10
-103.7354338698114
 20
704.2795482680936
 10
-99.71845004558099
 20
691.567729183645
 10
-101.2160245800223
 20
647.6033253462824
 10
-106.6190427866472
 20
615.8025620283801
 10
-116.1599124368717
 20
589.3819753321927
 10
-130.0840101815238
 20
567.8379209678273
 10
-148.6366931986372
 20
550.6667741181777
 10
-157.5153905600464
 20
545.8762531082125
 10
-165.0468043949563
 20
544.7884640066736
 10
-170.9366034536861
 20
546.825941169543
 10
-174.8904759593438
 20
551.4112578983863
 10
-175.8131357855068
 20
565.9156253690912
 10
-165.4602701855292
 20
583.6819386306029
 10
-157.1656786901785
 20
593.4467259149719
 10
-153.4488290076197
 20
601.5763244444902
 10
-153.8021822895739
 20
610.668093094951
 10
-157.7182581061388
 20
623.3193712693587
 10
-164.7201872562914
 20
651.7525294275651
 10
-165.7977336692875
 20
679.6138106330304
 10
-161.1525186325361
 20
703.96387483848
 10
-150.9860855422816
 20
721.8634014694312
 10
-139.4402582916732
 20
733.1608337864677
 10
-131.2240447837503
 20
736.371936117604
 10
-123.1082719364867
 20
731.0870788122733
 10
-111.8638640318149
 20
716.896690638287
  0
LWPOLYLINE
  5
15DE
330
15BB
100
AcDbEntity
  8
0
  6
ByBlock
 62
     0
370
    -2
100
AcDbPolyline
 90
       20
 70
     1
 43
0.0
 10
1526.135048365528
 20
-1084.432327999462
 10
1526.206338256702
 20
-1104.261335689364
 10
1525.906651989244
 20
-1123.868820898525
 10
1531.454684077204
 20
-1142.167637127541
 10
1537.061115068095
 20
-1158.321447436772
 10
1534.351826584416
 20
-1163.582684245519
 10
1527.648941099587
 20
-1169.240640243797
 10
1513.989108613914
 20
-1176.558865952903
 10
1500.94434373343
 20
-1178.227742637755
 10
1488.74578849808
 20
-1174.26787251219
 10
1477.62470178456
 20
-1164.699838317254
 10
1443.276858339566
 20
-1128.146856971067
 10
1428.580898069284
 20
-1111.213784475279
 10
1422.137448591039
 20
-1097.457035904281
 10
1423.687619136422
 20
-1085.513846862007
 10
1432.972479991439
 20
-1074.021491897977
 10
1461.614308587726
 20
-1059.145427775342
 10
1497.731956198027
 20
-1048.947546126156
 10
1505.12016712125
 20
-1053.722761521682
 10
1516.341616604262
 20
-1066.066525366286
  0
LWPOLYLINE
  5
15DF
330
15BB
100
AcDbEntity
  8
0
  6
ByBlock
 62
     0
370
    -2
100
AcDbPolyline
 90
       31
 70
     1
 43
0.0
 10
1061.430792538378
 20
643.692818748203
 10
1075.095240075734
 20
631.2193855822875
 10
1087.594416272552
 20
617.6150505535493
 10
1091.211253695875
 20
596.5349159835882
 10
1094.470862751653
 20
574.5187827250088
 10
1102.305604266106
 20
555.4754827157835
 10
1109.947156212046
 20
538.5042046022731
 10
1102.147621505361
 20
521.368050359682
 10
1094.912661454451
 20
512.33487534007
 10
1085.995524801816
 20
507.1368666866479
 10
1051.058609928828
 20
504.1941189007888
 10
1013.32746625386
 20
500.9242087380921
 10
978.5433933245549
 20
493.0585444300882
 10
951.8826876313564
 20
486.1374468391436
 10
943.4178065707747
 20
486.5648551487233
 10
937.8454724385141
 20
490.0050159310672
 10
934.9023546696084
 20
496.7734857790405
 10
934.3251421718859
 20
507.1858212855036
 10
939.2150912573306
 20
540.204413009304
 10
945.6548798506959
 20
576.641589662016
 10
947.893082552548
 20
603.0275147886072
 10
945.9502821039336
 20
622.5983911489825
 10
939.8471001914817
 20
638.590440975839
 10
935.9813420692052
 20
654.8984757969788
 10
938.7210665266362
 20
661.2496047687896
 10
944.6154416914637
 20
666.4233697962868
 10
965.9869865923205
 20
673.3125904268786
 10
1000.333681142591
 20
675.7136051418688
 10
1037.85270769531
 20
673.2044969590001
 10
1045.788454581389
 20
668.0935316854043
 10
1051.20286437128
 20
658.8556781500524
  0
LWPOLYLINE
  5
15E0
330
15BB
100
AcDbEntity
  8
0
  6
ByBlock
 62
     0
370
    -2
100
AcDbPolyline
 90
       24
 70
     1
 43
0.0
 10
414.3400252726427
 20
-938.2201299956308
 10
421.8967732098248
 20
-958.4684063680933
 10
424.9737080047184
 20
-992.3390495746007
 10
425.5015764477484
 20
-1049.648235597365
 10
423.6658958274169
 20
-1071.980256486269
 10
416.0147048494832
 20
-1085.743547915348
 10
399.2080886643425
 20
-1093.93606303552
 10
369.9061324223894
 20
-1099.555696579324
 10
351.6265163661951
 20
-1101.279311282228
 10
336.7853474866584
 20
-1098.387854830253
 10
319.1941919883547
 20
-1088.432779423363
 10
292.6646550214459
 20
-1068.965478843145
 10
257.5266835720126
 20
-1039.770447701556
 10
247.9456415520826
 20
-1028.211184224532
 10
243.4810950786495
 20
-1017.560462799536
 10
243.9765023775694
 20
-1006.980602864293
 10
249.2752632563211
 20
-995.6338654381475
 10
273.6565423471989
 20
-967.288938500074
 10
303.892978400002
 20
-940.9123603135995
 10
327.3079201924679
 20
-927.555329742087
 10
363.0365598388325
 20
-917.7455797812026
 10
386.3158152172873
 20
-912.2035453131502
 10
392.8812033184563
 20
-914.9266984246677
 10
400.3726784571645
 20
-921.7780250022073
  0
LWPOLYLINE
  5
15E1
330
15BB
100
AcDbEntity
  8
0
  6
ByBlock
 62
     0
370
    -2
100
AcDbPolyline
 90
       49
 70
     1
 43
0.0
 10
-333.1946156628315
 20
587.3082203579992
 10
-340.4763688326952
 20
578.3236688997817
 10
-348.5487562995886
 20
570.6254706021822
 10
-350.875190221574
 20
560.3666196415356
 10
-347.4955703492697
 20
548.3920988770828
 10
-338.4498353788777
 20
535.5468522224842
 10
-325.6735224076319
 20
518.4282040198163
 10
-320.6834052806148
 20
502.8622772982739
 10
-323.3932390024675
 20
487.6789130465445
 10
-333.7167006866644
 20
471.7079133077399
 10
-343.1154579015479
 20
456.9907082214863
 10
-344.3653969413003
 20
445.5502871934736
 10
-337.6822763402579
 20
438.136313766558
 10
-323.2818351599644
 20
435.4983930652192
 10
-310.684204527262
 20
431.7427730539725
 10
-307.2748691745069
 20
421.6467535792558
 10
-312.8960021232879
 20
406.9665857432096
 10
-327.3898348135704
 20
389.4585206479756
 10
-362.6513416548651
 20
349.1410007518484
 10
-373.1092045488072
 20
337.9169808603042
 10
-385.5390381336428
 20
333.2156062916916
 10
-400.0117428447051
 20
335.0291852932082
 10
-416.5981022805799
 20
343.3499482208822
 10
-430.1826724255319
 20
349.9121038385951
 10
-439.4806579422938
 20
350.3843969335207
 10
-447.4253038942743
 20
351.5487725256312
 10
-457.7399638765286
 20
359.7819663080977
 10
-466.0229690606943
 20
374.4673917979585
 10
-462.5692746879735
 20
393.6352203114316
 10
-459.3637610481145
 20
405.5581187045377
 10
-460.6200482180293
 20
415.0742968546232
 10
-467.7472263657314
 20
425.5423440187327
 10
-482.1544246048169
 20
440.3208299811208
 10
-497.461674758661
 20
455.8633504067906
 10
-504.5518156561548
 20
467.0220001359025
 10
-505.1798521407568
 20
479.0809938716506
 10
-501.1007111647577
 20
497.324546317232
 10
-489.7439063051952
 20
524.002952778274
 10
-471.4542228155851
 20
550.7921399524779
 10
-451.246625105417
 20
571.5043361193461
 10
-441.9907981831348
 20
577.6478851294228
 10
-434.1361165297676
 20
579.9517695583785
 10
-418.6005868363913
 20
586.1713014024785
 10
-396.1405128679034
 20
600.855870089495
 10
-372.5835754768473
 20
615.004508597633
 10
-352.8836723972927
 20
619.7446145493491
 10
-338.749424282375
 20
615.0729944067721
 10
-334.3033380156708
 20
609.2067574262496
 10
-331.8893933668533
 20
600.986396213651
  0
LWPOLYLINE
  5
15E2
330
15BB
100
AcDbEntity
  8
0
  6
ByBlock
 62
     0
370
    -2
100
AcDbPolyline
 90
       73
 70
     1
 43
0.0
 10
-113.364865777632
 20
1042.383920552965
 10
-98.23462330222675
 20
1037.815642517041
 10
-83.69164128517013
 20
1032.523813952209
 10
-75.26364169246062
 20
1023.668620250632
 10
-72.93711040651579
 20
1011.223636833693
 10
-76.69851383695959
 20
995.1624780683564
 10
-86.84230007022597
 20
981.215519266006
 10
-103.9775975099733
 20
973.7500208317019
 10
-118.6166582823025
 20
969.2762053093215
 10
-124.7030935937136
 20
964.3387036660383
 10
-129.8922031812344
 20
959.318754221818
 10
-142.3716339670577
 20
954.6388581426803
 10
-151.912834654745
 20
951.3424260374053
 10
-157.0192822406179
 20
945.826056709086
 10
-158.4258214728911
 20
917.8316984437255
 10
-158.585108910695
 20
893.2899246019456
 10
-161.3436830306923
 20
873.1623016481421
 10
-166.2275176594785
 20
859.5470229103517
 10
-172.7626255692316
 20
854.5423206621958
 10
-190.4586420519572
 20
842.7610089390496
 10
-205.8232979963441
 20
834.3646721059817
 10
-226.2422533898766
 20
830.7392471814287
 10
-239.5388404153082
 20
829.8542672076077
 10
-247.8204240856644
 20
826.1735590268276
 10
-253.3984248003699
 20
817.6639879088183
 10
-258.5841850676825
 20
802.2923607049284
 10
-272.8866391590973
 20
764.5097114953646
 10
-276.5902083975761
 20
753.7098674299418
 10
-277.1251649368596
 20
741.1943730335056
 10
-282.0051439528474
 20
724.1286324064508
 10
-296.1538798249449
 20
702.3950298856584
 10
-318.6405730999704
 20
681.7313599162239
 10
-330.9166105743202
 20
676.6734190549928
 10
-346.1712452444299
 20
673.8244717077527
 10
-413.0396637601884
 20
660.6280332511009
 10
-433.0904470771247
 20
654.8346050395225
 10
-445.0329740444735
 20
649.0785645884066
 10
-451.4395031092613
 20
641.4908938576741
 10
-454.8822343001379
 20
630.2026916440031
 10
-462.481900270684
 20
606.155740917386
 10
-472.354995223644
 20
594.2885541819264
 10
-477.8280765355516
 20
593.0882123431624
 10
-483.4903554936336
 20
595.1318039626908
 10
-494.8768758336459
 20
609.2161433119504
 10
-498.6153208424306
 20
618.3799418196763
 10
-499.2605323294956
 20
627.7691378937338
 10
-490.4803478223466
 20
655.5857679873557
 10
-484.2017744731833
 20
674.665345807903
 10
-480.0780992220916
 20
698.5686846942021
 10
-476.4870437752556
 20
776.483375456974
 10
-473.7366287550671
 20
845.2555125279891
 10
-468.7862361235411
 20
883.8616661073224
 10
-454.267945606623
 20
909.0377856182817
 10
-432.210062682193
 20
933.3586406358694
 10
-407.3146239937886
 20
952.4732305362681
 10
-384.2836272393634
 20
962.0305157500702
 10
-370.5127219486489
 20
963.3880224923201
 10
-359.4466848178499
 20
961.8596420010822
 10
-336.6087997407713
 20
947.4532810920477
 10
-320.6054946401928
 20
937.082597887475
 10
-304.2118963714111
 20
932.1191195397883
 10
-287.9419503312415
 20
932.3097386997702
 10
-272.3096019165018
 20
937.4013869637932
 10
-257.8287575784211
 20
947.1409375098515
 10
-245.0133627138171
 20
961.2753024615209
 10
-234.3773237739206
 20
979.5513744695877
 10
-226.4345861555471
 20
1001.716046184838
 10
-216.0452285435354
 20
1026.138237611514
 10
-200.8591770465236
 20
1041.703833295595
 10
-181.2492382655823
 20
1048.949289181343
 10
-156.389863187791
 20
1052.772421362133
 10
-134.0048178865222
 20
1052.579426521538
 10
-121.8178684351501
 20
1047.77652081592
  0
LWPOLYLINE
  5
15E3
330
15BB
100
AcDbEntity
  8
0
  6
ByBlock
 62
     0
370
    -2
100
AcDbPolyline
 90
     2162
 70
     1
 43
0.0
 10
609.3038766947625
 20
2109.066248742493
 10
601.6511668390599
 20
2108.569049946718
 10
585.8447121918739
 20
2108.059096472244
 10
565.08957851885
 20
2100.347033546807
 10
546.3669953923426
 20
2088.833959532188
 10
536.6581339663321
 20
2076.920933844577
 10
530.7769224088338
 20
2067.502742783371
 10
521.5313381750957
 20
2063.587095368227
 10
508.6073046044385
 20
2059.363388385108
 10
494.9890270566948
 20
2049.422041296512
 10
485.144712890175
 20
2037.857753839175
 10
483.5426084087739
 20
2028.76522574983
 10
485.6020703537069
 20
2018.957092030673
 10
482.5164506936225
 20
2007.669629783094
 10
475.5525324332738
 20
1997.594231995008
 10
465.9770985774129
 20
1991.422233235955
 10
459.7077553316139
 20
1988.229396383628
 10
455.9063158410081
 20
1982.902244174273
 10
454.3057107645849
 20
1962.357066143596
 10
452.5994657920623
 20
1941.434077004329
 10
448.1530290151035
 20
1936.515678169908
 10
440.4703894782392
 20
1933.54607740401
 10
425.6071968710544
 20
1927.289625146453
 10
411.357124589871
 20
1917.746068250945
 10
396.5497604770849
 20
1909.651988093866
 10
378.7129167632843
 20
1913.026681349817
 10
356.3043872749754
 20
1925.082773639571
 10
325.2539106292688
 20
1951.104713339826
 10
297.7756202950413
 20
1972.228642218787
 10
127.0736018582388
 20
1889.099955640438
 10
-43.62152321022813
 20
1805.978123484839
 10
-121.3507356300797
 20
1733.847611357491
 10
-177.4622670593639
 20
1679.693913372175
 10
-203.2223171812548
 20
1650.780731420657
 10
-200.8814928660495
 20
1631.542508764438
 10
-189.4213458998342
 20
1600.639733245351
 10
-177.7204178616825
 20
1569.697895305697
 10
-176.3064594956918
 20
1546.940277076862
 10
-185.9117451415472
 20
1528.701144955042
 10
-207.2684907205544
 20
1511.31466797248
 10
-225.9597421248818
 20
1495.912234811791
 10
-230.2146834662222
 20
1489.678429411223
 10
-230.363981361777
 20
1485.224047735166
 10
-229.0527614458915
 20
1480.988949168779
 10
-233.2080020926646
 20
1482.235772561828
 10
-240.7585187364361
 20
1481.456938776694
 10
-248.2523500829652
 20
1472.996205420789
 10
-256.3935543964599
 20
1463.491068343714
 10
-267.141114015611
 20
1459.636604440744
 10
-279.7344216885099
 20
1461.498475966191
 10
-293.4129285816239
 20
1469.14236464716
 10
-309.0068571779307
 20
1475.574870416352
 10
-328.7637376466064
 20
1475.304373863966
 10
-340.5763032007649
 20
1473.804443121703
 10
-347.8517082404664
 20
1475.093133017351
 10
-352.2277314018879
 20
1480.047595462386
 10
-355.3421318484116
 20
1489.545001841073
 10
-355.7886429668515
 20
1506.961953742972
 10
-347.0642869541011
 20
1522.725042482579
 10
-344.1303408701847
 20
1526.805877591474
 10
-345.6336988238222
 20
1526.818437542255
 10
-360.2263948786194
 20
1515.57381543687
 10
-380.5345695589894
 20
1499.923201543322
 10
-392.8568549141191
 20
1493.412570932997
 10
-401.1798766856546
 20
1489.424893660588
 10
-412.5716741522746
 20
1480.162017587634
 10
-422.6329152206444
 20
1469.67422501253
 10
-426.9642872702219
 20
1462.011759288083
 10
-438.106735636466
 20
1446.939915715608
 10
-448.990721635721
 20
1439.512194497606
 10
-458.7154533871366
 20
1448.74660134879
 10
-468.1817227715637
 20
1466.607493960595
 10
-474.9576896444214
 20
1467.995144584719
 10
-491.249756776197
 20
1464.436706064327
 10
-514.3108974124952
 20
1457.361052924014
 10
-510.9997633493299
 20
1411.060128258458
 10
-510.5025840263465
 20
1375.354680707254
 10
-515.4100391517158
 20
1359.984864473011
 10
-520.8687690159881
 20
1352.815605621998
 10
-523.1383034400196
 20
1342.281974094743
 10
-525.3028600428779
 20
1331.101631675446
 10
-531.0932699717109
 20
1325.072835828082
 10
-539.4546141977207
 20
1324.674071995399
 10
-549.3319931648998
 20
1330.383884038527
 10
-568.0197978850594
 20
1338.6608526572
 10
-596.6770684053294
 20
1344.439014199924
 10
-627.0680600075029
 20
1350.620768827723
 10
-649.9162656642923
 20
1359.888688353779
 10
-662.4163181367455
 20
1365.96225214974
 10
-666.0770472330272
 20
1366.008519503313
 10
-667.3993276947166
 20
1363.921133574784
 10
-662.8576884381218
 20
1356.088962468863
 10
-651.9427991181093
 20
1347.674593830489
 10
-641.7234389794505
 20
1340.501888295307
 10
-648.7896478156897
 20
1338.785361688657
 10
-657.0554779973929
 20
1336.950323670459
 10
-652.2244341074679
 20
1329.3603162047
 10
-647.7764005615729
 20
1323.156226284581
 10
-658.3314911055099
 20
1327.684137222881
 10
-669.5537973913665
 20
1337.667331341286
 10
-675.5054225644021
 20
1350.855201769499
 10
-677.4192474986589
 20
1358.402077001183
 10
-681.0474570324547
 20
1362.830579336794
 10
-696.59502091123
 20
1364.347042479387
 10
-709.9357138103319
 20
1365.045161542064
 10
-715.4863357796157
 20
1369.499212180658
 10
-713.3481842825845
 20
1374.535479824496
 10
-708.2114565052952
 20
1376.629837012528
 10
-704.5327929676668
 20
1378.989530463091
 10
-705.9032880621193
 20
1384.667231872362
 10
-707.061666034323
 20
1389.594432408727
 10
-701.1564055788187
 20
1388.761503207674
 10
-681.1384728618307
 20
1380.655408337989
 10
-676.0788183949117
 20
1379.859399550393
 10
-673.0787427096768
 20
1383.133613200102
 10
-671.8302057109415
 20
1405.756830219191
 10
-673.5475891204348
 20
1432.816066071568
 10
-675.3432142078127
 20
1431.138387684775
 10
-678.1904674221569
 20
1432.658823276916
 10
-685.5272701747431
 20
1442.666183130078
 10
-692.5330549376935
 20
1457.582283312874
 10
-696.1828403249231
 20
1472.151242034336
 10
-700.1259638494477
 20
1488.091221615632
 10
-708.7060654197467
 20
1493.412570932997
 10
-726.1341752314081
 20
1499.347877906414
 10
-739.986457319505
 20
1507.873553023331
 10
-757.2121279864957
 20
1513.42964684714
 10
-773.2940058024219
 20
1515.043026075056
 10
-783.7149288101157
 20
1511.740596349873
 10
-790.9176808632105
 20
1507.400734163024
 10
-796.4923322577083
 20
1511.33528965911
 10
-816.8125411234774
 20
1526.970442155885
 10
-827.7274304434897
 20
1536.921876150687
 10
-832.2690697000846
 20
1549.413321649119
 10
-829.8492637409026
 20
1557.775425314013
 10
-822.2515061039635
 20
1560.975681300056
 10
-808.9683358321563
 20
1559.045655002933
 10
-789.4922335499952
 20
1552.016892345532
 10
-783.4651513083176
 20
1550.645988322449
 10
-778.3352000626125
 20
1552.322595705688
 10
-768.9659636002606
 20
1566.044565870339
 10
-764.0301755626653
 20
1581.337951396346
 10
-764.9395354719557
 20
1585.430918054598
 10
-768.0797763133405
 20
1587.656229768209
 10
-772.5389872417909
 20
1593.422376598325
 10
-772.3457976732761
 20
1603.655465055278
 10
-770.363058528459
 20
1612.76785539237
 10
-773.1100268644793
 20
1616.047326695894
 10
-807.0027911625935
 20
1606.114781309241
 10
-832.9732058554611
 20
1594.072417337782
 10
-837.8308495791316
 20
1587.338940096868
 10
-839.1386422836415
 20
1578.526567064696
 10
-839.8780826107465
 20
1569.928881563304
 10
-842.8748284485648
 20
1565.1103002602
 10
-860.3106689586139
 20
1563.502821288234
 10
-877.0887380308179
 20
1568.054761651746
 10
-887.6996570691538
 20
1576.733609749808
 10
-895.919103060533
 20
1584.340811690824
 10
-907.7450658955235
 20
1584.729800181968
 10
-917.683608902084
 20
1584.403494607973
 10
-921.5735132863256
 20
1589.188154307574
 10
-919.5555673337393
 20
1593.647365236025
 10
-914.7039407027685
 20
1593.021373394573
 10
-910.1552133499195
 20
1593.916031345974
 10
-908.0524828613679
 20
1601.760334001254
 10
-912.0660200014301
 20
1626.970803517138
 10
-915.2025220667692
 20
1632.000937231525
 10
-920.2588466862721
 20
1634.69649739691
 10
-938.8230186506111
 20
1633.771676090844
 10
-959.0058080238888
 20
1633.079574120868
 10
-975.9118328117175
 20
1637.343862402323
 10
-988.3208499820032
 20
1641.54373468815
 10
-994.336034347825
 20
1635.063150595736
 10
-999.6829124953803
 20
1626.991405730976
 10
-1007.79007836862
 20
1621.640009895699
 10
-1017.422294885684
 20
1619.529334508048
 10
-1027.344324964707
 20
1621.179750986172
 10
-1035.435815240462
 20
1632.558345899878
 10
-1041.420076812734
 20
1654.751350527355
 10
-1047.569195041296
 20
1678.337166068809
 10
-1056.072865903358
 20
1693.076706447381
 10
-1068.9856247275
 20
1697.694016973329
 10
-1083.308155267372
 20
1693.635711884671
 10
-1096.498479267364
 20
1682.321844531264
 10
-1106.014676890242
 20
1665.17248773576
 10
-1109.523401372893
 20
1652.682639006265
 10
-1108.766786043326
 20
1643.056770619364
 10
-1102.555296462284
 20
1632.927257942567
 10
-1089.699437136096
 20
1618.926534761759
 10
-1072.844080552811
 20
1597.709856974943
 10
-1065.834537541022
 20
1581.212585562045
 10
-1059.129841086546
 20
1555.554728652085
 10
-1045.239879146109
 20
1540.87477501675
 10
-1020.161318322606
 20
1520.065662764559
 10
-994.6074850670161
 20
1501.465544026359
 10
-979.2916668847325
 20
1493.412570932997
 10
-966.6353257844289
 20
1488.422044877349
 10
-952.1602843383375
 20
1476.405229208873
 10
-940.256177189422
 20
1461.794287148059
 10
-935.3126584534395
 20
1449.021401388189
 10
-929.1566663293345
 20
1431.143333773919
 10
-914.3604601263113
 20
1410.606743244474
 10
-888.0508488712061
 20
1377.366590094349
 10
-882.1789842538239
 20
1364.132802822819
 10
-880.3560777849835
 20
1351.761991270256
 10
-876.5760973110602
 20
1339.100509352889
 10
-867.489372113703
 20
1325.547699331538
 10
-856.5409895916094
 20
1309.705609475163
 10
-848.2820527782418
 20
1291.529569199123
 10
-843.7659423518377
 20
1281.691700526725
 10
-836.7394385382979
 20
1273.570786862397
 10
-812.5533936590851
 20
1260.197457564059
 10
-790.2290061046089
 20
1249.765142973099
 10
-778.2656432499188
 20
1239.152510329075
 10
-775.6199918501931
 20
1226.710856759552
 10
-781.2487581334019
 20
1210.791479392094
 10
-791.0516341987427
 20
1180.943194500385
 10
-787.7721628952185
 20
1168.039120541434
 10
-779.870551813354
 20
1153.313775828163
 10
-770.2519662506262
 20
1141.216031236518
 10
-761.8216104500966
 20
1136.194796588032
 10
-753.2098461201558
 20
1132.413102508422
 10
-745.0160457957188
 20
1122.757908096907
 10
-738.8483505236772
 20
1109.764122985637
 10
-736.3148818781308
 20
1095.966578915594
 10
-732.8084941305085
 20
1081.97530003886
 10
-722.8187376812309
 20
1064.255779896303
 10
-684.5870069446959
 20
1019.412062667563
 10
-674.5315492955226
 20
1010.731384127062
 10
-663.9705584956377
 20
1005.625695980073
 10
-631.4165096955832
 20
1003.096822913418
 10
-600.057759281189
 20
1006.025842380982
 10
-575.4226134022124
 20
1011.876150617723
 10
-560.4168994310566
 20
1016.475312501613
 10
-552.1965966368334
 20
1016.416933071474
 10
-549.214338556194
 20
990.1009931589983
 10
-550.0807609593278
 20
936.8011576260364
 10
-553.8427096279451
 20
879.3164633298088
 10
-559.5470303437553
 20
840.4459666003308
 10
-568.7517217144882
 20
818.1016973253159
 10
-574.3632156312749
 20
811.7824063682743
 10
-580.9929807824905
 20
808.6217969865542
 10
-598.3439199198226
 20
811.5470582052799
 10
-622.8776320257525
 20
826.4182930755218
 10
-646.5750850832132
 20
841.4300241393771
 10
-661.9929796406759
 20
847.672748078639
 10
-678.0471671465093
 20
853.1683983563675
 10
-724.6022506920423
 20
874.6564294984159
 10
-760.4562756454996
 20
886.2428185745679
 10
-771.1457673991819
 20
885.8382713226887
 10
-781.1113581137024
 20
881.8213848624186
 10
-797.5914739969294
 20
873.0077266259799
 10
-778.8650157848328
 20
862.7995438698759
 10
-734.3776701207935
 20
839.6697032237284
 10
-716.1827412366051
 20
828.6199842925483
 10
-708.6167631960588
 20
820.2082055354972
 10
-702.7827731589363
 20
812.5795445778017
 10
-688.7568327126079
 20
803.4052307624438
 10
-668.7891203259496
 20
786.0508644137357
 10
-643.5893803184062
 20
755.3207930860767
 10
-619.30673091854
 20
719.4887723874757
 10
-602.0903098277056
 20
686.8285773987322
 10
-597.5851431103535
 20
661.496266623882
 10
-598.8117926909849
 20
626.7618882595257
 10
-605.1004529463567
 20
589.0766030094996
 10
-615.7813571988076
 20
554.8915715776452
 10
-623.1275068915099
 20
532.3911305115321
 10
-626.1818921933747
 20
513.2550815944528
 10
-628.1689153524118
 20
502.5840695202901
 10
-633.0514647769316
 20
500.7593326090105
 10
-637.9030914079026
 20
508.6455991308516
 10
-639.9210373604887
 20
521.6428309262887
 10
-641.1952394989584
 20
530.1217129242527
 10
-644.9084477694309
 20
536.5725620634216
 10
-658.9952601632622
 20
543.2974518031056
 10
-680.8683073469055
 20
541.6320023296298
 10
-709.214422125285
 20
531.3907547728663
 10
-727.0975331926579
 20
522.3309799195098
 10
-737.2980826143344
 20
514.6178459905181
 10
-741.8943625250217
 20
505.9502531661787
 10
-742.9646261138438
 20
494.0271600451537
 10
-745.9279955863325
 20
474.8868076410612
 10
-753.049156641335
 20
459.1365904169056
 10
-760.4475713075169
 20
445.9952015429767
 10
-762.9559395242945
 20
433.6221506193446
 10
-760.5658685183552
 20
423.5662645687484
 10
-753.268984989179
 20
417.3764676778914
 10
-746.0062372642171
 20
410.4502097970921
 10
-743.5459668434512
 20
398.7685014045524
 10
-745.8991174359336
 20
384.8481813815311
 10
-753.0766327507167
 20
371.2060691364918
 10
-758.9492568069831
 20
358.6940019514318
 10
-755.5015989997539
 20
346.8259584131288
 10
-753.0155660752948
 20
339.5153270928672
 10
-754.3569493458453
 20
330.1560801727632
 10
-770.4360425525281
 20
299.1785875511264
 10
-787.3489412359004
 20
267.0770864350029
 10
-787.175477605588
 20
258.769409223491
 10
-782.2929281810677
 20
251.4213317243898
 10
-775.4523311118694
 20
237.3614502017667
 10
-777.9668137853056
 20
223.5566233075488
 10
-788.71706064974
 20
212.1346624862645
 10
-806.5837366807432
 20
205.2234570736082
 10
-829.7437406815557
 20
205.6695397906269
 10
-852.8219784291485
 20
214.5883900489489
 10
-873.5907235837158
 20
230.7074219518345
 10
-889.8223471694107
 20
252.7540301297499
 10
-897.9120264755183
 20
271.8661469855747
 10
-897.5617888402691
 20
286.8519987089853
 10
-887.6709931194659
 20
300.8190339597927
 10
-867.1390176417025
 20
316.8746040338524
 10
-847.6560609367901
 20
333.524736863224
 10
-839.3996945319539
 20
346.8465606269679
 10
-835.832123272158
 20
356.9936767076492
 10
-827.4492031927149
 20
368.031458817391
 10
-817.1123247548939
 20
376.9143623018513
 10
-807.6828784199641
 20
380.5967646155263
 10
-799.9830444078452
 20
385.809163662168
 10
-793.5255355738436
 20
397.9570312201827
 10
-790.1967007428338
 20
411.9918902052035
 10
-791.8828497941079
 20
422.8652440600776
 10
-796.3348752623442
 20
436.4723636980584
 10
-797.6266808046982
 20
454.3570910071598
 10
-795.8387669429157
 20
470.8172278058896
 10
-791.0516341987427
 20
480.1506148583398
 10
-783.9063074089829
 20
490.8181023571664
 10
-784.6174148238624
 20
506.5237658334385
 10
-792.3239085308134
 20
523.8897184933316
 10
-806.1647016716847
 20
539.5380735430203
 10
-821.966424430437
 20
555.8069291068427
 10
-823.3755535440341
 20
561.6795531631091
 10
-820.9823668913895
 20
567.0163638772487
 10
-817.326895448923
 20
580.6568598805593
 10
-819.8746376509374
 20
598.9916423562267
 10
-826.9949613758877
 20
616.05512413942
 10
-837.0571566110614
 20
625.8817180653045
 10
-848.7680741914619
 20
624.6632275844818
 10
-861.6021434635054
 20
613.5370974178563
 10
-874.6637717817806
 20
602.399809341468
 10
-887.1638242542342
 20
598.9392605459957
 10
-893.8917712222476
 20
598.0990874663534
 10
-900.7090204139492
 20
593.6579667615847
 10
-913.765391078409
 20
575.5870016706808
 10
-924.6411011411037
 20
547.9549152259664
 10
-931.6443154955221
 20
513.9901210705861
 10
-937.70498830324
 20
480.5986448545486
 10
-946.2953909804578
 20
455.9645699791276
 10
-957.1089438913833
 20
440.7203337798951
 10
-969.8391258186005
 20
435.4983930652192
 10
-979.4170327190334
 20
433.480447112633
 10
-983.3996665383383
 20
428.6288204816615
 10
-987.1900649559325
 20
423.1296261558059
 10
-996.83396514814
 20
422.1327749924753
 10
-1009.740512151663
 20
425.3800577709758
 10
-1023.318753639245
 20
432.6131679066561
 10
-1033.05797314784
 20
437.850686854857
 10
-1044.960483527819
 20
440.2358312444444
 10
-1086.669957535081
 20
437.2913503801051
 10
-1127.081920471959
 20
434.0240106259402
 10
-1133.232771779001
 20
436.9870490609669
 10
-1134.530263376592
 20
443.6113618304484
 10
-1138.13592341736
 20
452.8268995462744
 10
-1148.269408543707
 20
456.1071108158898
 10
-1157.440080946977
 20
454.5322682431601
 10
-1161.349068667288
 20
449.6239563149461
 10
-1160.049220861876
 20
441.1065376617975
 10
-1153.593328269602
 20
428.7043943870553
 10
-1148.618906212863
 20
416.2515634349778
 10
-1153.655154383909
 20
406.7561043354812
 10
-1158.293398161157
 20
403.2732202476904
 10
-1162.573576240809
 20
403.072299980789
 10
-1172.780045391226
 20
413.474548581044
 10
-1183.961984579458
 20
424.2640720667554
 10
-1196.761723319369
 20
421.5394195502608
 10
-1207.08594444245
 20
413.6551976715704
 10
-1208.518129341666
 20
404.4899971228256
 10
-1200.536017738055
 20
392.342986367656
 10
-1182.617271461491
 20
375.5132949241038
 10
-1161.291546039993
 20
352.836819819147
 10
-1156.587503698889
 20
342.7029257641712
 10
-1155.138981127263
 20
332.2418498595639
 10
-1157.619113795774
 20
311.1979931009269
 10
-1164.510787998147
 20
293.3085533761837
 10
-1174.990966711616
 20
280.0509119345674
 10
-1188.236573967833
 20
272.9024889708949
 10
-1205.238774874893
 20
268.6364676109583
 10
-1186.855797239253
 20
258.9984676746994
 10
-1175.059880922176
 20
250.2741116619495
 10
-1172.512138720162
 20
242.8274823630049
 10
-1172.828123714445
 20
238.204271581109
 10
-1167.909510679313
 20
236.2807881420663
 10
-1162.943676123804
 20
234.5625284569373
 10
-1166.824116731178
 20
228.717380510052
 10
-1173.603530288203
 20
225.820997441725
 10
-1178.502397912342
 20
234.1306024596356
 10
-1185.7661192769
 20
243.6166367278497
 10
-1197.455538895034
 20
248.2132282032075
 10
-1209.819067623424
 20
251.6282690839912
 10
-1218.710013370943
 20
258.2634281985652
 10
-1222.338865506872
 20
261.6320848890259
 10
-1220.166364004916
 20
253.4547196009594
 10
-1212.205166179814
 20
224.9514593918862
 10
-1212.072205956669
 20
216.068380652297
 10
-1214.603727323025
 20
210.6701722252742
 10
-1219.874272126303
 20
208.6862452401501
 10
-1227.958382213925
 20
210.0459913534696
 10
-1252.865524050266
 20
222.5141668655711
 10
-1272.200253863178
 20
232.8662924994546
 10
-1284.375383329862
 20
235.2821260090882
 10
-1290.711829816574
 20
229.5227362377641
 10
-1292.530432798403
 20
215.3491920287765
 10
-1293.524908281121
 20
204.712413122787
 10
-1296.91580289994
 20
196.3677181338585
 10
-1313.331502787537
 20
182.7187319932763
 10
-1329.205372240307
 20
169.8657546402905
 10
-1338.164998524883
 20
155.3846961014997
 10
-1344.816475839076
 20
142.3024655693862
 10
-1355.146577745313
 20
132.8112904841096
 10
-1364.67317383907
 20
124.8018001350774
 10
-1367.199242823691
 20
113.3583802971106
 10
-1362.57924505246
 20
96.52319752624135
 10
-1350.667621405869
 20
72.33843785129465
 10
-1332.167320198986
 20
44.95803724198549
 10
-1312.133614520553
 20
25.37288732514298
 10
-1293.718974125272
 20
15.96071335663464
 10
-1286.103963594702
 20
15.81254488301101
 10
-1280.075888240638
 20
19.09926006512433
 10
-1275.656947045852
 20
24.68335576369736
 10
-1274.354411995157
 20
30.54051842318904
 10
-1281.353634427234
 20
49.11242108591614
 10
-1288.485116061948
 20
68.28023012659651
 10
-1286.146122189182
 20
74.25826040545871
 10
-1279.711805450342
 20
80.88418941666896
 10
-1264.852916330169
 20
88.74726384334872
 10
-1246.408132053015
 20
92.01976388736966
 10
-1227.7091499503
 20
96.0625102152926
 10
-1214.162357021649
 20
109.1936953462618
 10
-1201.549810230345
 20
121.6319217044092
 10
-1186.73214501064
 20
126.3676268051545
 10
-1173.829589929458
 20
129.0588834835271
 10
-1163.293154320169
 20
135.7694996667433
 10
-1157.316428718364
 20
144.4546764221754
 10
-1158.092906295677
 20
153.0696537627805
 10
-1158.694089800238
 20
160.0425879257827
 10
-1152.211675265387
 20
165.4048301061525
 10
-1140.204849139159
 20
168.4498684679019
 10
-1124.2327783968
 20
168.4712301206245
 10
-1104.248864647274
 20
161.972302658236
 10
-1085.381053438721
 20
148.5829667249486
 10
-1071.339534758867
 20
131.714621789461
 10
-1065.834537541022
 20
114.7786673204705
 10
-1065.364191725288
 20
104.0472117002268
 10
-1062.056270672787
 20
100.0013497255981
 10
-1035.546595953623
 20
110.2790892943958
 10
-1021.069509864382
 20
116.3959021611831
 10
-1008.83683829761
 20
117.1563925763403
 10
-992.5841840966556
 20
111.4779317281836
 10
-966.0471306320701
 20
98.27794922340537
 10
-931.5987881080422
 20
79.0628991895569
 10
-912.8285550597375
 20
65.71616972496349
 10
-908.6146039453629
 20
52.82553199242875
 10
-906.1968426293308
 20
27.90002731331879
 10
-907.1955047623093
 20
-48.96447630908688
 10
-908.7814078808426
 20
-60.42699895591477
 10
-913.5558638374838
 20
-67.72528452610822
 10
-923.9552109917445
 20
-72.8544958057214
 10
-942.4157877031356
 20
-77.80981505359932
 10
-973.6972506064489
 20
-82.40469292326997
 10
-998.141777325442
 20
-78.33877397297647
 10
-1022.076214260417
 20
-74.21702652828298
 10
-1051.415305116538
 20
-78.31815228634559
 10
-1104.860582932258
 20
-90.09948348228409
 10
-1122.695713040371
 20
-95.99185294954532
 10
-1134.894346166887
 20
-104.2027114396928
 10
-1146.577125562982
 20
-112.3624733238757
 10
-1160.981558665617
 20
-113.0438457855125
 10
-1176.957387656814
 20
-106.4709606594588
 10
-1193.354413136972
 20
-92.86791083498656
 10
-1225.057481457875
 20
-65.41709661014056
 10
-1236.755293849322
 20
-62.12292334872609
 10
-1247.560492932519
 20
-63.70142680633489
 10
-1254.68959888662
 20
-69.07449585900576
 10
-1255.359170836361
 20
-77.16407780115424
 10
-1254.33281839329
 20
-88.87818891942698
 10
-1257.303256489241
 20
-101.4720613032914
 10
-1262.324276937016
 20
-109.8411167548961
 10
-1264.995554530892
 20
-110.846204909204
 10
-1267.449632603831
 20
-108.880893913144
 10
-1280.437400622401
 20
-104.3194897727626
 10
-1308.289237523791
 20
-105.0751509355263
 10
-1338.869991483104
 20
-105.7268858078796
 10
-1347.530476738397
 20
-102.9141189080037
 10
-1353.690246584132
 20
-97.69722164643191
 10
-1363.122477528305
 20
-90.32102543581595
 10
-1374.329010852717
 20
-86.97382776203767
 10
-1384.828409211798
 20
-87.92869558601569
 10
-1392.13923525998
 20
-93.45869586866957
 10
-1402.059863297985
 20
-99.20605145459559
 10
-1417.571246729396
 20
-100.1779969170761
 10
-1432.661453144639
 20
-96.83884150635549
 10
-1441.318511188556
 20
-89.65295289105233
 10
-1440.862010527868
 20
-73.07603775925281
 10
-1432.761601713419
 20
-51.65734922918773
 10
-1420.522698853238
 20
-32.40773498970384
 10
-1407.650735528142
 20
-22.33800378406204
 10
-1398.228260452715
 20
-16.84578071770875
 10
-1398.115766133865
 20
-7.437910236212701
 10
-1402.443594135315
 20
13.43871418552226
 10
-1410.789905365972
 20
24.66499292092749
 10
-1430.613986439521
 20
37.15162863975729
 10
-1454.093558428328
 20
46.88570733128926
 10
-1473.406283986385
 20
49.85433445759281
 10
-1488.977877290374
 20
51.40084411809766
 10
-1505.48718288867
 20
57.63067706911579
 10
-1521.856946460157
 20
63.21607744474659
 10
-1540.867201141514
 20
65.00689275252307
 10
-1557.69551001684
 20
63.02888549613953
 10
-1567.519416697441
 20
57.30781817928892
 10
-1578.438609504465
 20
51.83362691824232
 10
-1599.579713385888
 20
46.90040928917869
 10
-1625.16715668031
 20
45.88200174520625
 10
-1643.840376279332
 20
53.44712298290914
 10
-1659.657346234147
 20
61.04260230319505
 10
-1677.606041664665
 20
64.1164214513833
 10
-1695.505782496327
 20
62.57516944469398
 10
-1711.17592760016
 20
56.3254742459294
 10
-1718.789769763215
 20
52.78528173155564
 10
-1726.634189255247
 20
52.3222187399947
 10
-1749.295183490637
 20
61.47764394720161
 10
-1785.202447057169
 20
86.8675941860979
 10
-1797.324649475449
 20
95.94411564049506
 10
-1810.982223117263
 20
98.11737658133552
 10
-1826.285909750188
 20
93.37767955824984
 10
-1843.346509560178
 20
81.7154050120339
 10
-1859.327713041942
 20
69.8906105445576
 10
-1871.640554092997
 20
65.47143567626972
 10
-1882.374268557102
 20
68.31555377111681
 10
-1893.61803385964
 20
78.280618720255
 10
-1905.268293693249
 20
88.15735508530179
 10
-1915.75094545129
 20
91.44958106752483
 10
-1924.11474324908
 20
88.15735508530179
 10
-1929.408499620311
 20
78.280618720255
 10
-1934.23438322038
 20
68.38929723407045
 10
-1940.79139802103
 20
63.90261019623904
 10
-1987.006447674273
 20
65.30141873012508
 10
-2007.351114366679
 20
68.5791764279611
 10
-2018.898421549472
 20
72.7849684425264
 10
-2030.140064317693
 20
76.40780348575617
 10
-2045.938788266491
 20
74.87846882771373
 10
-2062.837510757355
 20
68.98265267628494
 10
-2077.379110206186
 20
59.50608218493925
 10
-2087.857127439753
 20
42.73541277365938
 10
-2088.815227747188
 20
24.0925707300139
 10
-2081.295400223462
 20
8.946769493875763
 10
-2074.681914326282
 20
4.363146897927435
 10
-2066.339692381925
 20
2.667241977908361
 10
-2049.887928883715
 20
-1.356615741864516
 10
-2031.00948553078
 20
-10.97574654276604
 10
-2013.427676972593
 20
-19.77565698811713
 10
-2000.096408904774
 20
-21.83654044685955
 10
-1965.178363167144
 20
-14.96009396775889
 10
-1951.785600022482
 20
-13.34616950166992
 10
-1943.109010768281
 20
-14.65610421329029
 10
-1937.002070606991
 20
-19.83277068678217
 10
-1931.31825474106
 20
-29.81898308793234
 10
-1921.584059212777
 20
-55.67604665910585
 10
-1912.159013728818
 20
-63.17246788695865
 10
-1890.183247567862
 20
-71.54475582202031
 10
-1860.447865923632
 20
-81.57347732790412
 10
-1839.685021025012
 20
-92.09680774824073
 10
-1826.367072346858
 20
-104.1271375343003
 10
-1818.966379364023
 20
-118.6768960829413
 10
-1811.60950016298
 20
-139.6708440759189
 10
-1803.935759692017
 20
-152.0278104734361
 10
-1793.505606580959
 20
-158.2524052434314
 10
-1777.879469986838
 20
-160.8491994082615
 10
-1757.432201153872
 20
-165.85454425855
 10
-1745.702394965321
 20
-176.3057474576603
 10
-1737.615402904497
 20
-184.9419696142367
 10
-1726.711457293536
 20
-189.1647224305538
 10
-1715.869337796882
 20
-188.5019075396049
 10
-1707.967843551769
 20
-182.4814849927597
 10
-1677.439451929896
 20
-158.85703543216
 10
-1662.537956341029
 20
-150.4661704536192
 10
-1649.070690294528
 20
-146.0341045970881
 10
-1612.556342967486
 20
-146.375014765013
 10
-1584.049324509575
 20
-151.020560839227
 10
-1569.958130737565
 20
-156.562595307279
 10
-1572.498142241192
 20
-167.7994867142752
 10
-1583.972056471286
 20
-186.1360996323828
 10
-1601.805453500919
 20
-209.5201186312993
 10
-1622.682097395446
 20
-197.8555852412223
 10
-1642.070591586815
 20
-189.7615245569364
 10
-1647.622187195694
 20
-192.4805883821532
 10
-1653.828730687591
 20
-199.9370709138029
 10
-1660.095503524859
 20
-214.3606068252993
 10
-1660.045692123159
 20
-229.8609297109065
 10
-1660.175361444472
 20
-246.188184177659
 10
-1666.935886393346
 20
-262.7524419947185
 10
-1674.645262073499
 20
-283.9510879762292
 10
-1676.32658187238
 20
-313.5117207858812
 10
-1678.245761824411
 20
-344.2693655868811
 10
-1682.948752634752
 20
-354.766174064639
 10
-1690.938166535327
 20
-364.7793368097896
 10
-1707.110845979918
 20
-376.9273212045546
 10
-1723.29384600422
 20
-381.9807443780632
 10
-1740.457807393656
 20
-384.6328217991181
 10
-1760.921082861569
 20
-391.141310402334
 10
-1778.992456881105
 20
-399.3345654885979
 10
-1788.980713925405
 20
-407.0409423587971
 10
-1789.886627150528
 20
-421.2652521362874
 10
-1787.119056600669
 20
-447.2416839218545
 10
-1784.916703308718
 20
-473.2521346748849
 10
-1788.70248667463
 20
-489.1417770890994
 10
-1799.273681217474
 20
-496.1838396633734
 10
-1817.427600401906
 20
-495.6515703693725
 10
-1832.058073673003
 20
-493.8405617763878
 10
-1813.972211896289
 20
-501.4838273280152
 10
-1767.801813354889
 20
-522.1474972974492
 10
-1756.465415981246
 20
-528.6461131951678
 10
-1750.900092054072
 20
-534.3925146142896
 10
-1750.137888033228
 20
-541.329073602009
 10
-1753.21083090578
 20
-551.3981427327258
 10
-1755.960389123124
 20
-569.1147614292894
 10
-1745.139086041019
 20
-585.4712250839034
 10
-1734.65869312684
 20
-600.3764789216079
 10
-1735.075917166251
 20
-605.9665917128804
 10
-1738.887774600527
 20
-611.912199793217
 10
-1747.60011590067
 20
-619.3304961799363
 10
-1756.302156093894
 20
-622.4157848025583
 10
-1762.167906254617
 20
-625.8291120776544
 10
-1764.051022596035
 20
-634.0390942921667
 10
-1767.573397505814
 20
-644.3949781748897
 10
-1777.391734967929
 20
-652.9785069565646
 10
-1786.6897010119
 20
-660.5376111015671
 10
-1788.980713925405
 20
-668.4213072148772
 10
-1790.292790644135
 20
-679.0717170752009
 10
-1797.25166545138
 20
-693.2822985343968
 10
-1810.4934170948
 20
-717.8446745900146
 10
-1816.417780359165
 20
-741.2336202052833
 10
-1815.252742692129
 20
-765.7483463391045
 10
-1807.226291541345
 20
-793.687966586413
 10
-1789.8453058861
 20
-830.0173808087093
 10
-1765.018781408256
 20
-870.1729260217494
 10
-1737.970372428179
 20
-906.4579033329122
 10
-1713.923752739025
 20
-931.1755943767847
 10
-1699.696872553002
 20
-947.5887238558502
 10
-1696.516264613993
 20
-969.4734547146376
 10
-1696.485244456484
 20
-982.6994333966123
 10
-1694.032042659181
 20
-989.8786623170831
 10
-1687.517653800017
 20
-992.8678916572252
 10
-1675.303014038552
 20
-993.5238326526304
 10
-1661.889882353554
 20
-995.109657879996
 10
-1649.376607855395
 20
-999.4752436249555
 10
-1628.145111273938
 20
-1015.338169368673
 10
-1613.799524948447
 20
-1038.697496867451
 10
-1608.530771642025
 20
-1067.138171523333
 10
-1602.861657733984
 20
-1087.494443999715
 10
-1585.497087642317
 20
-1109.179968197288
 10
-1562.4634231154
 20
-1131.506069357453
 10
-1535.692696147924
 20
-1119.875885972301
 10
-1493.527266718148
 20
-1101.204379978967
 10
-1477.600158652303
 20
-1097.710357454206
 10
-1460.498354414636
 20
-1102.186743385119
 10
-1445.105793959445
 20
-1105.845096800788
 10
-1430.813212573527
 20
-1103.740107468375
 10
-1420.284312934706
 20
-1096.83972892802
 10
-1416.182739302429
 20
-1086.111934192655
 10
-1411.98027713528
 20
-1076.927319270379
 10
-1401.87341131547
 20
-1068.628872162231
 10
-1389.254555339589
 20
-1066.074139227921
 10
-1376.200969284372
 20
-1071.247047452575
 10
-1363.238827459952
 20
-1083.788830118086
 10
-1350.894323649256
 20
-1103.340817870311
 10
-1336.576622361777
 20
-1119.961760984613
 10
-1315.005948690874
 20
-1135.624370117978
 10
-1294.236444097423
 20
-1145.475343979331
 10
-1286.669044543067
 20
-1146.704778169204
 10
-1282.322250042299
 20
-1144.661303386428
 10
-1275.040613709187
 20
-1138.695502020883
 10
-1264.276735890417
 20
-1138.822172532242
 10
-1249.95915143969
 20
-1145.059307780226
 10
-1232.016375737912
 20
-1157.424959042933
 10
-1204.652293328221
 20
-1174.896006360752
 10
-1174.469952691337
 20
-1189.100570727247
 10
-1150.685787291512
 20
-1200.242162290648
 10
-1138.700089144505
 20
-1210.327549620983
 10
-1137.747265963677
 20
-1216.530977466175
 10
-1140.892355530247
 20
-1223.271542803344
 10
-1165.202909440917
 20
-1246.097413167815
 10
-1172.294900253641
 20
-1254.843013996536
 10
-1175.955726713882
 20
-1265.479481337855
 10
-1174.190031307666
 20
-1288.656134575749
 10
-1169.366640224962
 20
-1299.311918926639
 10
-1162.318326884485
 20
-1308.089727753175
 10
-1153.346646941718
 20
-1314.047350546118
 10
-1142.753136579347
 20
-1316.242615741815
 10
-1122.121343570266
 20
-1321.137296715693
 10
-1099.321118872737
 20
-1333.410530108008
 10
-1079.762919299894
 20
-1349.446160043153
 10
-1068.857143246494
 20
-1365.627972227149
 10
-1067.582415342643
 20
-1374.041795627349
 10
-1070.019824705709
 20
-1381.988719895983
 10
-1088.978125978257
 20
-1401.775666355363
 10
-1102.256681198382
 20
-1413.932764016742
 10
-1109.788640271466
 20
-1424.655632135754
 10
-1113.151182505267
 20
-1437.332458613144
 10
-1113.921545625921
 20
-1455.351450822448
 10
-1114.743316917211
 20
-1475.997205823327
 10
-1118.254533917227
 20
-1485.664317583489
 10
-1126.024022105999
 20
-1485.703263167304
 10
-1139.620606963558
 20
-1477.464617003104
 10
-1154.442575670274
 20
-1470.602775117934
 10
-1168.630821837152
 20
-1475.67853358376
 10
-1179.189884830638
 20
-1484.394302095279
 10
-1181.225317350357
 20
-1493.547994224006
 10
-1174.263755297829
 20
-1505.130956088782
 10
-1157.831854047365
 20
-1521.134494862865
 10
-1144.436189456708
 20
-1533.594180237694
 10
-1138.23811662929
 20
-1542.096994296911
 10
-1138.117034809209
 20
-1549.450874688001
 10
-1142.952362713353
 20
-1558.463739585653
 10
-1162.516910416359
 20
-1606.969802152402
 10
-1168.861379693337
 20
-1626.606574440591
 10
-1175.919429429767
 20
-1635.697486288209
 10
-1188.170892240729
 20
-1636.548778332031
 10
-1210.095561795719
 20
-1631.466691208834
 10
-1218.399149720931
 20
-1634.108895924392
 10
-1222.570708567323
 20
-1647.699483162044
 10
-1226.764894797912
 20
-1660.840774672012
 10
-1235.608287987593
 20
-1666.056717766782
 10
-1249.411946514296
 20
-1663.382090852698
 10
-1268.486928755954
 20
-1652.851672336107
 10
-1293.858827716751
 20
-1640.335749538249
 10
-1301.486631871604
 20
-1640.089399247828
 10
-1305.572315705684
 20
-1643.469544885513
 10
-1305.988351904789
 20
-1650.190247974937
 10
-1302.607232627507
 20
-1659.965550566937
 10
-1283.943476805353
 20
-1687.536141934806
 10
-1265.758537463413
 20
-1705.385974000809
 10
-1249.070938982411
 20
-1713.540049829755
 10
-1234.218826393822
 20
-1711.929455211082
 10
-1221.540266837952
 20
-1700.485295407023
 10
-1214.083024867418
 20
-1692.258644482638
 10
-1202.543331546259
 20
-1689.275003833774
 10
-1140.520522568773
 20
-1698.32823582905
 10
-1125.245168848073
 20
-1697.860246221137
 10
-1121.200825751213
 20
-1693.537675873501
 10
-1118.414249756452
 20
-1685.846234634694
 10
-1108.024015868805
 20
-1670.583752429446
 10
-1088.380467049031
 20
-1656.135330289892
 10
-1074.876066388362
 20
-1648.150628804958
 10
-1067.288317766463
 20
-1640.950992398568
 10
-1064.26150593794
 20
-1632.541881414009
 10
-1064.440013021356
 20
-1620.92877566736
 10
-1063.45433924058
 20
-1605.798747392667
 10
-1057.002847499278
 20
-1596.491979646754
 10
-1045.037225800727
 20
-1592.973694023276
 10
-1027.509201093788
 20
-1595.209092643093
 10
-1016.520782511532
 20
-1600.663324292436
 10
-1011.778729280625
 20
-1609.557911452041
 10
-1013.375147706789
 20
-1621.29392946121
 10
-1021.402144095746
 20
-1635.272434186452
 10
-1031.486674623237
 20
-1653.765316259617
 10
-1027.217888126851
 20
-1656.54272056939
 10
-1015.765666586942
 20
-1657.462342640014
 10
-979.4359213271839
 20
-1654.757123969844
 10
-938.7474447452179
 20
-1647.707330697183
 10
-909.950203796717
 20
-1638.370613797317
 10
-878.3119409272817
 20
-1626.78979393965
 10
-848.8144389089935
 20
-1626.082658974319
 10
-836.6097302714017
 20
-1629.516919500717
 10
-827.0297397822346
 20
-1635.321817186729
 10
-820.7709702624413
 20
-1643.381430502131
 10
-818.5299245329707
 20
-1653.579837916698
 10
-815.3261244987993
 20
-1661.732316976708
 10
-804.7907793658566
 20
-1661.713428368557
 10
-794.3378625610585
 20
-1661.634427251788
 10
-791.0516341987427
 20
-1669.221864309017
 10
-792.5199995453224
 20
-1674.216245977462
 10
-796.4896450124252
 20
-1677.724133130061
 10
-809.3204039098445
 20
-1680.334246684555
 10
-824.3189324207865
 20
-1677.159753202205
 10
-836.2602910206213
 20
-1668.308200912715
 10
-845.8930333030652
 20
-1661.19272591295
 10
-857.5448120144431
 20
-1663.833548060282
 10
-871.8383475671647
 20
-1676.599676761361
 10
-889.3964382648089
 20
-1699.860160368416
 10
-901.1694935241866
 20
-1716.163794338584
 10
-911.5121748539964
 20
-1724.664466390693
 10
-925.7434558909892
 20
-1727.902188028367
 10
-949.1823297447096
 20
-1728.416970755235
 10
-972.3821556049733
 20
-1728.873588252675
 10
-985.7490588819826
 20
-1731.647390095943
 10
-993.8092174355587
 20
-1738.84433925705
 10
-1001.08880912552
 20
-1752.57037923521
 10
-1018.132233933049
 20
-1780.172321798051
 10
-1020.951329490295
 20
-1789.528686744952
 10
-1019.89084124301
 20
-1807.169751008915
 10
-1018.003304577829
 20
-1831.732652829914
 10
-1021.385825896127
 20
-1850.107159801073
 10
-1030.112440752739
 20
-1862.478068717596
 10
-1044.257204175287
 20
-1869.030254265852
 10
-1063.83807007791
 20
-1878.031961253741
 10
-1083.331347362533
 20
-1893.623319441516
 10
-1103.347547001042
 20
-1909.06869010836
 10
-1124.672435092489
 20
-1913.895430511274
 10
-1141.927081273838
 20
-1916.020593656103
 10
-1152.252042363012
 20
-1924.142247286522
 10
-1157.262528030364
 20
-1940.879657169224
 10
-1158.573767419042
 20
-1968.85201117973
 10
-1156.084404647166
 20
-2001.092625921241
 10
-1151.001032319704
 20
-2005.737100991899
 10
-1141.605916516907
 20
-2006.634660389293
 10
-1127.215893280284
 20
-2002.684662969225
 10
-1117.28763190785
 20
-1991.91317128882
 10
-1106.874439598543
 20
-1973.871415385776
 10
-1096.622248332728
 20
-1962.534589610711
 10
-1085.692540218074
 20
-1957.245117253699
 10
-1073.246797362251
 20
-1957.34548002319
 10
-1055.263128797467
 20
-1956.786474585901
 10
-1036.563289891908
 20
-1950.75068800624
 10
-1021.005424906214
 20
-1944.957921869587
 10
-1010.589428514872
 20
-1944.987111584656
 10
-999.4796165478655
 20
-1944.774157132355
 10
-982.2593203714411
 20
-1938.39919346325
 10
-962.7866647734478
 20
-1930.706992785559
 10
-946.2765023723077
 20
-1927.332319002399
 10
-904.9216668512658
 20
-1917.426392922283
 10
-883.0272774876918
 20
-1912.12414641378
 10
-866.969000695558
 20
-1914.329926917107
 10
-855.9418312574067
 20
-1924.410816032511
 10
-849.1407444829883
 20
-1942.733895360243
 10
-847.3512143794776
 20
-1955.073472554586
 10
-849.1579194854505
 20
-1964.621216100354
 10
-855.7097739962442
 20
-1973.97446540055
 10
-868.1557115799868
 20
-1985.730559858177
 10
-897.4141850776099
 20
-2015.632414400425
 10
-915.3282189385324
 20
-2042.862212437121
 10
-920.3707957669484
 20
-2064.188911498215
 10
-917.5881338033617
 20
-2071.628881102327
 10
-911.014976058221
 20
-2076.381430168072
 10
-900.7054763658221
 20
-2086.058940399112
 10
-890.7566127795504
 20
-2103.639892154456
 10
-880.6338571615446
 20
-2119.110811124283
 10
-866.8298870701706
 20
-2126.646100044783
 10
-849.8779259662317
 20
-2126.123352946025
 10
-830.311236256117
 20
-2117.420261222038
 10
-808.2229952491031
 20
-2110.955995329245
 10
-773.8777027398501
 20
-2109.788153580174
 10
-728.3169778402837
 20
-2112.746362762808
 10
-722.9812576024913
 20
-2115.434620631226
 10
-722.3559083631728
 20
-2120.346690808279
 10
-716.8052863938887
 20
-2132.415674086276
 10
-703.4645934947871
 20
-2151.259767434286
 10
-686.5936586779755
 20
-2167.555475978148
 10
-670.4382515998068
 20
-2174.604295611214
 10
-656.8370322177738
 20
-2172.124162942703
 10
-647.6286994349541
 20
-2159.832995109041
 10
-642.9822965578969
 20
-2151.62558330306
 10
-633.7504406424527
 20
-2146.921638325916
 10
-583.8996649577368
 20
-2143.510900932144
 10
-540.853753769069
 20
-2140.272205654873
 10
-508.8109436477548
 20
-2132.826141066894
 10
-488.8178192676568
 20
-2121.54812312339
 10
-483.6669152978588
 20
-2114.589462516856
 10
-481.9208679386779
 20
-2106.813645670714
 10
-480.4834838040233
 20
-2100.069029992828
 10
-476.5400681876199
 20
-2094.774923111342
 10
-463.3472516702636
 20
-2088.899514445833
 10
-446.7669093270883
 20
-2089.909977090707
 10
-431.2234152618221
 20
-2098.528926880861
 10
-410.3019255275321
 20
-2111.615460899986
 10
-383.4489844326231
 20
-2120.703919175823
 10
-357.9458972727439
 20
-2124.063131562208
 10
-341.0740277619211
 20
-2119.962005804146
 10
-333.8094495945202
 20
-2111.219617986089
 10
-330.790271100424
 20
-2102.183541520483
 10
-321.7894209153792
 20
-2089.034324584209
 10
-300.145101145481
 20
-2070.398025398644
 10
-276.1952028137311
 20
-2048.745994403151
 10
-270.9332260388933
 20
-2039.227031643822
 10
-269.2320245194746
 20
-2029.366068240221
 10
-266.7967766363104
 20
-2014.920216509199
 10
-261.3114079927082
 20
-2006.146925370385
 10
-256.7534505364952
 20
-1995.441543818506
 10
-257.1828061252645
 20
-1975.096448724679
 10
-257.5297139130976
 20
-1953.893518728949
 10
-252.2298430852065
 20
-1941.737803635797
 10
-243.4883120699947
 20
-1928.426300451764
 10
-234.3758243689435
 20
-1906.304546769877
 10
-228.5547253200643
 20
-1879.156008693812
 10
-230.904857629801
 20
-1869.013721865523
 10
-236.9793950653571
 20
-1857.035968617613
 10
-243.5206174317686
 20
-1844.694794654333
 10
-244.8768194969616
 20
-1836.11985337389
 10
-240.3402236934703
 20
-1827.475355280753
 10
-229.2030329810418
 20
-1814.925491406599
 10
-215.0139300113201
 20
-1795.05525981623
 10
-208.6355391308389
 20
-1777.122239983198
 10
-205.4774612120668
 20
-1762.913820003904
 10
-196.895431835369
 20
-1754.339307124883
 10
-181.6928479380281
 20
-1750.788170901457
 10
-158.6731259301173
 20
-1751.649861416157
 10
-133.6822705613663
 20
-1752.834547130228
 10
-119.2881580384419
 20
-1749.447313396288
 10
-114.2838841917078
 20
-1740.736588337873
 10
-117.4625643243184
 20
-1725.950800078521
 10
-124.9821776473327
 20
-1712.167860602407
 10
-133.1870190447816
 20
-1705.005475646936
 10
-171.5948032929527
 20
-1693.608848927923
 10
-196.7571750128249
 20
-1688.080562250957
 10
-202.9300305747224
 20
-1689.528325383699
 10
-206.9730884673167
 20
-1693.794327270843
 10
-214.3875097684468
 20
-1699.208620223981
 10
-223.5459337856073
 20
-1698.43644613368
 10
-231.3287413640442
 20
-1692.679529406928
 10
-234.6162549306259
 20
-1683.139613923507
 10
-232.5468034434443
 20
-1675.43796894174
 10
-222.8624193168607
 20
-1681.209276061712
 10
-218.7259699142783
 20
-1683.912547452692
 10
-217.9996153033349
 20
-1682.65444931313
 10
-226.7643384137091
 20
-1668.308200912715
 10
-240.0414915928172
 20
-1652.541684961732
 10
-249.9697529652503
 20
-1645.982099752551
 10
-254.1215469278563
 20
-1647.160223135748
 10
-253.5075892718037
 20
-1649.987068864174
 10
-253.4577778701041
 20
-1659.209461002751
 10
-258.9620156490641
 20
-1675.747956316117
 10
-265.7251110064708
 20
-1688.615518790241
 10
-267.8437312932187
 20
-1690.585269582856
 10
-268.6962111773468
 20
-1688.999366464322
 10
-272.414365536964
 20
-1683.288171852969
 10
-280.9858796060312
 20
-1681.497784946614
 10
-299.5464880494515
 20
-1682.263747216297
 10
-309.9402659852267
 20
-1680.371186570804
 10
-313.1557496945425
 20
-1675.315173515972
 10
-310.1815533497529
 20
-1666.590817503221
 10
-302.279825431137
 20
-1656.887544768488
 10
-293.6052808200866
 20
-1652.851672336107
 10
-285.1175971201806
 20
-1650.530184503267
 10
-277.6481067635363
 20
-1643.754646031831
 10
-266.6422016141482
 20
-1617.974850498946
 10
-265.9243371404768
 20
-1603.612283898912
 10
-269.8339869357123
 20
-1601.192906341152
 10
-277.3037693842357
 20
-1600.800919040054
 10
-291.0704101335227
 20
-1596.237801293985
 10
-302.8585957522123
 20
-1582.575943637952
 10
-310.0493136199093
 20
-1563.779928613161
 10
-302.3296368328365
 20
-1544.793294428389
 10
-287.9954031450284
 20
-1528.010921869173
 10
-269.2663745243999
 20
-1514.381700612377
 10
-235.3169444018349
 20
-1492.055579979421
 10
-218.8668945093132
 20
-1484.263775971123
 10
-196.2909184833911
 20
-1480.892529399338
 10
-171.6675731163109
 20
-1478.056784605012
 10
-155.2864374343498
 20
-1470.288484256546
 10
-147.6433860834336
 20
-1458.00043206959
 10
-149.2343326550713
 20
-1441.605451232583
 10
-158.3983453635096
 20
-1426.27341221464
 10
-171.1894966021891
 20
-1415.933846531536
 10
-179.3408851858516
 20
-1411.28368540564
 10
-183.4001639141052
 20
-1404.709826639991
 10
-182.1945449487334
 20
-1374.716411030194
 10
-171.5741816063228
 20
-1328.161327484661
 10
-170.0189870806271
 20
-1319.187953408997
 10
-174.4138988501986
 20
-1312.58971470788
 10
-183.2177817450988
 20
-1309.497552189715
 10
-194.8895200681818
 20
-1311.042348244531
 10
-203.1381557746304
 20
-1310.394897386397
 10
-210.5933531020146
 20
-1304.667384575426
 10
-222.7121477817104
 20
-1296.890165688267
 10
-242.1727886670969
 20
-1291.312943885237
 10
-256.335272330281
 20
-1289.92872047249
 10
-266.9685071881427
 20
-1292.655943397516
 10
-277.7305545644731
 20
-1301.467888028266
 10
-292.2794563102702
 20
-1318.33782973269
 10
-312.595887454409
 20
-1341.106177469866
 10
-328.1034152730222
 20
-1352.060557611868
 10
-342.1876377855296
 20
-1352.504517794567
 10
-358.2342114297271
 20
-1343.741508289881
 10
-385.2591167499722
 20
-1329.981760908929
 10
-392.6121403382172
 20
-1324.936925236651
 10
-399.4859969359936
 20
-1312.807829450036
 10
-407.8328534048246
 20
-1300.103098461843
 10
-419.4790239521325
 20
-1296.45909649381
 10
-434.0091344537386
 20
-1301.848172181428
 10
-451.0077913126711
 20
-1316.242615741815
 10
-463.8221151737207
 20
-1332.183452125955
 10
-463.8743996199923
 20
-1335.744908929091
 10
-459.8970234545022
 20
-1336.851333492485
 10
-451.1485017069949
 20
-1340.031201465403
 10
-445.3103444924045
 20
-1347.117058348677
 10
-444.1670968795133
 20
-1354.42831279828
 10
-449.5033623554786
 20
-1358.284392942979
 10
-516.2687308564622
 20
-1358.813351862355
 10
-574.6600978166973
 20
-1358.511095186366
 10
-590.1166458660966
 20
-1382.506520905596
 10
-604.6878634314196
 20
-1410.915630165796
 10
-603.2208806530652
 20
-1418.338638968157
 10
-596.347335619959
 20
-1424.094913092776
 10
-586.5574284340286
 20
-1433.20130580996
 10
-577.205912212313
 20
-1447.69521639141
 10
-561.7470274278846
 20
-1486.31348204731
 10
-553.828338707517
 20
-1526.885706061588
 10
-553.9021016432632
 20
-1543.822069459208
 10
-557.3075619104288
 20
-1556.347923380939
 10
-563.6984153777311
 20
-1565.655119528274
 10
-570.9522445639993
 20
-1569.633664061278
 10
-580.5580559752359
 20
-1568.537326404092
 10
-594.0048171718581
 20
-1562.61983703527
 10
-613.3561767490594
 20
-1549.791453818463
 10
-631.6655277584966
 20
-1532.452957795161
 10
-647.6950237641913
 20
-1511.967794909143
 10
-660.2068767485409
 20
-1489.699313740233
 10
-673.3628702163996
 20
-1468.979932113152
 10
-686.1060404958191
 20
-1460.554308201055
 10
-691.1657728539057
 20
-1461.16195667253
 10
-694.7338893518751
 20
-1465.095421692268
 10
-695.5439574952285
 20
-1483.276271747907
 10
-708.9327676631342
 20
-1509.037178672643
 10
-720.4296403148873
 20
-1521.017171291622
 10
-733.0380978198903
 20
-1528.083925366034
 10
-744.1060432842959
 20
-1529.30938710636
 10
-750.9814187598412
 20
-1523.765541668659
 10
-761.4671666917955
 20
-1512.312463325906
 10
-780.4295572506437
 20
-1498.052732539936
 10
-799.404819324943
 20
-1486.698829126368
 10
-809.9292207488336
 20
-1483.963232900822
 10
-810.34568534936
 20
-1489.155769699718
 10
-804.6465249234056
 20
-1494.940805137985
 10
-798.860399008792
 20
-1501.628988664923
 10
-802.1099211583621
 20
-1508.006736943272
 10
-813.3891269421729
 20
-1513.266474347041
 10
-831.6920324574885
 20
-1516.600566831865
 10
-847.2916471090325
 20
-1515.615652489974
 10
-857.5825892307436
 20
-1510.802659878147
 10
-859.937881830336
 20
-1504.474917729418
 10
-851.7305673883152
 20
-1498.945774249607
 10
-820.868158966852
 20
-1487.521671421213
 10
-822.8336062724551
 20
-1482.820725254023
 10
-834.0002009006646
 20
-1475.644183578835
 10
-847.3314689684835
 20
-1464.682053265655
 10
-852.8777874507557
 20
-1454.410330789557
 10
-852.2516982453444
 20
-1450.2295418398
 10
-850.0844543972032
 20
-1449.187727999956
 10
-839.3928206364106
 20
-1456.835297038594
 10
-827.017277195414
 20
-1464.357461297349
 10
-816.1874060848695
 20
-1465.305474698575
 10
-807.2870160332756
 20
-1464.708672572193
 10
-799.5355596498102
 20
-1468.506684851423
 10
-793.1769141803234
 20
-1471.871057527663
 10
-787.9878045928026
 20
-1467.970871509295
 10
-786.708344800518
 20
-1462.696743712306
 10
-790.1173685886028
 20
-1460.503639996512
 10
-801.3061816723784
 20
-1455.100719153847
 10
-818.7291506669767
 20
-1442.113788465329
 10
-830.7132130994643
 20
-1431.143187487669
 10
-836.7214067329912
 20
-1421.548865023658
 10
-838.0990872876576
 20
-1409.356560554511
 10
-836.1915910107713
 20
-1390.591994088651
 10
-834.6837153694114
 20
-1364.046255758876
 10
-837.1035408013849
 20
-1358.894494986234
 10
-841.9345652185176
 20
-1357.460051243157
 10
-850.3764099662728
 20
-1359.540680112893
 10
-856.4430998666905
 20
-1364.542578279015
 10
-867.3270663931534
 20
-1368.42099371603
 10
-886.1144939167129
 20
-1366.87738550152
 10
-905.1157326954164
 20
-1361.349838790647
 10
-916.6411524601063
 20
-1353.276477684158
 10
-920.3502909170699
 20
-1349.206157882893
 10
-925.7416254485502
 20
-1348.205879508187
 10
-946.5375351478281
 20
-1355.845698375646
 10
-960.7658173748674
 20
-1362.226990702122
 10
-969.5463134466869
 20
-1363.88052282695
 10
-976.2131353209026
 20
-1360.41407377553
 10
-984.1003560095476
 20
-1351.435442046052
 10
-993.2092022985116
 20
-1335.903436928011
 10
-996.6802664016139
 20
-1320.402997205652
 10
-994.4040722827502
 20
-1307.51086006814
 10
-986.2711439058161
 20
-1299.803723759056
 10
-968.84391036979
 20
-1295.888718946046
 10
-950.7262689966825
 20
-1296.470273876364
 10
-934.1053258823801
 20
-1301.21221027052
 10
-921.1682065955619
 20
-1309.778349849021
 10
-907.0168808421412
 20
-1323.929675602442
 10
-892.3366156421359
 20
-1304.626160674957
 10
-849.0308205726703
 20
-1257.85124878158
 10
-827.5711418156399
 20
-1234.318243451779
 10
-816.8589058410091
 20
-1215.847248796717
 10
-815.6739475078516
 20
-1208.929422634814
 10
-817.3449272542294
 20
-1203.780407525831
 10
-821.9281603943386
 20
-1200.567981044844
 10
-829.4800206607519
 20
-1199.459881821345
 10
-842.6386819011023
 20
-1195.958109125406
 10
-846.0082148671983
 20
-1182.285950362454
 10
-843.2742348833803
 20
-1170.537372402503
 10
-836.5118989648584
 20
-1165.40999156533
 10
-827.8805839518426
 20
-1167.350104768662
 10
-819.5397445757116
 20
-1176.804028403019
 10
-806.1449367878989
 20
-1187.174516879673
 10
-783.1310176719762
 20
-1195.695362744197
 10
-766.3907258160727
 20
-1200.32447378204
 10
-757.2189824092472
 20
-1205.772162573301
 10
-753.0294112303408
 20
-1214.850845507601
 10
-751.2355971126103
 20
-1230.372958447352
 10
-748.7514919945497
 20
-1247.062913136175
 10
-742.1875059343976
 20
-1258.597465640269
 10
-728.3473553956594
 20
-1268.304262950338
 10
-704.0347568418397
 20
-1279.511010475461
 10
-699.9338063389043
 20
-1278.901823653425
 10
-695.0238197505866
 20
-1274.56159148353
 10
-684.3809069151466
 20
-1257.850391978737
 10
-675.3145697309165
 20
-1235.702350027774
 10
-671.0333401205014
 20
-1214.442423170132
 10
-668.0553660540815
 20
-1201.297490248076
 10
-661.9655035312941
 20
-1194.211536000843
 10
-655.3150193294889
 20
-1189.862248982711
 10
-653.5533742639899
 20
-1183.483079190553
 10
-656.0431070189117
 20
-1175.772243051007
 10
-662.1466783872019
 20
-1167.427918045124
 10
-682.6453748635953
 20
-1151.631667140898
 10
-709.9494616014188
 20
-1141.679902108632
 10
-729.7071015089788
 20
-1134.827407163578
 10
-739.7676999752158
 20
-1123.393957395068
 10
-739.9167836700598
 20
-1107.943114873697
 10
-729.9399182090253
 20
-1089.038363778896
 10
-715.4863357796157
 20
-1062.343210716813
 10
-711.4959712619231
 20
-1053.307153723999
 10
-701.9051928460394
 20
-1041.617714633072
 10
-690.2477475522168
 20
-1033.318079684618
 10
-677.7311626794335
 20
-1032.636609859022
 10
-662.2263221061039
 20
-1040.086549532591
 10
-641.604090237849
 20
-1056.181201500008
 10
-620.577505845634
 20
-1069.154929635613
 10
-598.6718222627534
 20
-1071.569906342402
 10
-574.3381930936736
 20
-1063.228424364138
 10
-546.027713524485
 20
-1043.932756971792
 10
-521.4543937598155
 20
-1027.631265008733
 10
-502.5845379081119
 20
-1020.850994648864
 10
-492.3402915413949
 20
-1017.446157511039
 10
-489.9428208745312
 20
-1009.187318061631
 10
-494.9721951500337
 20
-999.0080134559262
 10
-507.0085420287928
 20
-989.8417419036269
 10
-531.1028311125373
 20
-974.2019743551692
 10
-542.5645943204813
 20
-958.0553689789422
 10
-543.4788029549563
 20
-950.044982881482
 10
-541.139478044728
 20
-942.211448680127
 10
-526.5730897317985
 20
-927.4797558366936
 10
-514.3866855185993
 20
-918.0013549029082
 10
-510.7335702839532
 20
-908.3110899931689
 10
-515.8675134519999
 20
-894.3457683480483
 10
-530.0422260285017
 20
-872.0423140448733
 10
-545.0580269058654
 20
-841.7980499297227
 10
-546.4491047413639
 20
-829.2833733905464
 10
-543.6474178600833
 20
-818.2664466409388
 10
-536.5668381034165
 20
-808.5668542638755
 10
-525.1212567855482
 20
-800.0042197879174
 10
-488.7904405222347
 20
-785.5681239256409
 10
-484.1605700455065
 20
-782.4694185493945
 10
-480.9539659293009
 20
-776.0700944176123
 10
-478.4860816468994
 20
-752.3262766426205
 10
-477.9892138885866
 20
-735.6465256967571
 10
-475.5364599654967
 20
-726.2699869374405
 10
-469.6845549598196
 20
-721.7880123152504
 10
-458.9902339537438
 20
-719.7919732535597
 10
-441.8618104095394
 20
-721.250037493221
 10
-428.0771573277375
 20
-727.8911942277022
 10
-409.9457876363349
 20
-739.4964913847961
 10
-382.3807654869511
 20
-752.9101877807593
 10
-348.1084570017674
 20
-767.5973268763081
 10
-318.4593787712711
 20
-736.2239913407752
 10
-303.0329356581606
 20
-721.8813843524467
 10
-288.3100055710861
 20
-711.7003661410535
 10
-275.0546424461231
 20
-705.6679872999775
 10
-264.0309002193471
 20
-703.7712789498073
 10
-256.0028328268354
 20
-705.9972722111337
 10
-251.7344747318712
 20
-712.3330176773379
 10
-251.9898993433221
 20
-722.7655464690083
 10
-257.5331411244733
 20
-737.2819091795281
 10
-263.8892161854278
 20
-758.8351936472577
 10
-265.4949815517075
 20
-783.8507405161481
 10
-265.5164600411818
 20
-803.4367472358349
 10
-268.0573283476524
 20
-811.9404180978962
 10
-296.4424081826387
 20
-823.4881731549034
 10
-318.6689060121962
 20
-830.7441638210743
 10
-326.480260703569
 20
-829.5625937537092
 10
-334.6303640829656
 20
-825.2948782608774
 10
-349.4521185889712
 20
-820.1305575374544
 10
-366.6374221583378
 20
-819.9477664398191
 10
-381.7283685396728
 20
-824.1868374557547
 10
-390.2670320087927
 20
-832.2881030730473
 10
-389.2737248935891
 20
-844.1225365725168
 10
-381.8208837740253
 20
-858.8055084905978
 10
-371.2458336183836
 20
-871.3052299255886
 10
-360.8858604493603
 20
-876.5899703941668
 10
-325.7136558317534
 20
-890.329115561281
 10
-300.4164545007129
 20
-900.0323882960147
 10
-275.5932598702852
 20
-904.0682607283953
 10
-256.0137960086795
 20
-906.0436975762472
 10
-243.7484880426709
 20
-911.7776364085484
 10
-239.1225900154923
 20
-920.9815683403975
 10
-242.461297551999
 20
-933.3669844868914
 10
-246.6053802890097
 20
-947.8016783081507
 10
-246.4525188725356
 20
-963.6068477510708
 10
-246.6732040232237
 20
-976.938115818889
 10
-257.8216694821667
 20
-979.2488546705968
 10
-274.800035691932
 20
-978.7872131928448
 10
-285.761932331609
 20
-981.6815516180218
 10
-293.3775075731442
 20
-989.4665985675278
 10
-300.316851170106
 20
-1003.677063189972
 10
-312.3042434500098
 20
-1023.09219616067
 10
-319.9659692083651
 20
-1026.736295492663
 10
-330.4742666333486
 20
-1027.720567232421
 10
-345.9282248014242
 20
-1025.702621279835
 10
-354.8337751428735
 20
-1020.850994648864
 10
-362.7290575673683
 20
-1013.49175924
 10
-370.5341809653305
 20
-1014.457142371608
 10
-376.4999823308749
 20
-1022.59178435423
 10
-378.877279185323
 20
-1036.740325498409
 10
-373.8499300801782
 20
-1058.715857985861
 10
-359.7463710853062
 20
-1077.475166797906
 10
-338.0343444179466
 20
-1091.66705437687
 10
-310.1815533497529
 20
-1099.940381583457
 10
-266.4154993707607
 20
-1111.639264978459
 10
-257.6070014241782
 20
-1115.053449056399
 10
-258.474280630156
 20
-1110.45082101555
 10
-261.5521695918533
 20
-1097.982762340201
 10
-258.6812179897574
 20
-1084.377375780699
 10
-251.4270577660263
 20
-1073.430492663583
 10
-241.3553013900269
 20
-1068.938002733763
 10
-234.7977608239958
 20
-1067.966699873414
 10
-230.6121620946383
 20
-1064.650522357146
 10
-227.7466823470686
 20
-1048.569715544775
 10
-224.0367844512207
 20
-1032.561892756473
 10
-214.7812301480253
 20
-1021.031312701928
 10
-202.7911311500461
 20
-1016.149639553044
 10
-190.8776770610152
 20
-1020.088479063348
 10
-179.5781027368694
 20
-1022.967687129213
 10
-162.1216600129824
 20
-1016.619342766645
 10
-141.0342620916403
 20
-1009.898016547881
 10
-112.7843818508681
 20
-1006.760755043657
 10
-45.88332693587244
 20
-1009.83992920962
 10
-12.77527720604848
 20
-1015.357116395199
 10
16.40908284557463
 20
-1023.059890798896
 10
38.8981907467969
 20
-1032.598598969219
 10
51.92048402541877
 20
-1043.62362640026
 10
58.66554757751874
 20
-1080.588788332753
 10
61.13944895262057
 20
-1142.346261047708
 10
62.01811974186421
 20
-1153.528745474114
 10
65.35049862100095
 20
-1162.70508445983
 10
81.57643615145843
 20
-1178.988564090374
 10
100.4668942170001
 20
-1197.179832089684
 10
115.6632468209313
 20
-1221.037215187082
 10
125.7898580517344
 20
-1247.810726763801
 10
129.4710919978947
 20
-1274.750399673865
 10
131.74750031747
 20
-1295.512816171063
 10
134.5746381377735
 20
-1300.74926411571
 10
138.5114524777204
 20
-1302.503470574701
 10
149.767251965658
 20
-1311.080982263676
 10
164.1349593827554
 20
-1331.699144318422
 10
175.9196983172778
 20
-1349.292987062009
 10
179.5605846386052
 20
-1352.288233494851
 10
180.9654102651902
 20
-1350.5904786596
 10
182.3169972787009
 20
-1344.209497897795
 10
186.9350672435325
 20
-1349.333354159633
 10
189.9250560225591
 20
-1356.782534394318
 10
189.0509029210384
 20
-1362.000833696908
 10
202.668966268071
 20
-1390.042432955437
 10
240.4971233923224
 20
-1452.376942912988
 10
286.4860160403519
 20
-1525.649612176881
 10
309.2469446438117
 20
-1572.270727959772
 10
314.6687151490433
 20
-1593.807285299254
 10
317.585642012833
 20
-1618.545344883461
 10
320.3078214847551
 20
-1690.778575988122
 10
323.6533055528457
 20
-1801.048965692578
 10
376.1436960717956
 20
-1858.251888689903
 10
428.6341060635382
 20
-1915.447957264477
 10
481.4611227361938
 20
-1857.262670861001
 10
526.8312090029858
 20
-1801.218125835879
 10
561.7320797381526
 20
-1748.187599014997
 10
578.0936842098303
 20
-1720.053056120693
 10
594.5789409101212
 20
-1698.589288077362
 10
616.1700025941517
 20
-1678.341440106322
 10
647.849041489841
 20
-1653.854637956097
 10
689.2820018520155
 20
-1620.230656604683
 10
706.5151890166825
 20
-1600.409360140377
 10
709.9259264104553
 20
-1593.874680632046
 10
718.3858029635171
 20
-1592.440645817599
 10
726.810492181602
 20
-1591.177504224933
 10
730.4075647211379
 20
-1585.303166562979
 10
731.8939618730241
 20
-1580.211089897533
 10
735.2506038508768
 20
-1580.837938541829
 10
755.3156607242822
 20
-1571.630462561852
 10
794.8037954674828
 20
-1546.123422425217
 10
833.3967270211109
 20
-1518.216750141815
 10
850.7762132713796
 20
-1501.810377721542
 10
829.6248082830375
 20
-1481.799318900097
 10
815.8933743415186
 20
-1469.554301583256
 10
812.5745290527575
 20
-1462.069895068011
 10
808.9911848315164
 20
-1452.492864443214
 10
794.6243342172634
 20
-1435.223613667934
 10
782.2629669687748
 20
-1421.113511814981
 10
775.3139648670271
 20
-1406.63245327619
 10
771.7757001590521
 20
-1384.86621435616
 10
769.646564564674
 20
-1348.900571359488
 10
766.6692525731791
 20
-1307.026766461319
 10
761.9079796966594
 20
-1280.040826197681
 10
754.6788420105299
 20
-1265.581129311613
 10
744.2978382262463
 20
-1261.286035073359
 10
734.1477233356104
 20
-1265.265455881999
 10
727.2879260935906
 20
-1276.407690047532
 10
724.1415513227548
 20
-1293.518704915771
 10
725.1317233184614
 20
-1315.404526250906
 10
731.0129348759592
 20
-1339.424838198194
 10
736.4043862441908
 20
-1342.025507448613
 10
745.2664538413105
 20
-1340.657076470103
 10
757.5913290777643
 20
-1339.871368789426
 10
761.4717696851385
 20
-1346.221426757682
 10
756.8857908813706
 20
-1354.260866260668
 10
746.3303692999707
 20
-1359.592185647489
 10
734.6092674494025
 20
-1360.805632675207
 10
726.5262478381278
 20
-1356.491435628092
 10
719.9125672130276
 20
-1352.659073343937
 10
709.1050119220089
 20
-1355.818222266265
 10
691.6528726851343
 20
-1358.851148551448
 10
665.2977535153404
 20
-1354.815256646275
 10
649.3255659362294
 20
-1349.92949421109
 10
637.791987071731
 20
-1343.700303862205
 10
628.9014697256343
 20
-1334.797109728576
 10
620.8584861745212
 20
-1321.88941383033
 10
613.5187819759408
 20
-1307.187981705521
 10
610.8804328731799
 20
-1296.692672632741
 10
612.8017743051132
 20
-1286.286237382226
 10
619.1411027650278
 20
-1271.851446197007
 10
627.4798974980081
 20
-1244.335359173686
 10
630.949890597556
 20
-1212.96547032232
 10
632.4646401344589
 20
-1188.616262919715
 10
636.1020797716196
 20
-1177.971850679298
 10
658.0297481365637
 20
-1175.416377778896
 10
674.5811149653804
 20
-1168.757189239108
 10
690.8182104056013
 20
-1155.116790599757
 10
698.6543539610725
 20
-1144.382005132098
 10
703.381802598049
 20
-1133.110121118044
 10
705.6977017396125
 20
-1101.005173317753
 10
708.3278917425636
 20
-1067.430983895247
 10
719.2788641459806
 20
-1038.127976122531
 10
733.9934793509105
 20
-1001.403225278928
 10
738.1555744204356
 20
-988.9572876951856
 10
748.1654073181698
 20
-972.1525993164441
 10
756.7978906986995
 20
-955.8648356716794
 10
757.6454244936835
 20
-944.6468328728347
 10
757.4384676612899
 20
-940.6367034713563
 10
767.5101266733304
 20
-944.8391656385055
 10
777.8015945604229
 20
-953.3333921964917
 10
782.0804874358096
 20
-962.7962343695434
 10
790.4682367676455
 20
-986.3863533980092
 10
794.2057081368347
 20
-993.8144056534747
 10
794.5298717037198
 20
-999.9769406356609
 10
783.5368380697818
 20
-1014.098200398376
 10
773.0289690462209
 20
-1027.81845695734
 10
774.5102253810432
 20
-1040.147616208013
 10
784.1969657154477
 20
-1053.953105177156
 10
796.3090812275191
 20
-1065.513517548904
 10
808.3310571858509
 20
-1072.859453040895
 10
817.7473009678678
 20
-1074.021491897977
 10
830.7061129448712
 20
-1074.434509814335
 10
846.1547160951718
 20
-1080.921967802291
 10
859.0916211812796
 20
-1090.629544024036
 10
864.5153584384939
 20
-1100.702897168973
 10
871.1651026742066
 20
-1115.934904454886
 10
887.372151596514
 20
-1132.5399382982
 10
907.5231808461904
 20
-1145.893950586966
 10
926.0049050095931
 20
-1151.372873736447
 10
942.2926686543569
 20
-1154.905549753145
 10
955.035722097025
 20
-1163.394616021276
 10
975.7620749836091
 20
-1198.734286649287
 10
988.1676649425195
 20
-1231.636956842862
 10
994.1977459941508
 20
-1245.542808581497
 10
1009.972537881695
 20
-1265.73494489489
 10
1032.018834494939
 20
-1288.288079335905
 10
1056.863390778089
 20
-1309.276867039026
 10
1069.621048814688
 20
-1322.462147585914
 10
1069.33585030441
 20
-1328.592708243789
 10
1065.278616219307
 20
-1336.590281244174
 10
1059.666168135717
 20
-1358.498223670915
 10
1061.040090441545
 20
-1397.145581677925
 10
1066.549274309649
 20
-1431.824345748595
 10
1075.169080902648
 20
-1458.292504475411
 10
1086.274823056146
 20
-1475.178881216205
 10
1099.241774660167
 20
-1481.112357747182
 10
1113.078166950067
 20
-1482.692107463473
 10
1125.923958842839
 20
-1487.256004121219
 10
1147.736679317152
 20
-1504.284279096643
 10
1162.865733952251
 20
-1530.093166980638
 10
1169.496901144484
 20
-1562.578613134802
 10
1174.133431316044
 20
-1590.458023509533
 10
1179.170769963437
 20
-1601.035819328834
 10
1186.459591756763
 20
-1609.780310208417
 10
1209.108142878125
 20
-1622.993397902149
 10
1244.711845091611
 20
-1632.545211261425
 10
1284.888557229454
 20
-1638.150785449472
 10
1296.902783016607
 20
-1636.670171716783
 10
1307.465390058221
 20
-1632.31852849083
 10
1316.795564100005
 20
-1625.596871234602
 10
1322.530807609364
 20
-1617.578248146165
 10
1324.759332333639
 20
-1608.567973129837
 10
1323.569388965754
 20
-1598.871437981103
 10
1311.287022834034
 20
-1578.640862376485
 10
1286.389558975271
 20
-1559.329305185943
 10
1279.71533744013
 20
-1553.680812964532
 10
1275.877386464698
 20
-1544.637005800539
 10
1274.340321108268
 20
-1505.842822942547
 10
1277.504610847659
 20
-1470.574442205708
 10
1283.600509935938
 20
-1450.144328902413
 10
1290.989597134797
 20
-1436.062559961686
 10
1297.250352879365
 20
-1416.050644337397
 10
1298.978037395777
 20
-1393.524440767591
 10
1290.133475838582
 20
-1375.815552769415
 10
1278.154748951077
 20
-1356.805823853439
 10
1272.441743370076
 20
-1338.713847620067
 10
1273.134176377516
 20
-1322.493381944134
 10
1280.371804200917
 20
-1309.09826259165
 10
1292.610161822926
 20
-1299.227543319304
 10
1304.777677427974
 20
-1296.286509139133
 10
1316.283137580959
 20
-1300.249397547444
 10
1326.535328846773
 20
-1311.090426567751
 10
1355.78597428205
 20
-1345.486387281548
 10
1366.378316276906
 20
-1357.184842275128
 10
1371.619476637195
 20
-1368.839502959708
 10
1372.758226035156
 20
-1386.110038939253
 10
1371.043296197443
 20
-1414.656119817731
 10
1369.425944519979
 20
-1443.119967095983
 10
1370.758214523917
 20
-1461.855227010022
 10
1376.279198903918
 20
-1476.986540488982
 10
1387.228009827432
 20
-1494.638548461996
 10
1407.211592539496
 20
-1530.621366461129
 10
1401.077916234917
 20
-1540.617451567777
 10
1386.334968117761
 20
-1555.915140580794
 10
1375.493919624662
 20
-1566.614913968604
 10
1370.155395304835
 20
-1574.931821283481
 10
1369.471880836089
 20
-1583.199793472294
 10
1372.595822950648
 20
-1593.752742009121
 10
1377.917483832682
 20
-1611.853422580477
 10
1379.325425105973
 20
-1627.745109637842
 10
1376.824144985449
 20
-1641.279654180383
 10
1370.418161158835
 20
-1652.308985098436
 10
1364.111683298868
 20
-1668.217185083339
 10
1367.484857677052
 20
-1687.056994417129
 10
1379.323068898152
 20
-1705.827246938226
 10
1398.411662621353
 20
-1721.526795957839
 10
1423.911517297775
 20
-1736.57114394814
 10
1436.166835721535
 20
-1721.423745943065
 10
1444.82765201429
 20
-1705.847849152064
 10
1448.429028040838
 20
-1689.658851507855
 10
1451.43510134598
 20
-1677.002841445014
 10
1459.396299171082
 20
-1669.418500561699
 10
1470.727010489488
 20
-1667.67288160394
 10
1483.841682692919
 20
-1672.532998372183
 10
1493.404984999422
 20
-1677.186275144783
 10
1488.341241246201
 20
-1667.057950308292
 10
1483.500129922861
 20
-1655.534029948579
 10
1485.079918584735
 20
-1648.949753239259
 10
1491.747480425043
 20
-1648.450217708455
 10
1502.169688637004
 20
-1655.180462465914
 10
1513.511791538676
 20
-1663.623164016513
 10
1523.738434501508
 20
-1665.538059954324
 10
1535.528762127307
 20
-1660.551603712186
 10
1551.561919017881
 20
-1648.290268195727
 10
1564.4136111666
 20
-1634.762578075937
 10
1570.224837509983
 20
-1620.592168986447
 10
1569.309888909416
 20
-1603.788960539889
 10
1561.983056226287
 20
-1582.362989185651
 10
1560.193545595567
 20
-1573.787191102364
 10
1566.977243166811
 20
-1574.160718196735
 10
1575.433692508498
 20
-1573.375010516057
 10
1580.798816662071
 20
-1564.103663778625
 10
1589.127329760924
 20
-1551.76591702672
 10
1604.024852900242
 20
-1541.715736504154
 10
1626.350954060406
 20
-1530.299364374147
 10
1626.098722986828
 20
-1526.584734589865
 10
1619.969116495758
 20
-1522.061886577461
 10
1614.205559546964
 20
-1516.865046291553
 10
1622.600163301552
 20
-1515.563270679743
 10
1628.357839467188
 20
-1514.612258468562
 10
1629.139146296895
 20
-1511.06197904798
 10
1614.013207308502
 20
-1491.176286060836
 10
1598.524042332657
 20
-1468.333240693902
 10
1592.690052295535
 20
-1447.87049099137
 10
1586.37348752936
 20
-1426.877945039409
 10
1568.330543786011
 20
-1402.242799160434
 10
1551.103373714042
 20
-1378.984145995817
 10
1546.004442625845
 20
-1361.403194240473
 10
1548.795731036248
 20
-1353.583680449291
 10
1557.638910025218
 20
-1349.235464434714
 10
1613.298770046206
 20
-1346.599257339063
 10
1667.461055532753
 20
-1344.326295703657
 10
1706.037999924225
 20
-1339.647256427362
 10
1720.236664034773
 20
-1335.635101855525
 10
1728.917965704616
 20
-1330.837882205143
 10
1733.592175728517
 20
-1323.934719055546
 10
1735.769506482867
 20
-1313.604695040476
 10
1735.419697249039
 20
-1297.084348369169
 10
1729.235683777379
 20
-1286.59784099833
 10
1716.331940855891
 20
-1281.419363555191
 10
1695.822943272577
 20
-1280.823106666982
 10
1673.266050582726
 20
-1280.066257663912
 10
1655.481374478445
 20
-1274.80965537964
 10
1642.349118343921
 20
-1264.994647764941
 10
1633.749485563338
 20
-1250.562641188965
 10
1629.436047955109
 20
-1242.076028492614
 10
1623.390174469241
 20
-1236.968607267146
 10
1599.861881555081
 20
-1233.807744739131
 10
1585.09714338378
 20
-1233.22371676424
 10
1576.281226303481
 20
-1230.676071926185
 10
1571.436337258511
 20
-1224.971439645704
 10
1568.584722138778
 20
-1214.916410397954
 10
1558.005582696836
 20
-1175.416377778896
 10
1555.578844423735
 20
-1163.002180845963
 10
1557.00949097239
 20
-1152.686138295483
 10
1562.040228343327
 20
-1144.586021572913
 10
1570.413743064278
 20
-1138.819582650918
 10
1581.872780081355
 20
-1135.504631920538
 10
1596.160045395083
 20
-1134.75892135444
 10
1632.190084914592
 20
-1141.446345442493
 10
1638.255918012165
 20
-1149.560171010566
 10
1640.777060380434
 20
-1165.386799470168
 10
1642.996471838095
 20
-1180.463900696457
 10
1648.856535943582
 20
-1193.573509973992
 10
1657.160026504834
 20
-1202.825442337893
 10
1666.709697857001
 20
-1206.329454404903
 10
1692.958339800643
 20
-1196.464752225256
 10
1715.127295530115
 20
-1188.765677652021
 10
1740.413338951392
 20
-1184.106383786722
 10
1762.058496051341
 20
-1179.636014948508
 10
1765.546637792947
 20
-1175.408218679087
 10
1765.501013041507
 20
-1169.034540214247
 10
1765.076389341171
 20
-1162.554929761431
 10
1767.972344008077
 20
-1159.430014007277
 10
1789.517040974576
 20
-1161.402452045175
 10
1811.018800434918
 20
-1167.230424989598
 10
1825.59603509294
 20
-1174.310381616924
 10
1844.553907964067
 20
-1178.525501098813
 10
1884.06126235288
 20
-1180.961839458325
 10
1993.357876152416
 20
-1179.524377432502
 10
1999.161488634162
 20
-1178.221745017848
 10
2002.825002339687
 20
-1174.791242740289
 10
2004.651452856655
 20
-1159.959829729497
 10
2004.945122031411
 20
-1134.522677443017
 10
2008.28180439756
 20
-1132.960161147564
 10
2014.502426718007
 20
-1137.077293540575
 10
2022.759533088935
 20
-1140.754983438608
 10
2027.296128892426
 20
-1136.157632524366
 10
2027.683949016056
 20
-1124.678246439746
 10
2023.49468940182
 20
-1107.709869772229
 10
2020.631799535575
 20
-1087.243692858322
 10
2027.980519636808
 20
-1064.541474722463
 10
2039.21227022674
 20
-1033.600921987075
 10
2029.955625447197
 20
-1019.424904733515
 10
2008.973263765404
 20
-996.548171436582
 10
1986.446553903009
 20
-975.29692944413
 10
1972.556806163283
 20
-965.9974639951828
 10
1958.220858869786
 20
-972.5235560022824
 10
1944.941135282146
 20
-989.4158329990245
 10
1942.032932229132
 20
-1002.72573941412
 10
1943.721768525688
 20
-1020.065286968187
 10
1949.212920588487
 20
-1037.581296962519
 10
1957.711664834195
 20
-1051.420590698413
 10
1963.065105312624
 20
-1059.704647413342
 10
1960.769477347437
 20
-1065.109924463828
 10
1950.18529445239
 20
-1068.049887640444
 10
1930.673031195656
 20
-1068.938002733763
 10
1905.098459416684
 20
-1071.224712160256
 10
1889.91585460384
 20
-1076.721219240829
 10
1880.754412303934
 20
-1080.809473483441
 10
1869.650617429626
 20
-1079.709494414168
 10
1854.73677609069
 20
-1075.4091425221
 10
1850.429550303079
 20
-1046.659979896818
 10
1845.822540884051
 20
-1015.437558498569
 10
1836.351208573727
 20
-989.855489694713
 10
1822.00207820011
 20
-969.8892767130315
 10
1802.761577227238
 20
-955.5144811996793
 10
1777.199896436509
 20
-941.8509099379585
 10
1763.371449045707
 20
-960.7422248063439
 10
1751.135992869694
 20
-974.0854102228103
 10
1739.498838225037
 20
-978.6280231190007
 10
1727.082401921036
 20
-974.3874526980885
 10
1712.509139712561
 20
-961.381107636039
 10
1698.422755720153
 20
-948.9675727780305
 10
1694.011895734009
 20
-947.514902501728
 10
1691.408383455971
 20
-949.1343767135107
 10
1691.780956383539
 20
-961.2980172329693
 10
1699.855388493582
 20
-984.875050545274
 10
1713.97493465061
 20
-1010.752716330286
 10
1721.338999311867
 20
-1016.987923771871
 10
1729.779247290687
 20
-1019.772474596273
 10
1746.999446103151
 20
-1024.658879633591
 10
1762.559978861336
 20
-1033.180153899537
 10
1773.827481497211
 20
-1043.486674254774
 10
1778.168512051574
 20
-1053.728778614381
 10
1775.041999528484
 20
-1064.735540566614
 10
1767.520672599781
 20
-1076.185405898702
 10
1762.330608845457
 20
-1083.18484253149
 10
1761.802623565677
 20
-1089.654911316272
 10
1777.502172585289
 20
-1110.533268816487
 10
1791.040378012709
 20
-1128.156301275143
 10
1794.614277929876
 20
-1138.808424741155
 10
1785.967832557548
 20
-1144.541409406653
 10
1772.992293452297
 20
-1141.023006946424
 10
1755.874385215722
 20
-1128.353034891785
 10
1734.800890867802
 20
-1106.631349719638
 10
1709.169672737171
 20
-1080.010037484469
 10
1693.961285947842
 20
-1068.938002733763
 10
1682.880663695904
 20
-1074.291112174729
 10
1667.163082870985
 20
-1087.156104240321
 10
1651.527404608828
 20
-1098.545545499121
 10
1645.055524854399
 20
-1099.699444729186
 10
1639.175598501166
 20
-1097.624482441894
 10
1628.275411139045
 20
-1083.182817361131
 10
1616.994608586297
 20
-1054.01041360374
 10
1606.432624674025
 20
-1027.020734564056
 10
1597.127804207303
 20
-1011.329773045674
 10
1569.599702471376
 20
-993.3933065284746
 10
1555.111127434908
 20
-988.3111220413184
 10
1541.669740728853
 20
-986.5031317310791
 10
1529.434070352127
 20
-985.178261388066
 10
1522.313863463928
 20
-981.2779585329463
 10
1520.406367187043
 20
-974.9136270082217
 10
1523.808848117046
 20
-966.1966706563971
 10
1525.647313346621
 20
-955.1325808047886
 10
1522.307846371229
 20
-941.3700488145941
 10
1515.624608933435
 20
-929.5859330094126
 10
1507.431782248594
 20
-924.4571501312217
 10
1496.408702096742
 20
-919.2577394367827
 10
1480.413750823892
 20
-907.0565164289419
 10
1468.545824122341
 20
-893.3400181188162
 10
1465.004443767661
 20
-881.4184244027678
 10
1469.7052730981
 20
-872.7671692508389
 10
1482.563936506322
 20
-868.8617061058634
 10
1508.207188822352
 20
-865.4621266218541
 10
1513.257730022657
 20
-861.5652509781089
 10
1516.430918827951
 20
-854.8340325810555
 10
1527.283787305737
 20
-838.2868524024988
 10
1545.472037022302
 20
-824.3820716674189
 10
1568.173612556027
 20
-814.7445974965418
 10
1592.566400066922
 20
-810.9992980650053
 10
1621.86769423395
 20
-807.3798902331514
 10
1648.732026912125
 20
-799.1492863320091
 10
1663.813314788675
 20
-792.9229779563256
 10
1675.82389916374
 20
-791.7928160595961
 10
1690.603787167144
 20
-796.5477408059537
 10
1713.992966455917
 20
-807.9766728867417
 10
1751.803091774862
 20
-823.2365846834586
 10
1785.038084635132
 20
-828.4548839860486
 10
1814.75843328401
 20
-830.7347195169986
 10
1842.804316556758
 20
-836.0388743591093
 10
1865.941050571241
 20
-840.0910649911084
 10
1871.746688223346
 20
-837.7323451801403
 10
1875.991231093808
 20
-832.1850530582729
 10
1882.984455905977
 20
-824.9136009953277
 10
1891.791240246872
 20
-828.7296645526557
 10
1904.688011908858
 20
-833.1519550676494
 10
1923.865284726405
 20
-831.2782635575141
 10
1943.849938442024
 20
-827.8703107729842
 10
1961.331929468893
 20
-828.4256747981871
 10
1979.390957738359
 20
-833.4247883550656
 10
2001.106742654557
 20
-843.3481036383545
 10
2030.334643868885
 20
-852.391365564174
 10
2063.00159591642
 20
-853.3785387499264
 10
2094.220804304006
 20
-846.741782866416
 10
2119.105396647317
 20
-832.9132186388624
 10
2128.703691560877
 20
-823.8083642722399
 10
2133.004257653657
 20
-815.6508417591263
 10
2132.76318448984
 20
-804.9185293360391
 10
2128.736542160825
 20
-788.0892662939095
 10
2124.219789132288
 20
-766.0070229068033
 10
2124.587318606751
 20
-754.5794928670329
 10
2136.124129954707
 20
-754.1502541150157
 10
2156.106641663215
 20
-759.1520549171773
 10
2175.050980943964
 20
-766.5611990917
 10
2183.473294481437
 20
-773.3540294023496
 10
2189.526256063559
 20
-781.9925298755793
 10
2204.075138336564
 20
-794.1550993914834
 10
2216.497533314891
 20
-801.3762921785145
 10
2227.715925569574
 20
-804.9251890308719
 10
2237.267583146516
 20
-805.1192159294378
 10
2244.689774091618
 20
-802.2757988550992
 10
2249.51978592357
 20
-796.7123443159485
 10
2251.294867215486
 20
-788.7462782928701
 10
2249.552305486056
 20
-778.6950267667489
 10
2243.829368781182
 20
-766.876035191261
 10
2240.142546143745
 20
-759.4754590451775
 10
2239.704174652322
 20
-753.0724740285172
 10
2249.675373530911
 20
-737.7696441984357
 10
2268.33998615591
 20
-714.0558924141487
 10
2270.531493102768
 20
-704.5808018549878
 10
2268.210336307389
 20
-694.8674422140457
 10
2262.484868139568
 20
-687.2948239514593
 10
2254.463460441888
 20
-684.2419380545711
 10
2248.65094889424
 20
-682.246327394303
 10
2248.686155702009
 20
-677.4479393764076
 10
2248.648359012916
 20
-673.7615451403917
 10
2242.221870336424
 20
-674.7481925607626
 10
2234.691118576438
 20
-675.4068013286596
 10
2231.560302566336
 20
-671.2378323635907
 10
2229.168829519379
 20
-665.8666911173191
 10
2223.412983796182
 20
-663.6332203039001
 10
2212.887082967315
 20
-659.144819660381
 10
2199.012270858981
 20
-648.3552961746686
 10
2185.018090536254
 20
-638.1831770291769
 10
2180.672113892746
 20
-638.4341228984903
 10
2177.242585254783
 20
-641.994060823858
 10
2170.560224092625
 20
-646.8190876210837
 10
2160.425882163434
 20
-639.6034640525376
 10
2150.264161488821
 20
-623.806667910138
 10
2147.481032178228
 20
-606.0610542264239
 10
2151.943144552673
 20
-589.1475129409191
 10
2163.517187878756
 20
-575.8469534659384
 10
2172.880524085159
 20
-564.912747136354
 10
2176.118557287504
 20
-551.0598224461241
 10
2173.203597175696
 20
-536.6221298149107
 10
2164.107972912438
 20
-523.9336001895845
 10
2156.52686451258
 20
-518.0327405850512
 10
2149.148623658815
 20
-516.0636323945691
 10
2122.890537411096
 20
-523.912978502954
 10
2102.607268431576
 20
-533.5209319213004
 10
2094.168850895197
 20
-540.7846532858579
 10
2090.263504586972
 20
-546.8178499841938
 10
2080.876236319315
 20
-553.4796284053063
 10
2066.428554145851
 20
-556.7337656065583
 10
2049.064100890936
 20
-553.468470495543
 10
2030.284073028302
 20
-544.2047376197461
 10
2011.589725450061
 20
-529.4636004722378
 10
1995.994472703905
 20
-518.3493681814684
 10
1974.857905982995
 20
-508.9539602867926
 10
1919.772726996782
 20
-495.8756827314364
 10
1853.958137033476
 20
-491.3410147343447
 10
1785.038084635132
 20
-496.4621642781075
 10
1755.110798626652
 20
-503.439947166295
 10
1749.887981636339
 20
-508.0043501166296
 10
1749.275094983842
 20
-514.2200068751394
 10
1748.710072453852
 20
-522.0635695643277
 10
1744.83220225501
 20
-525.8845597380086
 10
1739.236072371038
 20
-525.1613207737709
 10
1733.516290258454
 20
-519.3721960492034
 10
1726.872348914729
 20
-513.3927637293236
 10
1718.944215890287
 20
-513.290044752011
 10
1710.951666870213
 20
-518.6602318314803
 10
1704.114516485183
 20
-529.0995176819428
 10
1700.149914471184
 20
-543.2723024520455
 10
1702.316729917904
 20
-547.0880154991196
 10
1707.432524443891
 20
-549.8662376661513
 10
1714.096016470691
 20
-553.8359804972137
 10
1714.844784265119
 20
-557.5120541535189
 10
1707.129410965059
 20
-557.9560143362186
 10
1693.452948715095
 20
-554.1597156626766
 10
1677.75511330117
 20
-551.0237588355116
 10
1668.853009643888
 20
-559.1195525982775
 10
1661.582414383787
 20
-567.0015156331073
 10
1651.596630384059
 20
-557.1548452587672
 10
1644.594818070657
 20
-544.8230961267699
 10
1642.611241595789
 20
-534.4646418355154
 10
1645.894471148151
 20
-528.6437569873469
 10
1651.045355645157
 20
-527.7754067778142
 10
1655.575408590566
 20
-531.2013913676505
 10
1656.996124015349
 20
-538.263510917589
 10
1657.897694807875
 20
-543.5340751936592
 10
1661.623638284256
 20
-546.0127279299854
 10
1674.649202991918
 20
-543.8046885827979
 10
1690.274054381773
 20
-534.0603087843469
 10
1702.699389751678
 20
-519.2004654973707
 10
1705.614661428155
 20
-505.2337612840251
 10
1695.623736611364
 20
-490.190250623777
 10
1686.413339712602
 20
-475.771018199292
 10
1684.426316553565
 20
-462.7325625033872
 10
1683.690420274587
 20
-453.5616953721974
 10
1674.479186045773
 20
-450.6764702136333
 10
1665.232745009191
 20
-447.6495610211505
 10
1661.385778131105
 20
-440.372111338298
 10
1663.492481069206
 20
-433.154131561931
 10
1668.223571118269
 20
-430.2755660981997
 10
1673.195539603228
 20
-432.0159274021439
 10
1676.024838903433
 20
-438.6547084560125
 10
1676.815375836504
 20
-438.2116245489487
 10
1678.294373327465
 20
-430.6533772067896
 10
1682.47535700514
 20
-399.3539019709619
 10
1684.692529091733
 20
-362.8258068528335
 10
1681.74719142455
 20
-343.9027123880546
 10
1676.973689634712
 20
-318.180439482464
 10
1674.307436021149
 20
-266.9497438720128
 10
1675.883154869515
 20
-206.1540323493705
 10
1679.853442938751
 20
-188.9193457797269
 10
1686.748232787827
 20
-174.4990423516869
 10
1699.94897473149
 20
-148.8316437736921
 10
1705.756345462075
 20
-128.2178825699179
 10
1704.360964139565
 20
-111.0238746625682
 10
1695.953469396734
 20
-95.61573597385132
 10
1686.727416373279
 20
-79.26400420767049
 10
1682.538916197927
 20
-61.62165473944241
 10
1683.628808360992
 20
-45.32403786197301
 10
1690.23799077116
 20
-33.00646492248461
 10
1702.380814876071
 20
-26.27995894107198
 10
1717.764359428609
 20
-25.38896187455112
 10
1734.034091268067
 20
-30.05329919295537
 10
1748.835438288153
 20
-39.99281583911125
 10
1764.116809101552
 20
-50.54961998873569
 10
1770.318094939633
 20
-50.74282903004268
 10
1776.760259213613
 20
-47.88595625649577
 10
1784.091278547003
 20
-40.63123132179998
 10
1788.563575191615
 20
-30.75270345989839
 10
1789.746313626495
 20
-8.129155403346885
 10
1786.863950968341
 20
2.113338412098983
 10
1781.937217778982
 20
9.974640814714348
 10
1775.169721570605
 20
14.20348861489901
 10
1766.76503090981
 20
13.54863809584049
 10
1760.263825130768
 20
13.0368541789262
 10
1757.559794300902
 20
16.77046993531803
 10
1750.669833704219
 20
26.31390999407449
 10
1734.177488907673
 20
37.52601253697185
 10
1714.349104347113
 20
46.86144423257156
 10
1697.451024458383
 20
50.77485227664602
 10
1686.407770494116
 20
54.74706815228
 10
1682.013384489926
 20
66.51905240810311
 10
1684.278206498316
 20
85.95102934380202
 10
1693.212498680621
 20
112.9032622046479
 10
1700.569825755879
 20
138.7328496664399
 10
1696.612954440266
 20
158.0913168126876
 10
1692.343505868955
 20
174.2957758536713
 10
1695.864167173046
 20
188.4342106188496
 10
1699.498160126039
 20
198.1512311446699
 10
1693.363646491408
 20
197.9554516948315
 10
1685.70965143144
 20
199.5337214789374
 10
1679.428702401663
 20
208.8660375278327
 10
1675.507466295242
 20
223.621019830387
 10
1674.932571059757
 20
241.4673078482633
 10
1671.880775639215
 20
254.7170043907813
 10
1660.163003636064
 20
263.3606456810744
 10
1650.798051187931
 20
268.0070485581314
 10
1650.676112565006
 20
270.1958682597064
 10
1651.327010107307
 20
273.4632080138713
 10
1643.806539981448
 20
280.7131815873431
 10
1635.514109966
 20
288.717959520734
 10
1640.777060380434
 20
291.1274643729953
 10
1648.517573054847
 20
293.567969909976
 10
1640.988301227048
 20
298.2348776369122
 10
1624.33709739412
 20
302.7845786293569
 10
1604.711794580365
 20
304.8734639628615
 10
1583.526039587097
 20
307.7277858006687
 10
1579.766875527722
 20
312.4355863906107
 10
1578.724204885033
 20
320.4330620270352
 10
1565.658292552539
 20
373.0952025706106
 10
1557.942782942935
 20
409.8873292742132
 10
1558.893269388734
 20
423.9467239770387
 10
1562.808274201743
 20
434.7084013703229
 10
1569.50705092748
 20
441.8673980600011
 10
1578.80889205704
 20
445.1188090703867
 10
1590.533070608729
 20
444.1576515346228
 10
1604.498840128062
 20
438.6790010042282
 10
1620.914014250278
 20
432.3193818951462
 10
1639.999940200988
 20
429.3080509361884
 10
1690.581451874826
 20
433.039076811257
 10
1707.055239100683
 20
437.0148562078098
 10
1714.809577457352
 20
442.4950450887649
 10
1714.236726865015
 20
450.195852740479
 10
1705.728869352693
 20
460.8333716125603
 10
1698.681549124604
 20
472.0925983118745
 10
1704.60225150409
 20
485.7218390414622
 10
1713.818860223471
 20
497.3621093328224
 10
1721.424134358087
 20
501.2573687348381
 10
1728.248822156297
 20
497.4089219245675
 10
1735.123769230421
 20
485.8180151606925
 10
1740.026064065934
 20
469.531108318773
 10
1735.865682602098
 20
458.2366748116896
 10
1730.650498946214
 20
449.5341088530854
 10
1733.810816236055
 20
445.6662281964914
 10
1767.053539794712
 20
452.0815394904288
 10
1792.506056114007
 20
461.0410684110461
 10
1808.575821853366
 20
470.3863728121437
 10
1816.967543634751
 20
481.5465414190225
 10
1819.385947552916
 20
495.9506240114037
 10
1825.075663674795
 20
513.7359621906093
 10
1841.512842051866
 20
531.9746659110064
 10
1853.290395526174
 20
542.4912392725495
 10
1858.883409763441
 20
550.3859764588709
 10
1859.263713389396
 20
558.2150513908795
 10
1855.403115556974
 20
568.5345406255278
 10
1847.294333442005
 20
580.2046432340898
 10
1836.134826910051
 20
585.7668515145592
 10
1821.519483998265
 20
585.3010233865465
 10
1803.043231689389
 20
578.8869778240828
 10
1786.073141416185
 20
574.695576202736
 10
1769.053453941991
 20
575.7845141989987
 10
1755.940397980288
 20
581.2875836104445
 10
1750.690221717346
 20
590.3385567618584
 10
1745.142189629386
 20
600.066735197443
 10
1731.798887376168
 20
608.9551105364285
 10
1716.901364236851
 20
617.2836041624909
 10
1707.604254995725
 20
625.6481613991641
 10
1697.34166525903
 20
639.4037221298572
 10
1687.092570167129
 20
647.5749729612648
 10
1675.99467554877
 20
650.6133711009738
 10
1663.185609341534
 20
648.9703542837755
 10
1645.235414506041
 20
647.3104935015767
 10
1628.727822513431
 20
650.6534071611354
 10
1616.73044069128
 20
653.8740511603069
 10
1608.743382998524
 20
652.5588587948727
 10
1606.927350425228
 20
648.0016413047519
 10
1613.443024488658
 20
641.4962683482412
 10
1620.110586328965
 20
634.1152234124406
 10
1616.158232701076
 20
628.7403239173313
 10
1604.279245453721
 20
626.6434936847267
 10
1587.166906435633
 20
629.0966954820301
 10
1569.788608025671
 20
636.7287836511027
 10
1567.589273016466
 20
641.8019717083975
 10
1568.742724372317
 20
648.7505259359318
 10
1569.644353583219
 20
658.5018964666773
 10
1565.033157513931
 20
662.1942883225997
 10
1558.34218937775
 20
658.1584158902201
 10
1553.464800243086
 20
648.4551431554851
 10
1548.133149818803
 20
638.7518704207518
 10
1540.364518432874
 20
634.7159979883722
 10
1532.887959452767
 20
636.7488600995597
 10
1531.306126147742
 20
641.8543340458368
 10
1535.313120429724
 20
648.542829137446
 10
1544.603044210635
 20
655.3247157390428
 10
1554.910518732677
 20
663.3991478490875
 10
1557.312604451223
 20
673.169290151231
 10
1551.642536376378
 20
685.7692575189625
 10
1537.733471627079
 20
702.3332037713512
 10
1518.21787852293
 20
725.7987942955683
 10
1520.011575803908
 20
728.4190142290631
 10
1529.146496161237
 20
725.9507989091994
 10
1537.513643279235
 20
724.2067767203757
 10
1531.537112405349
 20
733.2875042978253
 10
1527.016620600767
 20
740.1328137826663
 10
1526.440751725685
 20
746.28644969895
 10
1538.866943898433
 20
763.7677981236879
 10
1567.554280409408
 20
801.3031428760255
 10
1575.814093498412
 20
817.49730081009
 10
1573.592968435063
 20
819.8596815059367
 10
1567.087147604337
 20
820.4142860922551
 10
1553.356375737745
 20
823.4826139131259
 10
1541.819155461158
 20
831.2458902812791
 10
1533.911624650554
 20
842.3142641471072
 10
1531.069979600279
 20
855.29798182496
 10
1532.44647231464
 20
866.7753037936376
 10
1538.125030526757
 20
859.9830187211622
 10
1545.928011917608
 20
852.8240609770669
 10
1555.086007533347
 20
852.131102204245
 10
1562.524049331061
 20
852.050387481789
 10
1565.211761961308
 20
844.9730012629947
 10
1568.23867115379
 20
837.1760369648413
 10
1575.516120836642
 20
833.9336029115242
 10
1585.140275617856
 20
836.9835873624193
 10
1584.330635875924
 20
845.3860386521441
 10
1573.6970699806
 20
858.0197134226686
 10
1553.849485247219
 20
873.7633877887443
 10
1535.462749362741
 20
884.1379460789061
 10
1518.326069354768
 20
888.1637316050777
 10
1501.157181348979
 20
885.9064260943647
 10
1482.673840943848
 20
877.4317307466613
 10
1463.582443138612
 20
869.4183847848313
 10
1455.936938215916
 20
871.3959636397936
 10
1445.907885672569
 20
877.3561763140602
 10
1430.350896962511
 20
892.3223994632277
 10
1417.344220862999
 20
912.3223003749094
 10
1411.325706649761
 20
929.8720177720339
 10
1411.949030718721
 20
945.4001478044851
 10
1419.796974786088
 20
961.0480744527517
 10
1435.452398459239
 20
978.9571427517371
 10
1442.931333119959
 20
987.1523256444001
 10
1445.142799678522
 20
994.1560852369915
 10
1432.78700164852
 20
1019.473888781871
 10
1414.456405823111
 20
1043.248629350411
 10
1393.039664572237
 20
1062.422455483792
 10
1380.261404321801
 20
1072.155774736439
 10
1372.542584337572
 20
1082.399164300312
 10
1368.046433522873
 20
1096.867351323653
 10
1364.936239199401
 20
1119.275043481909
 10
1363.242242612989
 20
1141.732644405825
 10
1364.316264450649
 20
1159.533307672262
 10
1368.79845327355
 20
1176.714424591369
 10
1377.32895764286
 20
1197.313386473293
 10
1388.907616020625
 20
1228.161190300826
 10
1389.122284078614
 20
1236.540137930719
 10
1385.957137536379
 20
1241.965608266414
 10
1380.397928065864
 20
1245.340282049574
 10
1381.855992305525
 20
1237.740810806946
 10
1383.128383474347
 20
1227.748172384467
 10
1379.097866059741
 20
1222.310044734032
 10
1370.760142330316
 20
1221.897864147726
 10
1359.11083666351
 20
1226.983066917627
 10
1349.600772970083
 20
1236.688910060893
 10
1347.885959969122
 20
1247.832215229981
 10
1348.235457638278
 20
1255.202413820689
 10
1344.74657593058
 20
1256.013884005061
 10
1340.345744432269
 20
1256.323871379437
 10
1338.515866703926
 20
1262.471276002311
 10
1336.292813834178
 20
1271.613187091934
 10
1330.706030890322
 20
1277.211673183725
 10
1323.379081370441
 20
1278.412774461375
 10
1315.935587190993
 20
1274.362511635774
 10
1302.610336215874
 20
1266.915901809621
 10
1299.342996461708
 20
1268.440718779941
 10
1300.733217494363
 20
1273.586248259172
 10
1301.593622804797
 20
1278.437874890143
 10
1297.703737893348
 20
1280.45582084273
 10
1291.275321410456
 20
1278.068651282785
 10
1290.77576640686
 20
1272.538631527339
 10
1295.356273356102
 20
1266.31308259054
 10
1304.168003786141
 20
1261.839286540951
 10
1313.871276520875
 20
1257.619649371339
 10
1317.907148953255
 20
1252.524145494518
 10
1310.862399133698
 20
1251.431020847998
 10
1293.925471025112
 20
1256.824497386587
 10
1271.479144847711
 20
1263.216636058155
 10
1264.279839478783
 20
1260.304148990921
 10
1256.039771800774
 20
1252.936306608033
 10
1248.070862750077
 20
1242.332378301993
 10
1245.494982363756
 20
1229.364238857666
 10
1248.344358112419
 20
1210.333265125718
 10
1256.651178521087
 20
1181.540853429611
 10
1261.890605802896
 20
1161.815090482403
 10
1261.697727799052
 20
1150.112546202522
 10
1255.344125782669
 20
1144.505044208077
 10
1242.101419972446
 20
1143.06436917159
 10
1222.649366588291
 20
1139.969636244893
 10
1205.170588572086
 20
1132.526453630115
 10
1183.514273562373
 20
1124.650488215192
 10
1154.02662477679
 20
1120.504691872494
 10
1123.376314004784
 20
1122.152537942086
 10
1114.93703966556
 20
1126.69213255553
 10
1108.007354573385
 20
1134.656017625915
 10
1095.452349882168
 20
1145.969339741148
 10
1079.615420315647
 20
1148.395162793028
 10
1062.998780688356
 20
1151.312148075194
 10
1048.200860879645
 20
1164.950833108858
 10
1038.073392845998
 20
1183.81210145933
 10
1038.760782400335
 20
1192.655708849722
 10
1042.856338939912
 20
1204.244785171156
 10
1047.975872241946
 20
1225.293159617516
 10
1043.873032878196
 20
1246.918571306472
 10
1036.254673027418
 20
1284.914174968336
 10
1033.73353065915
 20
1296.383785711419
 10
1027.667697561576
 20
1301.284366941244
 10
1025.146574666099
 20
1304.192764722178
 10
1031.940573344263
 20
1311.23837134458
 10
1038.633586123594
 20
1318.079182614489
 10
1041.845642621535
 20
1328.245713068703
 10
1039.81311154781
 20
1374.568973026577
 10
1034.592981802781
 20
1418.967328031599
 10
1031.122307155517
 20
1432.784208584009
 10
1026.244840129684
 20
1442.058223093932
 10
1019.335815669722
 20
1447.573404581944
 10
1009.770429774486
 20
1450.113766595825
 10
980.1714745103604
 20
1449.406086392322
 10
937.332831718756
 20
1443.99973833828
 10
917.6102817822133
 20
1416.761878565735
 10
902.5685042004447
 20
1388.201640967541
 10
894.5491216731234
 20
1352.61380907946
 10
888.6490215074745
 20
1323.564103383878
 10
880.7138198595694
 20
1310.043072958919
 10
875.209562607818
 20
1305.870657309684
 10
874.9708456518233
 20
1300.817234136175
 10
875.3931131443382
 20
1294.644067009606
 10
867.9054936184279
 20
1289.712562986231
 10
827.4952248144455
 20
1282.93573931053
 10
802.0563394494857
 20
1282.359013632605
 10
786.4478257320402
 20
1287.338264941738
 10
778.0033911029609
 20
1299.807511457393
 10
774.0568208942686
 20
1321.700732453454
 10
769.060063545211
 20
1341.21977224177
 10
763.9492151083664
 20
1345.738550440666
 10
756.3195805110754
 20
1347.915024392171
 10
747.3973030413767
 20
1350.415876111273
 10
742.2335275561281
 20
1356.355155534239
 10
739.0700946195811
 20
1388.150115960153
 10
734.9586482818076
 20
1400.308401461837
 10
723.1601615561985
 20
1407.062052515169
 10
709.2870630535526
 20
1416.199426444278
 10
698.8350030515989
 20
1434.677723396305
 10
691.1402319653761
 20
1450.364400900468
 10
684.6562011887963
 20
1454.860532242374
 10
680.3789245551379
 20
1453.40170856383
 10
679.5581269034437
 20
1456.997826936561
 10
688.8191725339575
 20
1482.922733714741
 10
702.8794629852105
 20
1503.766741210032
 10
724.8844188612356
 20
1519.819215110177
 10
748.7776513685344
 20
1534.478975460304
 10
766.6789110779655
 20
1551.009642711323
 10
778.8818476914939
 20
1569.754444293396
 10
785.6801498566692
 20
1591.056666055062
 10
791.6669818374739
 20
1611.2867158943
 10
799.4467711331645
 20
1624.092452254117
 10
805.6154205720099
 20
1635.406748008946
 10
804.3327477690608
 20
1651.126801878437
 10
796.2105489004675
 20
1669.066150368839
 10
781.8606590879653
 20
1687.03834945919
 10
770.173907242322
 20
1697.886038174328
 10
761.0020664715366
 20
1703.039298351948
 10
751.1668655716293
 20
1703.424197556793
 10
737.4900917569952
 20
1699.966881244776
 10
687.6238546755053
 20
1684.888163776759
 10
665.9578811610063
 20
1677.264663108919
 10
652.8535295372858
 20
1670.037862157817
 10
648.4666600307727
 20
1663.334022506185
 10
652.9531328678931
 20
1657.279347318374
 10
657.2371665603427
 20
1652.849345577785
 10
649.8412054659415
 20
1651.515790369582
 10
641.3521391978101
 20
1648.587627704861
 10
637.8194631811124
 20
1641.692292617612
 10
627.0002047421585
 20
1625.623928919269
 10
601.8804394909789
 20
1603.638290052816
 10
573.4671241077271
 20
1584.24420717017
 10
552.7672931637207
 20
1575.950491950455
 10
535.4260125311748
 20
1578.778603410354
 10
519.6928729455208
 20
1585.906209959479
 10
508.2708147602765
 20
1595.653705404633
 10
503.8627978017512
 20
1606.341483552629
 10
505.4011483624463
 20
1612.676936926954
 10
510.2549364733195
 20
1618.043794159007
 10
531.3410881359791
 20
1626.943327407756
 10
551.1410229475623
 20
1635.743666254529
 10
560.5444925780879
 20
1648.647740213481
 10
559.7685602389483
 20
1666.430916912783
 10
549.0302307231614
 20
1689.868602926198
 10
538.9637320009764
 20
1710.608703603869
 10
534.775874427758
 20
1726.552129869333
 10
541.3136695827938
 20
1740.821616524049
 10
557.9890196776859
 20
1756.243269330349
 10
580.3948813935035
 20
1769.574440034208
 10
604.124211411317
 20
1777.572441436015
 10
617.4229599166501
 20
1780.942500167494
 10
626.1420388027931
 20
1786.345752047621
 10
632.2811869618986
 20
1795.779268196059
 10
637.8400653949507
 20
1811.24021709643
 10
656.7176519450417
 20
1856.517573928158
 10
661.5657540006773
 20
1865.983843312585
 10
661.7298706908741
 20
1873.724122313495
 10
656.28969839729
 20
1882.646847657408
 10
644.3249529743743
 20
1895.660397652462
 10
621.4776041204291
 20
1913.670704996576
 10
597.3164649420664
 20
1920.686245628272
 10
577.7064093243734
 20
1925.009789615502
 10
574.5325584441557
 20
1929.520622915299
 10
574.4751331808206
 20
1936.500002572422
 10
577.0512277678522
 20
1964.067595130339
 10
586.7307826420423
 20
1979.061722790309
 10
608.3807689943851
 20
1998.849954453957
 10
632.3556898637366
 20
2015.688564436203
 10
649.0099898705762
 20
2021.833827051965
 10
659.7195580727157
 20
2021.318284886213
 10
667.2804926601579
 20
2024.840134030611
 10
672.4933006354294
 20
2033.139321104851
 10
676.1585474194334
 20
2046.955851147007
 10
677.8395556536438
 20
2060.920199152531
 10
675.7266214221336
 20
2071.923319692677
 10
668.406136869165
 20
2083.323159422354
 10
654.4644357206284
 20
2098.477645523683
 10
625.9084821366537
 20
2123.61943450251
 10
619.3288204790165
 20
2123.122138342776
 10
614.7720508631091
 20
2115.225668077974
  0
ENDBLK
  5
15BD
330
15BB
100
AcDbEntity
  8
0
100
AcDbBlockEnd
  0
ENDSEC
  0
SECTION
  2
ENTITIES
  0
INSERT
  5
15CF
330
6F
100
AcDbEntity
  8
0
  6
Continuous
100
AcDbBlockReference
  2
Vue de dessus Erable
 10
147.7055592581382
 20
238.0553635643319
 30
0.0
  0
ENDSEC
  0
SECTION
  2
OBJECTS
  0
DICTIONARY
  5
C
330
0
100
AcDbDictionary
281
     1
  3
ACAD_CIP_PREVIOUS_PRODUCT_INFO
350
1541
  3
ACAD_COLOR
350
62
  3
ACAD_DETAILVIEWSTYLE
350
69
  3
ACAD_GROUP
350
D
  3
ACAD_LAYOUT
350
61
  3
ACAD_MATERIAL
350
10
  3
ACAD_MLEADERSTYLE
350
65
  3
ACAD_MLINESTYLE
350
5E
  3
ACAD_PLOTSETTINGS
350
60
  3
ACAD_PLOTSTYLENAME
350
E
  3
ACAD_RENDER_ACTIVE_RAPIDRT_SETTINGS
350
154A
  3
ACAD_RENDER_ACTIVE_SETTINGS
350
1626
  3
ACAD_RENDER_RAPIDRT_SETTINGS
350
1543
  3
ACAD_SCALELIST
350
42
  3
ACAD_SECTIONVIEWSTYLE
350
67
  3
ACAD_TABLESTYLE
350
63
  3
ACAD_VISUALSTYLE
350
29
  3
ACDB_RECOMPOSE_DATA
350
1619
  3
AcDbVariableDictionary
350
160D
  3
AcDsDecomposeData
350
161F
  0
DICTIONARY
  5
15FD
330
2
100
AcDbDictionary
280
     1
281
     1
  3
ACAD_LAYERSTATES
360
15FE
  0
DICTIONARY
  5
15EE
330
54
100
AcDbDictionary
280
     1
281
     1
  3
ADSK_XREC_LAYER_RECONCILED
360
15EF
  0
DICTIONARY
  5
15B1
330
6F
100
AcDbDictionary
280
     1
281
     1
  3
ACAD_SORTENTS
360
15B2
  0
DICTIONARY
  5
15E5
330
15BB
100
AcDbDictionary
280
     1
281
     1
  0
XRECORD
  5
1541
102
{ACAD_REACTORS
330
C
102
}
330
C
100
AcDbXrecord
280
     1
300
AOEM
300
2019
300

  0
DICTIONARY
  5
62
102
{ACAD_REACTORS
330
C
102
}
330
C
100
AcDbDictionary
281
     1
  0
DICTIONARY
  5
69
102
{ACAD_REACTORS
330
C
102
}
330
C
100
AcDbDictionary
281
     1
  3
Imperial24
350
6A
  0
DICTIONARY
  5
D
102
{ACAD_REACTORS
330
C
102
}
330
C
100
AcDbDictionary
281
     1
  0
DICTIONARY
  5
61
102
{ACAD_REACTORS
330
C
102
}
330
C
100
AcDbDictionary
281
     1
  3
Model
350
72
  3
Présentation1
350
6E
  0
DICTIONARY
  5
10
102
{ACAD_REACTORS
330
C
102
}
330
C
100
AcDbDictionary
281
     1
  3
ByBlock
350
19
  3
ByLayer
350
11
  3
Global
350
21
  0
DICTIONARY
  5
65
102
{ACAD_REACTORS
330
C
102
}
330
C
100
AcDbDictionary
281
     1
  3
Standard
350
66
  0
DICTIONARY
  5
5E
102
{ACAD_REACTORS
330
C
102
}
330
C
100
AcDbDictionary
281
     1
  3
Standard
350
5F
  0
DICTIONARY
  5
60
102
{ACAD_REACTORS
330
C
102
}
330
C
100
AcDbDictionary
281
     1
  0
ACDBDICTIONARYWDFLT
  5
E
102
{ACAD_REACTORS
330
C
102
}
330
C
100
AcDbDictionary
281
     1
  3
Normal
350
F
100
AcDbDictionaryWithDefault
340
F
  0
RAPIDRTRENDERSETTINGS
  5
154A
102
{ACAD_REACTORS
330
C
102
}
330
C
100
AcDbRenderSettings
 90
        2
  1
Moyenne
290
     1
290
     0
290
     1
290
     1
  1

  1
Applique 5 niveaux de rendu
 90
        0
100
AcDbRapidRTRenderSettings
 90
        3
 70
     0
 90
        5
 90
        1
 70
     1
 70
     2
 40
3.0
 40
3.0
290
     1
  0
MENTALRAYRENDERSETTINGS
  5
1626
102
{ACAD_XDICTIONARY
360
1627
102
}
102
{ACAD_REACTORS
330
C
102
}
330
C
100
AcDbRenderSettings
 90
        2
  1
Moyen
290
     1
290
     1
290
     1
290
     1
  1

  1

 90
        0
100
AcDbMentalRayRenderSettings
 90
        2
 90
        0
 90
        1
 70
     2
 40
3.0
 40
3.0
 40
0.0500000007450581
 40
0.0500000007450581
 40
0.0500000007450581
 40
0.0500000007450581
 70
     0
290
     0
290
     1
 90
        5
 90
        5
 90
        5
290
     0
 90
      500
290
     0
 40
1.0
 90
    10000
 90
        5
 90
        5
 90
        5
290
     0
 90
      200
290
     0
290
     0
290
     0
 40
1.0
 40
1.0
 40
1500.0
 70
     0
 70
     0
 40
10.0
 70
     0
 70
     0
290
     0
  1

 90
       32
 70
     0
 90
     1048
290
     0
 40
1.0
  0
DICTIONARY
  5
1543
102
{ACAD_REACTORS
330
C
102
}
330
C
100
AcDbDictionary
281
     1
  3
Bas
350
1544
  3
Elevé
350
1546
  3
Moyenne
350
1545
  3
Temps d'un déjeuner
350
1548
  3
Temps d'une nuit
350
1549
  3
Temps d'une pause café
350
1547
  0
DICTIONARY
  5
42
102
{ACAD_REACTORS
330
C
102
}
330
C
100
AcDbDictionary
281
     1
  3
A0
350
43
  3
A1
350
44
  3
A2
350
45
  3
A3
350
46
  3
A4
350
47
  3
A5
350
48
  3
A6
350
49
  3
A7
350
4A
  3
A8
350
4B
  3
A9
350
4C
  3
B0
350
4D
  3
B1
350
4E
  3
B2
350
4F
  3
B3
350
50
  3
B4
350
51
  3
B5
350
52
  3
B6
350
53
  0
DICTIONARY
  5
67
102
{ACAD_REACTORS
330
C
102
}
330
C
100
AcDbDictionary
281
     1
  3
Imperial24
350
68
  0
DICTIONARY
  5
63
102
{ACAD_REACTORS
330
C
102
}
330
C
100
AcDbDictionary
281
     1
  3
Standard
350
64
  0
DICTIONARY
  5
29
102
{ACAD_REACTORS
330
C
102
}
330
C
100
AcDbDictionary
281
     1
  3
2dWireframe
350
2F
  3
Basic
350
2E
  3
Brighten
350
35
  3
ColorChange
350
39
  3
Conceptual
350
32
  3
Dim
350
34
  3
EdgeColorOff
350
41
  3
Facepattern
350
38
  3
Flat
350
2A
  3
FlatWithEdges
350
2B
  3
Gouraud
350
2C
  3
GouraudWithEdges
350
2D
  3
Hidden
350
31
  3
JitterOff
350
3F
  3
Linepattern
350
37
  3
OverhangOff
350
40
  3
Realistic
350
33
  3
Shaded
350
3E
  3
Shaded with edges
350
3D
  3
Shades of Gray
350
3A
  3
Sketchy
350
3B
  3
Thicken
350
36
  3
Wireframe
350
30
  3
X-Ray
350
3C
  0
XRECORD
  5
1619
102
{ACAD_REACTORS
330
C
102
}
330
C
100
AcDbXrecord
280
     1
 90
        1
330
64
  0
DICTIONARY
  5
160D
102
{ACAD_REACTORS
330
C
102
}
330
C
100
AcDbDictionary
281
     1
  3
CANNOSCALE
350
1613
  3
CMLEADERSTYLE
350
160F
  3
CTABLESTYLE
350
160E
  3
CVIEWDETAILSTYLE
350
1610
  3
CVIEWSECTIONSTYLE
350
1611
  3
LAYEREVAL
350
1615
  3
LAYERNOTIFY
350
1616
  3
LIGHTINGUNITS
350
1614
  3
MSLTSCALE
350
1612
  0
DICTIONARY
  5
161F
102
{ACAD_REACTORS
330
C
102
}
330
C
100
AcDbDictionary
281
     1
  3
AcDsRecords
350
1621
  3
AcDsSchemas
350
1620
1001
ACAD
1070
     2
  0
DICTIONARY
  5
15FE
102
{ACAD_REACTORS
330
15FD
102
}
330
15FD
100
AcDbDictionary
281
     1
  0
XRECORD
  5
15EF
102
{ACAD_REACTORS
330
15EE
102
}
330
15EE
100
AcDbXrecord
280
     1
290
     1
  0
SORTENTSTABLE
  5
15B2
102
{ACAD_REACTORS
330
15B1
102
}
330
15B1
100
AcDbSortentsTable
330
6F
  0
ACDBDETAILVIEWSTYLE
  5
6A
102
{ACAD_XDICTIONARY
360
1624
102
}
102
{ACAD_REACTORS
330
69
102
}
330
69
100
AcDbModelDocViewStyle
 70
     0
  3
Imperial24
290
     0
100
AcDbDetailViewStyle
 70
     0
 71
     0
 90
        3
 71
     1
340
55
 62
   256
 40
0.24
340
0
 62
   256
 40
0.24
300

 40
0.36
280
     3
 71
     2
340
5C
 90
       25
 62
   256
 71
     3
340
55
 62
   256
 40
0.24
 90
        1
 40
0.75
 90
        1
300
%<\AcVar ViewType \f "%tc1">% %<\AcVar ViewDetailId>%\PECHELLE %<\AcVar ViewScale \f "%sn">%
 71
     4
340
5C
 90
       25
 62
   256
340
5C
 90
       25
 62
   256
280
     0
  0
LAYOUT
  5
72
102
{ACAD_REACTORS
330
61
102
}
330
61
100
AcDbPlotSettings
  1

  2
AutoCAD PDF (General Documentation).pc3
  4

  6

 40
0.0
 41
0.0
 42
0.0
 43
0.0
 44
0.0
 45
0.0
 46
0.0
 47
0.0
 48
0.0
 49
0.0
140
0.0
141
0.0
142
1.0
143
1.0
 70
  1712
 72
     0
 73
     0
 74
     0
  7

 75
     0
147
1.0
 76
     0
 77
     2
 78
   300
148
0.0
149
0.0
100
AcDbLayout
  1
Model
 70
     1
 71
     0
 10
0.0
 20
0.0
 11
12.0
 21
9.0
 12
0.0
 22
0.0
 32
0.0
 14
0.0
 24
0.0
 34
0.0
 15
0.0
 25
0.0
 35
0.0
146
0.0
 13
0.0
 23
0.0
 33
0.0
 16
1.0
 26
0.0
 36
0.0
 17
0.0
 27
1.0
 37
0.0
 76
     0
330
6F
331
1540
  0
LAYOUT
  5
6E
102
{ACAD_REACTORS
330
61
102
}
330
61
100
AcDbPlotSettings
  1

  2
AutoCAD PDF (General Documentation).pc3
  4

  6

 40
0.0
 41
0.0
 42
0.0
 43
0.0
 44
0.0
 45
0.0
 46
0.0
 47
0.0
 48
0.0
 49
0.0
140
0.0
141
0.0
142
1.0
143
1.0
 70
   688
 72
     0
 73
     0
 74
     5
  7

 75
    16
147
1.0
 76
     0
 77
     2
 78
   300
148
0.0
149
0.0
100
AcDbLayout
  1
Présentation1
 70
     1
 71
     1
 10
0.0
 20
0.0
 11
12.0
 21
9.0
 12
0.0
 22
0.0
 32
0.0
 14
1.000000000000000E+20
 24
1.000000000000000E+20
 34
1.000000000000000E+20
 15
-1.000000000000000E+20
 25
-1.000000000000000E+20
 35
-1.000000000000000E+20
146
0.0
 13
0.0
 23
0.0
 33
0.0
 16
1.0
 26
0.0
 36
0.0
 17
0.0
 27
1.0
 37
0.0
 76
     0
330
6B
  0
MATERIAL
  5
19
102
{ACAD_XDICTIONARY
360
1A
102
}
102
{ACAD_REACTORS
330
10
102
}
330
10
100
AcDbMaterial
  1
ByBlock
 72
     0
 43
0.0208333333333333
 43
0.0
 43
0.0
 43
0.0
 43
0.0
 43
0.0208333333333333
 43
0.0
 43
0.0
 43
0.0
 43
0.0
 43
1.0
 43
0.0
 43
0.0
 43
0.0
 43
0.0
 43
1.0
 77
     0
 47
0.0208333333333333
 47
0.0
 47
0.0
 47
0.0
 47
0.0
 47
0.0208333333333333
 47
0.0
 47
0.0
 47
0.0
 47
0.0
 47
1.0
 47
0.0
 47
0.0
 47
0.0
 47
0.0
 47
1.0
171
     0
 49
0.0208333333333333
 49
0.0
 49
0.0
 49
0.0
 49
0.0
 49
0.0208333333333333
 49
0.0
 49
0.0
 49
0.0
 49
0.0
 49
1.0
 49
0.0
 49
0.0
 49
0.0
 49
0.0
 49
1.0
175
     0
142
0.0208333333333333
142
0.0
142
0.0
142
0.0
142
0.0
142
0.0208333333333333
142
0.0
142
0.0
142
0.0
142
0.0
142
1.0
142
0.0
142
0.0
142
0.0
142
0.0
142
1.0
179
     0
144
0.0208333333333333
144
0.0
144
0.0
144
0.0
144
0.0
144
0.0208333333333333
144
0.0
144
0.0
144
0.0
144
0.0
144
1.0
144
0.0
144
0.0
144
0.0
144
0.0
144
1.0
147
0.0208333333333333
147
0.0
147
0.0
147
0.0
147
0.0
147
0.0208333333333333
147
0.0
147
0.0
147
0.0
147
0.0
147
1.0
147
0.0
147
0.0
147
0.0
147
0.0
147
1.0
  0
MATERIAL
  5
11
102
{ACAD_XDICTIONARY
360
12
102
}
102
{ACAD_REACTORS
330
10
102
}
330
10
100
AcDbMaterial
  1
ByLayer
 72
     0
 43
0.0208333333333333
 43
0.0
 43
0.0
 43
0.0
 43
0.0
 43
0.0208333333333333
 43
0.0
 43
0.0
 43
0.0
 43
0.0
 43
1.0
 43
0.0
 43
0.0
 43
0.0
 43
0.0
 43
1.0
 77
     0
 47
0.0208333333333333
 47
0.0
 47
0.0
 47
0.0
 47
0.0
 47
0.0208333333333333
 47
0.0
 47
0.0
 47
0.0
 47
0.0
 47
1.0
 47
0.0
 47
0.0
 47
0.0
 47
0.0
 47
1.0
171
     0
 49
0.0208333333333333
 49
0.0
 49
0.0
 49
0.0
 49
0.0
 49
0.0208333333333333
 49
0.0
 49
0.0
 49
0.0
 49
0.0
 49
1.0
 49
0.0
 49
0.0
 49
0.0
 49
0.0
 49
1.0
175
     0
142
0.0208333333333333
142
0.0
142
0.0
142
0.0
142
0.0
142
0.0208333333333333
142
0.0
142
0.0
142
0.0
142
0.0
142
1.0
142
0.0
142
0.0
142
0.0
142
0.0
142
1.0
179
     0
144
0.0208333333333333
144
0.0
144
0.0
144
0.0
144
0.0
144
0.0208333333333333
144
0.0
144
0.0
144
0.0
144
0.0
144
1.0
144
0.0
144
0.0
144
0.0
144
0.0
144
1.0
147
0.0208333333333333
147
0.0
147
0.0
147
0.0
147
0.0
147
0.0208333333333333
147
0.0
147
0.0
147
0.0
147
0.0
147
1.0
147
0.0
147
0.0
147
0.0
147
0.0
147
1.0
  0
MATERIAL
  5
21
102
{ACAD_XDICTIONARY
360
22
102
}
102
{ACAD_REACTORS
330
10
102
}
330
10
100
AcDbMaterial
  1
Global
 72
     0
 43
0.0208333333333333
 43
0.0
 43
0.0
 43
0.0
 43
0.0
 43
0.0208333333333333
 43
0.0
 43
0.0
 43
0.0
 43
0.0
 43
1.0
 43
0.0
 43
0.0
 43
0.0
 43
0.0
 43
1.0
 77
     0
 47
0.0208333333333333
 47
0.0
 47
0.0
 47
0.0
 47
0.0
 47
0.0208333333333333
 47
0.0
 47
0.0
 47
0.0
 47
0.0
 47
1.0
 47
0.0
 47
0.0
 47
0.0
 47
0.0
 47
1.0
171
     0
 49
0.0208333333333333
 49
0.0
 49
0.0
 49
0.0
 49
0.0
 49
0.0208333333333333
 49
0.0
 49
0.0
 49
0.0
 49
0.0
 49
1.0
 49
0.0
 49
0.0
 49
0.0
 49
0.0
 49
1.0
175
     0
142
0.0208333333333333
142
0.0
142
0.0
142
0.0
142
0.0
142
0.0208333333333333
142
0.0
142
0.0
142
0.0
142
0.0
142
1.0
142
0.0
142
0.0
142
0.0
142
0.0
142
1.0
179
     0
144
0.0208333333333333
144
0.0
144
0.0
144
0.0
144
0.0
144
0.0208333333333333
144
0.0
144
0.0
144
0.0
144
0.0
144
1.0
144
0.0
144
0.0
144
0.0
144
0.0
144
1.0
147
0.0208333333333333
147
0.0
147
0.0
147
0.0
147
0.0
147
0.0208333333333333
147
0.0
147
0.0
147
0.0
147
0.0
147
1.0
147
0.0
147
0.0
147
0.0
147
0.0
147
1.0
  0
MLEADERSTYLE
  5
66
102
{ACAD_REACTORS
330
65
102
}
330
65
100
AcDbMLeaderStyle
179
     2
170
     2
171
     1
172
     0
 90
        2
 40
0.0
 41
0.0
173
     1
 91
-1056964608
340
5A
 92
       -2
290
     1
 42
0.09
291
     1
 43
0.36
  3
Standard
 44
0.18
300

342
55
174
     1
178
     6
175
     1
176
     0
 93
-1056964608
 45
0.18
292
     0
297
     0
 46
0.18
 94
-1056964608
 47
1.0
 49
1.0
140
1.0
293
     1
141
0.0
294
     1
177
     0
142
1.0
295
     0
296
     0
143
0.125
271
     0
272
     9
273
     9
298
     0
  0
MLINESTYLE
  5
5F
102
{ACAD_REACTORS
330
5E
102
}
330
5E
100
AcDbMlineStyle
  2
STANDARD
 70
     0
  3

 62
   256
 51
90.0
 52
90.0
 71
     2
 49
0.5
 62
   256
  6
BYLAYER
 49
-0.5
 62
   256
  6
BYLAYER
  0
ACDBPLACEHOLDER
  5
F
102
{ACAD_REACTORS
330
E
102
}
330
E
  0
DICTIONARY
  5
1627
330
1626
100
AcDbDictionary
280
     1
281
     1
  3
ACAD_XREC_ROUNDTRIP
360
1629
  3
ADSK_XREC_MENTALRAYSETTINGSINFO
360
1628
  0
RAPIDRTRENDERSETTINGS
  5
1544
102
{ACAD_REACTORS
330
1543
102
}
330
1543
100
AcDbRenderSettings
 90
        2
  1
Bas
290
     1
290
     0
290
     1
290
     1
  1

  1
Applique 1 niveau de rendu
 90
        0
100
AcDbRapidRTRenderSettings
 90
        3
 70
     0
 90
        1
 90
        1
 70
     0
 70
     2
 40
3.0
 40
3.0
290
     1
  0
RAPIDRTRENDERSETTINGS
  5
1546
102
{ACAD_REACTORS
330
1543
102
}
330
1543
100
AcDbRenderSettings
 90
        2
  1
Elevé
290
     1
290
     0
290
     1
290
     1
  1

  1
Applique 10 niveaux de rendu
 90
        2
100
AcDbRapidRTRenderSettings
 90
        3
 70
     0
 90
       10
 90
        1
 70
     2
 70
     2
 40
3.0
 40
3.0
290
     1
  0
RAPIDRTRENDERSETTINGS
  5
1545
102
{ACAD_REACTORS
330
1543
102
}
330
1543
100
AcDbRenderSettings
 90
        2
  1
Moyenne
290
     1
290
     0
290
     1
290
     1
  1

  1
Applique 5 niveaux de rendu
 90
        1
100
AcDbRapidRTRenderSettings
 90
        3
 70
     0
 90
        5
 90
        1
 70
     1
 70
     2
 40
3.0
 40
3.0
290
     1
  0
RAPIDRTRENDERSETTINGS
  5
1548
102
{ACAD_REACTORS
330
1543
102
}
330
1543
100
AcDbRenderSettings
 90
        2
  1
Temps d'un déjeuner
290
     1
290
     0
290
     1
290
     1
  1

  1
Effectue un rendu pendant 60 minutes
 90
        4
100
AcDbRapidRTRenderSettings
 90
        3
 70
     1
 90
        1
 90
       60
 70
     2
 70
     2
 40
3.0
 40
3.0
290
     1
  0
RAPIDRTRENDERSETTINGS
  5
1549
102
{ACAD_REACTORS
330
1543
102
}
330
1543
100
AcDbRenderSettings
 90
        2
  1
Temps d'une nuit
290
     1
290
     0
290
     1
290
     1
  1

  1
Effectue un rendu pendant 12 heures
 90
        5
100
AcDbRapidRTRenderSettings
 90
        3
 70
     1
 90
        1
 90
      720
 70
     2
 70
     2
 40
3.0
 40
3.0
290
     1
  0
RAPIDRTRENDERSETTINGS
  5
1547
102
{ACAD_REACTORS
330
1543
102
}
330
1543
100
AcDbRenderSettings
 90
        2
  1
Temps d'une pause café
290
     1
290
     0
290
     1
290
     1
  1

  1
Effectue un rendu pendant 10 minutes
 90
        3
100
AcDbRapidRTRenderSettings
 90
        3
 70
     1
 90
        1
 90
       10
 70
     1
 70
     2
 40
3.0
 40
3.0
290
     1
  0
SCALE
  5
43
102
{ACAD_REACTORS
330
42
102
}
330
42
100
AcDbScale
 70
     0
300
1:1
140
1.0
141
1.0
290
     1
  0
SCALE
  5
44
102
{ACAD_REACTORS
330
42
102
}
330
42
100
AcDbScale
 70
     0
300
1/128" = 1'-0"
140
0.0078125
141
12.0
290
     0
  0
SCALE
  5
45
102
{ACAD_REACTORS
330
42
102
}
330
42
100
AcDbScale
 70
     0
300
1/64" = 1'-0"
140
0.015625
141
12.0
290
     0
  0
SCALE
  5
46
102
{ACAD_REACTORS
330
42
102
}
330
42
100
AcDbScale
 70
     0
300
1/32" = 1'-0"
140
0.03125
141
12.0
290
     0
  0
SCALE
  5
47
102
{ACAD_REACTORS
330
42
102
}
330
42
100
AcDbScale
 70
     0
300
1/16" = 1'-0"
140
0.0625
141
12.0
290
     0
  0
SCALE
  5
48
102
{ACAD_REACTORS
330
42
102
}
330
42
100
AcDbScale
 70
     0
300
3/32" = 1'-0"
140
0.09375
141
12.0
290
     0
  0
SCALE
  5
49
102
{ACAD_REACTORS
330
42
102
}
330
42
100
AcDbScale
 70
     0
300
1/8" = 1'-0"
140
0.125
141
12.0
290
     0
  0
SCALE
  5
4A
102
{ACAD_REACTORS
330
42
102
}
330
42
100
AcDbScale
 70
     0
300
3/16" = 1'-0"
140
0.1875
141
12.0
290
     0
  0
SCALE
  5
4B
102
{ACAD_REACTORS
330
42
102
}
330
42
100
AcDbScale
 70
     0
300
1/4" = 1'-0"
140
0.25
141
12.0
290
     0
  0
SCALE
  5
4C
102
{ACAD_REACTORS
330
42
102
}
330
42
100
AcDbScale
 70
     0
300
3/8" = 1'-0"
140
0.375
141
12.0
290
     0
  0
SCALE
  5
4D
102
{ACAD_REACTORS
330
42
102
}
330
42
100
AcDbScale
 70
     0
300
1/2" = 1'-0"
140
0.5
141
12.0
290
     0
  0
SCALE
  5
4E
102
{ACAD_REACTORS
330
42
102
}
330
42
100
AcDbScale
 70
     0
300
3/4" = 1'-0"
140
0.75
141
12.0
290
     0
  0
SCALE
  5
4F
102
{ACAD_REACTORS
330
42
102
}
330
42
100
AcDbScale
 70
     0
300
1" = 1'-0"
140
1.0
141
12.0
290
     0
  0
SCALE
  5
50
102
{ACAD_REACTORS
330
42
102
}
330
42
100
AcDbScale
 70
     0
300
1-1/2" = 1'-0"
140
1.5
141
12.0
290
     0
  0
SCALE
  5
51
102
{ACAD_REACTORS
330
42
102
}
330
42
100
AcDbScale
 70
     0
300
3" = 1'-0"
140
3.0
141
12.0
290
     0
  0
SCALE
  5
52
102
{ACAD_REACTORS
330
42
102
}
330
42
100
AcDbScale
 70
     0
300
6" = 1'-0"
140
6.0
141
12.0
290
     0
  0
SCALE
  5
53
102
{ACAD_REACTORS
330
42
102
}
330
42
100
AcDbScale
 70
     0
300
1'-0" = 1'-0"
140
12.0
141
12.0
290
     0
  0
ACDBSECTIONVIEWSTYLE
  5
68
102
{ACAD_XDICTIONARY
360
1622
102
}
102
{ACAD_REACTORS
330
67
102
}
330
67
100
AcDbModelDocViewStyle
 70
     0
  3
Imperial24
290
     0
100
AcDbSectionViewStyle
 70
     0
 71
     0
 90
       78
 71
     1
340
55
 62
   256
 40
0.24
340
0
340
0
 62
   256
 40
0.24
300
I, O, Q, S, X, Z
 40
0.48
 90
        3
 40
0.18
 90
        1
 71
     2
340
5C
 90
       25
 62
   256
340
5C
 90
       50
 62
   256
 40
0.24
 40
0.0
 40
0.24
 71
     3
340
55
 62
   256
 40
0.24
 90
        1
 40
0.75
 90
        1
300
%<\AcVar ViewType \f "%tc1">% %<\AcVar ViewSectionStartId>%-%<\AcVar ViewSectionEndId>%\PECHELLE %<\AcVar ViewScale \f "%sn">%
 71
     4
 62
   256
 62
   257
300
ANSI31
 40
1.0
 90
        0
290
     0
290
     0
 90
        6
 40
0.0
 40
1.570796326794896
 40
0.2617993877991494
 40
1.308996938995747
 40
-0.2617993877991494
 40
1.832595714594046
  0
TABLESTYLE
  5
64
102
{ACAD_XDICTIONARY
360
1617
102
}
102
{ACAD_REACTORS
330
63
102
}
330
63
100
AcDbTableStyle
280
     0
  3
Standard
 70
     0
 71
     0
 40
0.06
 41
0.06
280
     0
281
     0
  7
Standard
140
0.18
170
     2
 62
     0
 63
     7
283
     0
 90
      512
 91
        0
  1

274
    -2
284
     1
 64
     0
275
    -2
285
     1
 65
     0
276
    -2
286
     1
 66
     0
277
    -2
287
     1
 67
     0
278
    -2
288
     1
 68
     0
279
    -2
289
     1
 69
     0
  7
Standard
140
0.25
170
     5
 62
     0
 63
     7
283
     0
 90
      512
 91
        0
  1

274
    -2
284
     1
 64
     0
275
    -2
285
     1
 65
     0
276
    -2
286
     1
 66
     0
277
    -2
287
     1
 67
     0
278
    -2
288
     1
 68
     0
279
    -2
289
     1
 69
     0
  7
Standard
140
0.18
170
     5
 62
     0
 63
     7
283
     0
 90
      512
 91
        0
  1

274
    -2
284
     1
 64
     0
275
    -2
285
     1
 65
     0
276
    -2
286
     1
 66
     0
277
    -2
287
     1
 67
     0
278
    -2
288
     1
 68
     0
279
    -2
289
     1
 69
     0
  0
VISUALSTYLE
  5
2F
102
{ACAD_REACTORS
330
29
102
}
330
29
100
AcDbVisualStyle
  2
2dWireframe
 70
     4
177
     3
291
     0
 70
    58
 90
        0
176
     1
 90
        2
176
     1
 90
        0
176
     1
 90
        0
176
     1
 40
0.6
176
     1
 40
30.0
176
     1
 62
     7
420
 16777215
176
     1
 90
        1
176
     1
 90
        4
176
     1
 62
     7
176
     1
 62
   257
176
     1
 90
        1
176
     1
 90
        1
176
     1
 40
1.0
176
     1
 90
        0
176
     1
 62
   257
176
     1
 40
1.0
176
     1
 90
        1
176
     1
 90
        6
176
     1
 90
        2
176
     1
 62
     7
176
     1
 90
        5
176
     1
 90
        0
176
     1
 90
        0
176
     1
290
     0
176
     1
 90
        1
176
     1
 40
0.0
176
     1
 90
        0
176
     1
290
     1
176
     1
290
     1
176
     1
290
     0
176
     1
290
     0
176
     1
290
     0
176
     1
290
     0
176
     1
290
     0
176
     1
290
     0
176
     1
290
     0
176
     1
 90
       50
176
     1
 40
0.0
176
     1
 40
1.0
176
     1
 90
        0
176
     1
 62
    18
420
        0
176
     1
 90
       50
176
     1
 90
        3
176
     1
 62
     5
420
      255
176
     1
290
     0
176
     1
 90
       50
176
     1
 90
       50
176
     1
 90
       50
176
     1
290
     0
176
     1
 90
       50
176
     1
 62
   256
176
     0
 40
1.0
176
     0
 90
        2
176
     1
  1
strokes_ogs.tif
176
     1
290
     0
176
     1
 40
1.0
176
     1
 40
1.0
176
     1
1001
ACAD
1000
AcDbSavedByObjectVersion
1070
     0
  0
VISUALSTYLE
  5
2E
102
{ACAD_REACTORS
330
29
102
}
330
29
100
AcDbVisualStyle
  2
Basic
 70
     7
177
     3
291
     1
 70
    58
 90
        1
176
     1
 90
        0
176
     1
 90
        1
176
     1
 90
        0
176
     1
 40
0.6
176
     1
 40
30.0
176
     1
 62
     7
420
 16777215
176
     1
 90
        0
176
     1
 90
        4
176
     1
 62
     7
176
     1
 62
   257
176
     1
 90
        1
176
     1
 90
        1
176
     1
 40
1.0
176
     1
 90
        8
176
     1
 62
     7
176
     1
 40
1.0
176
     1
 90
        1
176
     1
 90
        6
176
     1
 90
        2
176
     1
 62
     7
176
     1
 90
        5
176
     1
 90
        0
176
     1
 90
        0
176
     1
290
     0
176
     1
 90
        1
176
     1
 40
0.0
176
     1
 90
        0
176
     1
290
     0
176
     1
290
     1
176
     1
290
     1
176
     1
290
     0
176
     1
290
     0
176
     1
290
     0
176
     1
290
     0
176
     1
290
     0
176
     1
290
     0
176
     1
 90
       50
176
     1
 40
0.0
176
     1
 40
1.0
176
     1
 90
        0
176
     1
 62
    18
420
        0
176
     1
 90
       50
176
     1
 90
        3
176
     1
 62
     5
420
      255
176
     1
290
     0
176
     1
 90
       50
176
     1
 90
       50
176
     1
 90
       50
176
     1
290
     0
176
     1
 90
       50
176
     1
 62
   256
176
     0
 40
1.0
176
     0
 90
        2
176
     1
  1
strokes_ogs.tif
176
     1
290
     0
176
     1
 40
1.0
176
     1
 40
1.0
176
     1
1001
ACAD
1000
AcDbSavedByObjectVersion
1070
     0
  0
VISUALSTYLE
  5
35
102
{ACAD_REACTORS
330
29
102
}
330
29
100
AcDbVisualStyle
  2
Brighten
 70
    12
177
     3
291
     1
 70
    58
 90
        2
176
     1
 90
        2
176
     1
 90
        0
176
     1
 90
        0
176
     1
 40
0.6
176
     1
 40
30.0
176
     1
 62
     7
420
 16777215
176
     1
 90
        1
176
     1
 90
        4
176
     1
 62
     7
176
     1
 62
   257
176
     1
 90
        1
176
     1
 90
        1
176
     1
 40
1.0
176
     1
 90
        8
176
     1
 62
     7
176
     1
 40
1.0
176
     1
 90
        1
176
     1
 90
        6
176
     1
 90
        2
176
     1
 62
     7
176
     1
 90
        5
176
     1
 90
        0
176
     1
 90
        0
176
     1
290
     0
176
     1
 90
        1
176
     1
 40
50.0
176
     1
 90
        0
176
     1
290
     0
176
     1
290
     1
176
     1
290
     1
176
     1
290
     0
176
     1
290
     0
176
     1
290
     0
176
     1
290
     0
176
     1
290
     0
176
     1
290
     0
176
     1
 90
       50
176
     1
 40
0.0
176
     1
 40
1.0
176
     1
 90
        0
176
     1
 62
    18
420
        0
176
     1
 90
       50
176
     1
 90
        3
176
     1
 62
     5
420
      255
176
     1
290
     0
176
     1
 90
       50
176
     1
 90
       50
176
     1
 90
       50
176
     1
290
     0
176
     1
 90
       50
176
     1
 62
   256
176
     0
 40
1.0
176
     0
 90
        2
176
     1
  1
strokes_ogs.tif
176
     1
290
     0
176
     1
 40
1.0
176
     1
 40
1.0
176
     1
1001
ACAD
1000
AcDbSavedByObjectVersion
1070
     0
  0
VISUALSTYLE
  5
39
102
{ACAD_REACTORS
330
29
102
}
330
29
100
AcDbVisualStyle
  2
ColorChange
 70
    16
177
     3
291
     1
 70
    58
 90
        2
176
     1
 90
        2
176
     1
 90
        3
176
     1
 90
        0
176
     1
 40
0.6
176
     1
 40
30.0
176
     1
 62
     8
420
  8421504
176
     1
 90
        1
176
     1
 90
        4
176
     1
 62
     7
176
     1
 62
   257
176
     1
 90
        1
176
     1
 90
        1
176
     1
 40
1.0
176
     1
 90
        8
176
     1
 62
     8
420
  8421504
176
     1
 40
1.0
176
     1
 90
        1
176
     1
 90
        6
176
     1
 90
        2
176
     1
 62
     7
176
     1
 90
        5
176
     1
 90
        0
176
     1
 90
        0
176
     1
290
     0
176
     1
 90
        1
176
     1
 40
0.0
176
     1
 90
        0
176
     1
290
     0
176
     1
290
     1
176
     1
290
     1
176
     1
290
     0
176
     1
290
     0
176
     1
290
     0
176
     1
290
     0
176
     1
290
     0
176
     1
290
     0
176
     1
 90
       50
176
     1
 40
0.0
176
     1
 40
1.0
176
     1
 90
        0
176
     1
 62
    18
420
        0
176
     1
 90
       50
176
     1
 90
        3
176
     1
 62
     5
420
      255
176
     1
290
     0
176
     1
 90
       50
176
     1
 90
       50
176
     1
 90
       50
176
     1
290
     0
176
     1
 90
       50
176
     1
 62
   256
176
     0
 40
1.0
176
     0
 90
        2
176
     1
  1
strokes_ogs.tif
176
     1
290
     0
176
     1
 40
1.0
176
     1
 40
1.0
176
     1
1001
ACAD
1000
AcDbSavedByObjectVersion
1070
     0
  0
VISUALSTYLE
  5
32
102
{ACAD_REACTORS
330
29
102
}
330
29
100
AcDbVisualStyle
  2
Conceptual
 70
     9
177
     3
291
     0
 70
    58
 90
        3
176
     1
 90
        2
176
     1
 90
        0
176
     1
 90
        0
176
     1
 40
0.6
176
     1
 40
30.0
176
     1
 62
     7
420
 16777215
176
     1
 90
        2
176
     1
 90
        2
176
     1
 62
     7
176
     1
 62
   257
176
     1
 90
        1
176
     1
 90
        1
176
     1
 40
179.0
176
     1
 90
        8
176
     1
 62
     7
176
     1
 40
1.0
176
     1
 90
        1
176
     1
 90
        6
176
     1
 90
        2
176
     1
 62
     7
176
     1
 90
        3
176
     1
 90
        0
176
     1
 90
        0
176
     1
290
     0
176
     1
 90
        1
176
     1
 40
0.0
176
     1
 90
        0
176
     1
290
     0
176
     1
290
     1
176
     1
290
     1
176
     1
290
     0
176
     1
290
     0
176
     1
290
     0
176
     1
290
     0
176
     1
290
     0
176
     1
290
     0
176
     1
 90
       50
176
     1
 40
0.0
176
     1
 40
1.0
176
     1
 90
        0
176
     1
 62
    18
420
        0
176
     1
 90
       50
176
     1
 90
        3
176
     1
 62
     5
420
      255
176
     1
290
     0
176
     1
 90
       50
176
     1
 90
       50
176
     1
 90
       50
176
     1
290
     0
176
     1
 90
       50
176
     1
 62
   256
176
     0
 40
1.0
176
     0
 90
        2
176
     1
  1
strokes_ogs.tif
176
     1
290
     0
176
     1
 40
1.0
176
     1
 40
1.0
176
     1
1001
ACAD
1000
AcDbSavedByObjectVersion
1070
     0
  0
VISUALSTYLE
  5
34
102
{ACAD_REACTORS
330
29
102
}
330
29
100
AcDbVisualStyle
  2
Dim
 70
    11
177
     3
291
     1
 70
    58
 90
        2
176
     1
 90
        2
176
     1
 90
        0
176
     1
 90
        0
176
     1
 40
0.6
176
     1
 40
30.0
176
     1
 62
     7
420
 16777215
176
     1
 90
        1
176
     1
 90
        4
176
     1
 62
     7
176
     1
 62
   257
176
     1
 90
        1
176
     1
 90
        1
176
     1
 40
1.0
176
     1
 90
        8
176
     1
 62
     7
176
     1
 40
1.0
176
     1
 90
        1
176
     1
 90
        6
176
     1
 90
        2
176
     1
 62
     7
176
     1
 90
        5
176
     1
 90
        0
176
     1
 90
        0
176
     1
290
     0
176
     1
 90
        1
176
     1
 40
-50.0
176
     1
 90
        0
176
     1
290
     0
176
     1
290
     1
176
     1
290
     1
176
     1
290
     0
176
     1
290
     0
176
     1
290
     0
176
     1
290
     0
176
     1
290
     0
176
     1
290
     0
176
     1
 90
       50
176
     1
 40
0.0
176
     1
 40
1.0
176
     1
 90
        0
176
     1
 62
    18
420
        0
176
     1
 90
       50
176
     1
 90
        3
176
     1
 62
     5
420
      255
176
     1
290
     0
176
     1
 90
       50
176
     1
 90
       50
176
     1
 90
       50
176
     1
290
     0
176
     1
 90
       50
176
     1
 62
   256
176
     0
 40
1.0
176
     0
 90
        2
176
     1
  1
strokes_ogs.tif
176
     1
290
     0
176
     1
 40
1.0
176
     1
 40
1.0
176
     1
1001
ACAD
1000
AcDbSavedByObjectVersion
1070
     0
  0
VISUALSTYLE
  5
41
102
{ACAD_REACTORS
330
29
102
}
330
29
100
AcDbVisualStyle
  2
EdgeColorOff
 70
    22
177
     3
291
     1
 70
    58
 90
        2
176
     0
 90
        2
176
     0
 90
        0
176
     0
 90
        0
176
     0
 40
0.6
176
     0
 40
30.0
176
     0
 62
     7
420
 16777215
176
     0
 90
        1
176
     0
 90
        4
176
     0
 62
     7
176
     0
 62
   257
176
     0
 90
        1
176
     0
 90
        1
176
     0
 40
1.0
176
     0
 90
        8
176
     2
 62
     7
176
     0
 40
1.0
176
     0
 90
        1
176
     0
 90
        6
176
     0
 90
        2
176
     0
 62
     7
176
     0
 90
        5
176
     0
 90
        0
176
     0
 90
        0
176
     0
290
     0
176
     0
 90
        1
176
     0
 40
0.0
176
     0
 90
        0
176
     0
290
     0
176
     1
290
     1
176
     1
290
     1
176
     1
290
     0
176
     1
290
     0
176
     1
290
     0
176
     1
290
     0
176
     1
290
     0
176
     1
290
     0
176
     1
 90
       50
176
     0
 40
0.0
176
     0
 40
1.0
176
     0
 90
        0
176
     0
 62
    18
420
        0
176
     0
 90
       50
176
     0
 90
        3
176
     0
 62
     5
420
      255
176
     0
290
     0
176
     1
 90
       50
176
     0
 90
       50
176
     0
 90
       50
176
     0
290
     0
176
     1
 90
       50
176
     0
 62
   256
176
     0
 40
1.0
176
     0
 90
        2
176
     0
  1
strokes_ogs.tif
176
     0
290
     0
176
     1
 40
1.0
176
     0
 40
1.0
176
     0
1001
ACAD
1000
AcDbSavedByObjectVersion
1070
     0
  0
VISUALSTYLE
  5
38
102
{ACAD_REACTORS
330
29
102
}
330
29
100
AcDbVisualStyle
  2
Facepattern
 70
    15
177
     3
291
     1
 70
    58
 90
        2
176
     1
 90
        2
176
     1
 90
        0
176
     1
 90
        0
176
     1
 40
0.6
176
     1
 40
30.0
176
     1
 62
     7
420
 16777215
176
     1
 90
        1
176
     1
 90
        4
176
     1
 62
     7
176
     1
 62
   257
176
     1
 90
        1
176
     1
 90
        1
176
     1
 40
1.0
176
     1
 90
        8
176
     1
 62
     7
176
     1
 40
1.0
176
     1
 90
        1
176
     1
 90
        6
176
     1
 90
        2
176
     1
 62
     7
176
     1
 90
        5
176
     1
 90
        0
176
     1
 90
        0
176
     1
290
     0
176
     1
 90
        1
176
     1
 40
0.0
176
     1
 90
        0
176
     1
290
     0
176
     1
290
     1
176
     1
290
     1
176
     1
290
     0
176
     1
290
     0
176
     1
290
     0
176
     1
290
     0
176
     1
290
     0
176
     1
290
     0
176
     1
 90
       50
176
     1
 40
0.0
176
     1
 40
1.0
176
     1
 90
        0
176
     1
 62
    18
420
        0
176
     1
 90
       50
176
     1
 90
        3
176
     1
 62
     5
420
      255
176
     1
290
     0
176
     1
 90
       50
176
     1
 90
       50
176
     1
 90
       50
176
     1
290
     0
176
     1
 90
       50
176
     1
 62
   256
176
     0
 40
1.0
176
     0
 90
        2
176
     1
  1
strokes_ogs.tif
176
     1
290
     0
176
     1
 40
1.0
176
     1
 40
1.0
176
     1
1001
ACAD
1000
AcDbSavedByObjectVersion
1070
     0
  0
VISUALSTYLE
  5
2A
102
{ACAD_REACTORS
330
29
102
}
330
29
100
AcDbVisualStyle
  2
Flat
 70
     0
177
     3
291
     1
 70
    58
 90
        2
176
     1
 90
        1
176
     1
 90
        1
176
     1
 90
        2
176
     1
 40
0.6
176
     1
 40
30.0
176
     1
 62
     7
420
 16777215
176
     1
 90
        0
176
     1
 90
        0
176
     1
 62
     7
176
     1
 62
   257
176
     1
 90
        1
176
     1
 90
        1
176
     1
 40
1.0
176
     1
 90
        8
176
     1
 62
     7
176
     1
 40
1.0
176
     1
 90
        1
176
     1
 90
        6
176
     1
 90
        2
176
     1
 62
     7
176
     1
 90
        5
176
     1
 90
        0
176
     1
 90
        0
176
     1
290
     0
176
     1
 90
       13
176
     1
 40
0.0
176
     1
 90
        0
176
     1
290
     0
176
     1
290
     1
176
     1
290
     1
176
     1
290
     0
176
     1
290
     0
176
     1
290
     0
176
     1
290
     0
176
     1
290
     0
176
     1
290
     0
176
     1
 90
       50
176
     1
 40
0.0
176
     1
 40
1.0
176
     1
 90
        0
176
     1
 62
    18
420
        0
176
     1
 90
       50
176
     1
 90
        3
176
     1
 62
     5
420
      255
176
     1
290
     0
176
     1
 90
       50
176
     1
 90
       50
176
     1
 90
       50
176
     1
290
     0
176
     1
 90
       50
176
     1
 62
   256
176
     0
 40
1.0
176
     0
 90
        2
176
     1
  1
strokes_ogs.tif
176
     1
290
     0
176
     1
 40
1.0
176
     1
 40
1.0
176
     1
1001
ACAD
1000
AcDbSavedByObjectVersion
1070
     0
  0
VISUALSTYLE
  5
2B
102
{ACAD_REACTORS
330
29
102
}
330
29
100
AcDbVisualStyle
  2
FlatWithEdges
 70
     1
177
     3
291
     1
 70
    58
 90
        2
176
     1
 90
        1
176
     1
 90
        1
176
     1
 90
        2
176
     1
 40
0.6
176
     1
 40
30.0
176
     1
 62
     7
420
 16777215
176
     1
 90
        1
176
     1
 90
        0
176
     1
 62
     7
176
     1
 62
   257
176
     1
 90
        1
176
     1
 90
        1
176
     1
 40
1.0
176
     1
 90
        0
176
     1
 62
   257
176
     1
 40
1.0
176
     1
 90
        1
176
     1
 90
        6
176
     1
 90
        2
176
     1
 62
     7
176
     1
 90
        5
176
     1
 90
        0
176
     1
 90
        0
176
     1
290
     0
176
     1
 90
       13
176
     1
 40
0.0
176
     1
 90
        0
176
     1
290
     0
176
     1
290
     1
176
     1
290
     1
176
     1
290
     0
176
     1
290
     0
176
     1
290
     0
176
     1
290
     0
176
     1
290
     0
176
     1
290
     0
176
     1
 90
       50
176
     1
 40
0.0
176
     1
 40
1.0
176
     1
 90
        0
176
     1
 62
    18
420
        0
176
     1
 90
       50
176
     1
 90
        3
176
     1
 62
     5
420
      255
176
     1
290
     0
176
     1
 90
       50
176
     1
 90
       50
176
     1
 90
       50
176
     1
290
     0
176
     1
 90
       50
176
     1
 62
   256
176
     0
 40
1.0
176
     0
 90
        2
176
     1
  1
strokes_ogs.tif
176
     1
290
     0
176
     1
 40
1.0
176
     1
 40
1.0
176
     1
1001
ACAD
1000
AcDbSavedByObjectVersion
1070
     0
  0
VISUALSTYLE
  5
2C
102
{ACAD_REACTORS
330
29
102
}
330
29
100
AcDbVisualStyle
  2
Gouraud
 70
     2
177
     3
291
     1
 70
    58
 90
        2
176
     1
 90
        2
176
     1
 90
        1
176
     1
 90
        2
176
     1
 40
0.6
176
     1
 40
30.0
176
     1
 62
     7
420
 16777215
176
     1
 90
        0
176
     1
 90
        0
176
     1
 62
     7
176
     1
 62
   257
176
     1
 90
        1
176
     1
 90
        1
176
     1
 40
1.0
176
     1
 90
        0
176
     1
 62
     7
176
     1
 40
1.0
176
     1
 90
        1
176
     1
 90
        6
176
     1
 90
        2
176
     1
 62
     7
176
     1
 90
        5
176
     1
 90
        0
176
     1
 90
        0
176
     1
290
     0
176
     1
 90
       13
176
     1
 40
0.0
176
     1
 90
        0
176
     1
290
     0
176
     1
290
     1
176
     1
290
     1
176
     1
290
     0
176
     1
290
     0
176
     1
290
     0
176
     1
290
     0
176
     1
290
     0
176
     1
290
     0
176
     1
 90
       50
176
     1
 40
0.0
176
     1
 40
1.0
176
     1
 90
        0
176
     1
 62
    18
420
        0
176
     1
 90
       50
176
     1
 90
        3
176
     1
 62
     5
420
      255
176
     1
290
     0
176
     1
 90
       50
176
     1
 90
       50
176
     1
 90
       50
176
     1
290
     0
176
     1
 90
       50
176
     1
 62
   256
176
     0
 40
1.0
176
     0
 90
        2
176
     1
  1
strokes_ogs.tif
176
     1
290
     0
176
     1
 40
1.0
176
     1
 40
1.0
176
     1
1001
ACAD
1000
AcDbSavedByObjectVersion
1070
     0
  0
VISUALSTYLE
  5
2D
102
{ACAD_REACTORS
330
29
102
}
330
29
100
AcDbVisualStyle
  2
GouraudWithEdges
 70
     3
177
     3
291
     1
 70
    58
 90
        2
176
     1
 90
        2
176
     1
 90
        1
176
     1
 90
        2
176
     1
 40
0.6
176
     1
 40
30.0
176
     1
 62
     7
420
 16777215
176
     1
 90
        1
176
     1
 90
        0
176
     1
 62
     7
176
     1
 62
   257
176
     1
 90
        1
176
     1
 90
        1
176
     1
 40
1.0
176
     1
 90
        0
176
     1
 62
   257
176
     1
 40
1.0
176
     1
 90
        1
176
     1
 90
        6
176
     1
 90
        2
176
     1
 62
     7
176
     1
 90
        5
176
     1
 90
        0
176
     1
 90
        0
176
     1
290
     0
176
     1
 90
       13
176
     1
 40
0.0
176
     1
 90
        0
176
     1
290
     0
176
     1
290
     1
176
     1
290
     1
176
     1
290
     0
176
     1
290
     0
176
     1
290
     0
176
     1
290
     0
176
     1
290
     0
176
     1
290
     0
176
     1
 90
       50
176
     1
 40
0.0
176
     1
 40
1.0
176
     1
 90
        0
176
     1
 62
    18
420
        0
176
     1
 90
       50
176
     1
 90
        3
176
     1
 62
     5
420
      255
176
     1
290
     0
176
     1
 90
       50
176
     1
 90
       50
176
     1
 90
       50
176
     1
290
     0
176
     1
 90
       50
176
     1
 62
   256
176
     0
 40
1.0
176
     0
 90
        2
176
     1
  1
strokes_ogs.tif
176
     1
290
     0
176
     1
 40
1.0
176
     1
 40
1.0
176
     1
1001
ACAD
1000
AcDbSavedByObjectVersion
1070
     0
  0
VISUALSTYLE
  5
31
102
{ACAD_REACTORS
330
29
102
}
330
29
100
AcDbVisualStyle
  2
Hidden
 70
     6
177
     3
291
     0
 70
    58
 90
        1
176
     1
 90
        2
176
     1
 90
        2
176
     1
 90
        0
176
     1
 40
0.6
176
     1
 40
30.0
176
     1
 62
     7
420
 16777215
176
     1
 90
        2
176
     1
 90
        2
176
     1
 62
     7
176
     1
 62
   257
176
     1
 90
        2
176
     1
 90
        1
176
     1
 40
40.0
176
     1
 90
        0
176
     1
 62
   257
176
     1
 40
1.0
176
     1
 90
        1
176
     1
 90
        6
176
     1
 90
        2
176
     1
 62
     7
176
     1
 90
        3
176
     1
 90
        0
176
     1
 90
        0
176
     1
290
     0
176
     1
 90
        1
176
     1
 40
0.0
176
     1
 90
        0
176
     1
290
     0
176
     1
290
     1
176
     1
290
     1
176
     1
290
     0
176
     1
290
     0
176
     1
290
     0
176
     1
290
     0
176
     1
290
     0
176
     1
290
     0
176
     1
 90
       50
176
     1
 40
0.0
176
     1
 40
1.0
176
     1
 90
        0
176
     1
 62
    18
420
        0
176
     1
 90
       50
176
     1
 90
        3
176
     1
 62
     5
420
      255
176
     1
290
     0
176
     1
 90
       50
176
     1
 90
       50
176
     1
 90
       50
176
     1
290
     0
176
     1
 90
       50
176
     1
 62
   256
176
     0
 40
1.0
176
     0
 90
        2
176
     1
  1
strokes_ogs.tif
176
     1
290
     0
176
     1
 40
1.0
176
     1
 40
1.0
176
     1
1001
ACAD
1000
AcDbSavedByObjectVersion
1070
     0
  0
VISUALSTYLE
  5
3F
102
{ACAD_REACTORS
330
29
102
}
330
29
100
AcDbVisualStyle
  2
JitterOff
 70
    20
177
     3
291
     1
 70
    58
 90
        2
176
     0
 90
        2
176
     0
 90
        0
176
     0
 90
        0
176
     0
 40
0.6
176
     0
 40
30.0
176
     0
 62
     7
420
 16777215
176
     0
 90
        1
176
     0
 90
        4
176
     0
 62
     7
176
     0
 62
   257
176
     0
 90
        1
176
     0
 90
        1
176
     0
 40
1.0
176
     0
 90
       10
176
     2
 62
     7
176
     0
 40
1.0
176
     0
 90
        1
176
     0
 90
        6
176
     0
 90
        2
176
     0
 62
     7
176
     0
 90
        5
176
     0
 90
        0
176
     0
 90
        0
176
     0
290
     0
176
     0
 90
        1
176
     0
 40
0.0
176
     0
 90
        0
176
     0
290
     0
176
     1
290
     1
176
     1
290
     1
176
     1
290
     0
176
     1
290
     0
176
     1
290
     0
176
     1
290
     0
176
     1
290
     0
176
     1
290
     0
176
     1
 90
       50
176
     0
 40
0.0
176
     0
 40
1.0
176
     0
 90
        0
176
     0
 62
    18
420
        0
176
     0
 90
       50
176
     0
 90
        3
176
     0
 62
     5
420
      255
176
     0
290
     0
176
     1
 90
       50
176
     0
 90
       50
176
     0
 90
       50
176
     0
290
     0
176
     1
 90
       50
176
     0
 62
   256
176
     0
 40
1.0
176
     0
 90
        2
176
     0
  1
strokes_ogs.tif
176
     0
290
     0
176
     1
 40
1.0
176
     0
 40
1.0
176
     0
1001
ACAD
1000
AcDbSavedByObjectVersion
1070
     0
  0
VISUALSTYLE
  5
37
102
{ACAD_REACTORS
330
29
102
}
330
29
100
AcDbVisualStyle
  2
Linepattern
 70
    14
177
     3
291
     1
 70
    58
 90
        2
176
     1
 90
        2
176
     1
 90
        0
176
     1
 90
        0
176
     1
 40
0.6
176
     1
 40
30.0
176
     1
 62
     7
420
 16777215
176
     1
 90
        1
176
     1
 90
        4
176
     1
 62
     7
176
     1
 62
   257
176
     1
 90
        7
176
     1
 90
        7
176
     1
 40
1.0
176
     1
 90
        8
176
     1
 62
     7
176
     1
 40
1.0
176
     1
 90
        1
176
     1
 90
        6
176
     1
 90
        2
176
     1
 62
     7
176
     1
 90
        5
176
     1
 90
        0
176
     1
 90
        0
176
     1
290
     0
176
     1
 90
        1
176
     1
 40
0.0
176
     1
 90
        0
176
     1
290
     0
176
     1
290
     1
176
     1
290
     1
176
     1
290
     0
176
     1
290
     0
176
     1
290
     0
176
     1
290
     0
176
     1
290
     0
176
     1
290
     0
176
     1
 90
       50
176
     1
 40
0.0
176
     1
 40
1.0
176
     1
 90
        0
176
     1
 62
    18
420
        0
176
     1
 90
       50
176
     1
 90
        3
176
     1
 62
     5
420
      255
176
     1
290
     0
176
     1
 90
       50
176
     1
 90
       50
176
     1
 90
       50
176
     1
290
     0
176
     1
 90
       50
176
     1
 62
   256
176
     0
 40
1.0
176
     0
 90
        2
176
     1
  1
strokes_ogs.tif
176
     1
290
     0
176
     1
 40
1.0
176
     1
 40
1.0
176
     1
1001
ACAD
1000
AcDbSavedByObjectVersion
1070
     0
  0
VISUALSTYLE
  5
40
102
{ACAD_REACTORS
330
29
102
}
330
29
100
AcDbVisualStyle
  2
OverhangOff
 70
    21
177
     3
291
     1
 70
    58
 90
        2
176
     0
 90
        2
176
     0
 90
        0
176
     0
 90
        0
176
     0
 40
0.6
176
     0
 40
30.0
176
     0
 62
     7
420
 16777215
176
     0
 90
        1
176
     0
 90
        4
176
     0
 62
     7
176
     0
 62
   257
176
     0
 90
        1
176
     0
 90
        1
176
     0
 40
1.0
176
     0
 90
        9
176
     2
 62
     7
176
     0
 40
1.0
176
     0
 90
        1
176
     0
 90
        6
176
     0
 90
        2
176
     0
 62
     7
176
     0
 90
        5
176
     0
 90
        0
176
     0
 90
        0
176
     0
290
     0
176
     0
 90
        1
176
     0
 40
0.0
176
     0
 90
        0
176
     0
290
     0
176
     1
290
     1
176
     1
290
     1
176
     1
290
     0
176
     1
290
     0
176
     1
290
     0
176
     1
290
     0
176
     1
290
     0
176
     1
290
     0
176
     1
 90
       50
176
     0
 40
0.0
176
     0
 40
1.0
176
     0
 90
        0
176
     0
 62
    18
420
        0
176
     0
 90
       50
176
     0
 90
        3
176
     0
 62
     5
420
      255
176
     0
290
     0
176
     1
 90
       50
176
     0
 90
       50
176
     0
 90
       50
176
     0
290
     0
176
     1
 90
       50
176
     0
 62
   256
176
     0
 40
1.0
176
     0
 90
        2
176
     0
  1
strokes_ogs.tif
176
     0
290
     0
176
     1
 40
1.0
176
     0
 40
1.0
176
     0
1001
ACAD
1000
AcDbSavedByObjectVersion
1070
     0
  0
VISUALSTYLE
  5
33
102
{ACAD_REACTORS
330
29
102
}
330
29
100
AcDbVisualStyle
  2
Realistic
 70
     8
177
     3
291
     0
 70
    58
 90
        2
176
     1
 90
        3
176
     1
 90
        0
176
     1
 90
        2
176
     1
 40
0.6
176
     1
 40
30.0
176
     1
 62
     7
420
 16777215
176
     1
 90
        0
176
     1
 90
        0
176
     1
 62
     7
176
     1
 62
   257
176
     1
 90
        1
176
     1
 90
        1
176
     1
 40
1.0
176
     1
 90
        8
176
     1
 62
   257
176
     1
 40
1.0
176
     1
 90
        1
176
     1
 90
        6
176
     1
 90
        2
176
     1
 62
     7
176
     1
 90
        3
176
     1
 90
        0
176
     1
 90
        0
176
     1
290
     0
176
     1
 90
       13
176
     1
 40
0.0
176
     1
 90
        0
176
     1
290
     0
176
     1
290
     1
176
     1
290
     1
176
     1
290
     0
176
     1
290
     0
176
     1
290
     0
176
     1
290
     0
176
     1
290
     0
176
     1
290
     0
176
     1
 90
       50
176
     1
 40
0.0
176
     1
 40
1.0
176
     1
 90
        0
176
     1
 62
    18
420
        0
176
     1
 90
       50
176
     1
 90
        3
176
     1
 62
     5
420
      255
176
     1
290
     0
176
     1
 90
       50
176
     1
 90
       50
176
     1
 90
       50
176
     1
290
     0
176
     1
 90
       50
176
     1
 62
   256
176
     0
 40
1.0
176
     0
 90
        2
176
     1
  1
strokes_ogs.tif
176
     1
290
     0
176
     1
 40
1.0
176
     1
 40
1.0
176
     1
1001
ACAD
1000
AcDbSavedByObjectVersion
1070
     0
  0
VISUALSTYLE
  5
3E
102
{ACAD_REACTORS
330
29
102
}
330
29
100
AcDbVisualStyle
  2
Shaded
 70
    27
177
     3
291
     0
 70
    58
 90
        2
176
     1
 90
        2
176
     1
 90
        1
176
     1
 90
        2
176
     1
 40
0.6
176
     1
 40
30.0
176
     1
 62
     7
420
 16777215
176
     1
 90
        0
176
     1
 90
        4
176
     1
 62
     7
176
     1
 62
   257
176
     1
 90
        1
176
     1
 90
        1
176
     1
 40
1.0
176
     1
 90
        8
176
     1
 62
   257
176
     1
 40
1.0
176
     1
 90
        1
176
     1
 90
        6
176
     1
 90
        2
176
     1
 62
     8
420
  7895160
176
     1
 90
        3
176
     1
 90
        0
176
     1
 90
        0
176
     1
290
     0
176
     1
 90
        5
176
     1
 40
0.0
176
     1
 90
        0
176
     1
290
     0
176
     1
290
     1
176
     1
290
     1
176
     1
290
     0
176
     1
290
     0
176
     1
290
     0
176
     1
290
     0
176
     1
290
     0
176
     1
290
     0
176
     1
 90
       50
176
     1
 40
0.0
176
     1
 40
1.0
176
     1
 90
        0
176
     1
 62
    18
420
        0
176
     1
 90
       50
176
     1
 90
        3
176
     1
 62
     5
420
      255
176
     1
290
     0
176
     1
 90
       50
176
     1
 90
       50
176
     1
 90
       50
176
     1
290
     0
176
     1
 90
       50
176
     1
 62
   256
176
     0
 40
1.0
176
     0
 90
        2
176
     1
  1
strokes_ogs.tif
176
     1
290
     0
176
     1
 40
1.0
176
     1
 40
1.0
176
     1
1001
ACAD
1000
AcDbSavedByObjectVersion
1070
     0
  0
VISUALSTYLE
  5
3D
102
{ACAD_REACTORS
330
29
102
}
330
29
100
AcDbVisualStyle
  2
Shaded with edges
 70
    26
177
     3
291
     0
 70
    58
 90
        2
176
     1
 90
        2
176
     1
 90
        1
176
     1
 90
        2
176
     1
 40
0.6
176
     1
 40
30.0
176
     1
 62
     7
420
 16777215
176
     1
 90
        1
176
     1
 90
        2
176
     1
 62
     7
176
     1
 62
   257
176
     1
 90
        2
176
     1
 90
        1
176
     1
 40
1.0
176
     1
 90
        8
176
     1
 62
   257
176
     1
 40
1.0
176
     1
 90
        1
176
     1
 90
        6
176
     1
 90
        2
176
     1
 62
     7
176
     1
 90
        3
176
     1
 90
        0
176
     1
 90
        0
176
     1
290
     0
176
     1
 90
        5
176
     1
 40
0.0
176
     1
 90
        0
176
     1
290
     0
176
     1
290
     1
176
     1
290
     1
176
     1
290
     0
176
     1
290
     0
176
     1
290
     0
176
     1
290
     0
176
     1
290
     0
176
     1
290
     0
176
     1
 90
       50
176
     1
 40
0.0
176
     1
 40
1.0
176
     1
 90
        0
176
     1
 62
    18
420
        0
176
     1
 90
       50
176
     1
 90
        3
176
     1
 62
     5
420
      255
176
     1
290
     0
176
     1
 90
       50
176
     1
 90
       50
176
     1
 90
       50
176
     1
290
     0
176
     1
 90
       50
176
     1
 62
   256
176
     0
 40
1.0
176
     0
 90
        2
176
     1
  1
strokes_ogs.tif
176
     1
290
     0
176
     1
 40
1.0
176
     1
 40
1.0
176
     1
1001
ACAD
1000
AcDbSavedByObjectVersion
1070
     0
  0
VISUALSTYLE
  5
3A
102
{ACAD_REACTORS
330
29
102
}
330
29
100
AcDbVisualStyle
  2
Shades of Gray
 70
    23
177
     3
291
     0
 70
    58
 90
        2
176
     1
 90
        2
176
     1
 90
        3
176
     1
 90
        0
176
     1
 40
0.6
176
     1
 40
30.0
176
     1
 62
     7
420
 16777215
176
     1
 90
        2
176
     1
 90
        2
176
     1
 62
     7
176
     1
 62
     7
176
     1
 90
        1
176
     1
 90
        1
176
     1
 40
40.0
176
     1
 90
        8
176
     1
 62
     7
176
     1
 40
1.0
176
     1
 90
        1
176
     1
 90
        6
176
     1
 90
        2
176
     1
 62
     7
176
     1
 90
        3
176
     1
 90
        0
176
     1
 90
        0
176
     1
290
     0
176
     1
 90
        1
176
     1
 40
0.0
176
     1
 90
        0
176
     1
290
     0
176
     1
290
     1
176
     1
290
     1
176
     1
290
     0
176
     1
290
     0
176
     1
290
     0
176
     1
290
     0
176
     1
290
     0
176
     1
290
     0
176
     1
 90
       50
176
     1
 40
0.0
176
     1
 40
1.0
176
     1
 90
        0
176
     1
 62
    18
420
        0
176
     1
 90
       50
176
     1
 90
        3
176
     1
 62
     5
420
      255
176
     1
290
     0
176
     1
 90
       50
176
     1
 90
       50
176
     1
 90
       50
176
     1
290
     0
176
     1
 90
       50
176
     1
 62
   256
176
     0
 40
1.0
176
     0
 90
        2
176
     1
  1
strokes_ogs.tif
176
     1
290
     0
176
     1
 40
1.0
176
     1
 40
1.0
176
     1
1001
ACAD
1000
AcDbSavedByObjectVersion
1070
     0
  0
VISUALSTYLE
  5
3B
102
{ACAD_REACTORS
330
29
102
}
330
29
100
AcDbVisualStyle
  2
Sketchy
 70
    24
177
     3
291
     0
 70
    58
 90
        1
176
     1
 90
        2
176
     1
 90
        2
176
     1
 90
        0
176
     1
 40
0.6
176
     1
 40
30.0
176
     1
 62
     7
420
 16777215
176
     1
 90
        2
176
     1
 90
        2
176
     1
 62
     7
176
     1
 62
     7
176
     1
 90
        1
176
     1
 90
        1
176
     1
 40
40.0
176
     1
 90
       11
176
     1
 62
     7
176
     1
 40
1.0
176
     1
 90
        1
176
     1
 90
        6
176
     1
 90
        2
176
     1
 62
     7
176
     1
 90
        6
176
     1
 90
        0
176
     1
 90
        0
176
     1
290
     0
176
     1
 90
        1
176
     1
 40
0.0
176
     1
 90
        0
176
     1
290
     0
176
     1
290
     1
176
     1
290
     1
176
     1
290
     0
176
     1
290
     0
176
     1
290
     0
176
     1
290
     0
176
     1
290
     0
176
     1
290
     0
176
     1
 90
       50
176
     1
 40
0.0
176
     1
 40
1.0
176
     1
 90
        0
176
     1
 62
    18
420
        0
176
     1
 90
       50
176
     1
 90
        3
176
     1
 62
     5
420
      255
176
     1
290
     0
176
     1
 90
       50
176
     1
 90
       50
176
     1
 90
       50
176
     1
290
     0
176
     1
 90
       50
176
     1
 62
   256
176
     0
 40
1.0
176
     0
 90
        2
176
     1
  1
strokes_ogs.tif
176
     1
290
     0
176
     1
 40
1.0
176
     1
 40
1.0
176
     1
1001
ACAD
1000
AcDbSavedByObjectVersion
1070
     0
  0
VISUALSTYLE
  5
36
102
{ACAD_REACTORS
330
29
102
}
330
29
100
AcDbVisualStyle
  2
Thicken
 70
    13
177
     3
291
     1
 70
    58
 90
        2
176
     1
 90
        2
176
     1
 90
        0
176
     1
 90
        0
176
     1
 40
0.6
176
     1
 40
30.0
176
     1
 62
     7
420
 16777215
176
     1
 90
        1
176
     1
 90
        4
176
     1
 62
     7
176
     1
 62
   257
176
     1
 90
        1
176
     1
 90
        1
176
     1
 40
1.0
176
     1
 90
       12
176
     1
 62
     7
176
     1
 40
1.0
176
     1
 90
        1
176
     1
 90
        6
176
     1
 90
        2
176
     1
 62
     7
176
     1
 90
        5
176
     1
 90
        0
176
     1
 90
        0
176
     1
290
     0
176
     1
 90
        1
176
     1
 40
0.0
176
     1
 90
        0
176
     1
290
     0
176
     1
290
     1
176
     1
290
     1
176
     1
290
     0
176
     1
290
     0
176
     1
290
     0
176
     1
290
     0
176
     1
290
     0
176
     1
290
     0
176
     1
 90
       50
176
     1
 40
0.0
176
     1
 40
1.0
176
     1
 90
        0
176
     1
 62
    18
420
        0
176
     1
 90
       50
176
     1
 90
        3
176
     1
 62
     5
420
      255
176
     1
290
     0
176
     1
 90
       50
176
     1
 90
       50
176
     1
 90
       50
176
     1
290
     0
176
     1
 90
       50
176
     1
 62
   256
176
     0
 40
1.0
176
     0
 90
        2
176
     1
  1
strokes_ogs.tif
176
     1
290
     0
176
     1
 40
1.0
176
     1
 40
1.0
176
     1
1001
ACAD
1000
AcDbSavedByObjectVersion
1070
     0
  0
VISUALSTYLE
  5
30
102
{ACAD_REACTORS
330
29
102
}
330
29
100
AcDbVisualStyle
  2
Wireframe
 70
     5
177
     3
291
     0
 70
    58
 90
        0
176
     1
 90
        2
176
     1
 90
        0
176
     1
 90
        0
176
     1
 40
0.6
176
     1
 40
30.0
176
     1
 62
     7
420
 16777215
176
     1
 90
        1
176
     1
 90
        4
176
     1
 62
     7
176
     1
 62
   257
176
     1
 90
        1
176
     1
 90
        1
176
     1
 40
1.0
176
     1
 90
        0
176
     1
 62
   257
176
     1
 40
1.0
176
     1
 90
        1
176
     1
 90
        6
176
     1
 90
        2
176
     1
 62
     7
176
     1
 90
        3
176
     1
 90
        0
176
     1
 90
        0
176
     1
290
     0
176
     1
 90
        1
176
     1
 40
0.0
176
     1
 90
        0
176
     1
290
     0
176
     1
290
     1
176
     1
290
     1
176
     1
290
     0
176
     1
290
     0
176
     1
290
     0
176
     1
290
     0
176
     1
290
     0
176
     1
290
     0
176
     1
 90
       50
176
     1
 40
0.0
176
     1
 40
1.0
176
     1
 90
        0
176
     1
 62
    18
420
        0
176
     1
 90
       50
176
     1
 90
        3
176
     1
 62
     5
420
      255
176
     1
290
     0
176
     1
 90
       50
176
     1
 90
       50
176
     1
 90
       50
176
     1
290
     0
176
     1
 90
       50
176
     1
 62
   256
176
     0
 40
1.0
176
     0
 90
        2
176
     1
  1
strokes_ogs.tif
176
     1
290
     0
176
     1
 40
1.0
176
     1
 40
1.0
176
     1
1001
ACAD
1000
AcDbSavedByObjectVersion
1070
     0
  0
VISUALSTYLE
  5
3C
102
{ACAD_REACTORS
330
29
102
}
330
29
100
AcDbVisualStyle
  2
X-Ray
 70
    25
177
     3
291
     0
 70
    58
 90
        2
176
     1
 90
        2
176
     1
 90
        1
176
     1
 90
        1
176
     1
 40
0.5
176
     1
 40
30.0
176
     1
 62
     7
420
 16777215
176
     1
 90
        1
176
     1
 90
        0
176
     1
 62
     7
176
     1
 62
   257
176
     1
 90
        1
176
     1
 90
        1
176
     1
 40
1.0
176
     1
 90
        8
176
     1
 62
     7
176
     1
 40
1.0
176
     1
 90
        1
176
     1
 90
        6
176
     1
 90
        2
176
     1
 62
     7
176
     1
 90
        3
176
     1
 90
        0
176
     1
 90
        0
176
     1
290
     0
176
     1
 90
       13
176
     1
 40
0.0
176
     1
 90
        0
176
     1
290
     0
176
     1
290
     1
176
     1
290
     1
176
     1
290
     0
176
     1
290
     0
176
     1
290
     0
176
     1
290
     0
176
     1
290
     0
176
     1
290
     0
176
     1
 90
       50
176
     1
 40
0.0
176
     1
 40
1.0
176
     1
 90
        0
176
     1
 62
    18
420
        0
176
     1
 90
       50
176
     1
 90
        3
176
     1
 62
     5
420
      255
176
     1
290
     0
176
     1
 90
       50
176
     1
 90
       50
176
     1
 90
       50
176
     1
290
     0
176
     1
 90
       50
176
     1
 62
   256
176
     0
 40
1.0
176
     0
 90
        2
176
     1
  1
strokes_ogs.tif
176
     1
290
     0
176
     1
 40
1.0
176
     1
 40
1.0
176
     1
1001
ACAD
1000
AcDbSavedByObjectVersion
1070
     0
  0
DICTIONARYVAR
  5
1613
102
{ACAD_REACTORS
330
160D
102
}
330
160D
100
DictionaryVariables
280
     0
  1
1:1
  0
DICTIONARYVAR
  5
160F
102
{ACAD_REACTORS
330
160D
102
}
330
160D
100
DictionaryVariables
280
     0
  1
STANDARD
  0
DICTIONARYVAR
  5
160E
102
{ACAD_REACTORS
330
160D
102
}
330
160D
100
DictionaryVariables
280
     0
  1
STANDARD
  0
DICTIONARYVAR
  5
1610
102
{ACAD_REACTORS
330
160D
102
}
330
160D
100
DictionaryVariables
280
     0
  1
Imperial24
  0
DICTIONARYVAR
  5
1611
102
{ACAD_REACTORS
330
160D
102
}
330
160D
100
DictionaryVariables
280
     0
  1
Imperial24
  0
DICTIONARYVAR
  5
1615
102
{ACAD_REACTORS
330
160D
102
}
330
160D
100
DictionaryVariables
280
     0
  1
1
  0
DICTIONARYVAR
  5
1616
102
{ACAD_REACTORS
330
160D
102
}
330
160D
100
DictionaryVariables
280
     0
  1
15
  0
DICTIONARYVAR
  5
1614
102
{ACAD_REACTORS
330
160D
102
}
330
160D
100
DictionaryVariables
280
     0
  1
0
  0
DICTIONARYVAR
  5
1612
102
{ACAD_REACTORS
330
160D
102
}
330
160D
100
DictionaryVariables
280
     0
  1
0
  0
DICTIONARY
  5
1621
102
{ACAD_REACTORS
330
161F
102
}
330
161F
100
AcDbDictionary
281
     1
  0
DICTIONARY
  5
1620
102
{ACAD_REACTORS
330
161F
102
}
330
161F
100
AcDbDictionary
281
     1
  3
2293710530848
350
161A
  3
2293710530864
350
161B
  3
2293710530880
350
161C
  3
2293710530896
350
161D
  3
2293710530912
350
161E
  0
DICTIONARY
  5
1624
330
6A
100
AcDbDictionary
280
     1
281
     1
  3
ACAD_XREC_ROUNDTRIP
360
1625
  0
DICTIONARY
  5
1A
330
19
100
AcDbDictionary
280
     1
281
     1
  3
BUMPTILE
360
1C
  3
DIFFUSETILE
360
1B
  3
OPACITYTILE
360
1F
  3
REFLECTIONTILE
360
1E
  3
REFRACTIONTILE
360
20
  3
SPECULARTILE
360
1D
  0
DICTIONARY
  5
12
330
11
100
AcDbDictionary
280
     1
281
     1
  3
BUMPTILE
360
14
  3
DIFFUSETILE
360
13
  3
OPACITYTILE
360
17
  3
REFLECTIONTILE
360
16
  3
REFRACTIONTILE
360
18
  3
SPECULARTILE
360
15
  0
DICTIONARY
  5
22
330
21
100
AcDbDictionary
280
     1
281
     1
  3
BUMPTILE
360
24
  3
DIFFUSETILE
360
23
  3
OPACITYTILE
360
27
  3
REFLECTIONTILE
360
26
  3
REFRACTIONTILE
360
28
  3
SPECULARTILE
360
25
  0
XRECORD
  5
1629
102
{ACAD_REACTORS
330
1627
102
}
330
1627
100
AcDbXrecord
280
     1
102
ACAD_MENTALRAY_SETTING_RT
330
154A
 70
     1
  0
XRECORD
  5
1628
102
{ACAD_REACTORS
330
1627
102
}
330
1627
100
AcDbXrecord
280
     1
 70
     2
 71
     3
 72
     0
  0
DICTIONARY
  5
1622
330
68
100
AcDbDictionary
280
     1
281
     1
  3
ACAD_XREC_ROUNDTRIP
360
1623
  0
DICTIONARY
  5
1617
330
64
100
AcDbDictionary
280
     1
281
     1
  3
ACAD_ROUNDTRIP_2008_TABLESTYLE_CELLSTYLEMAP
360
1618
  0
XRECORD
  5
161A
102
{ACAD_REACTORS
330
1620
102
}
330
1620
100
AcDbXrecord
280
     1
  1
AcDb_Thumbnail_Schema
102
{ATTRRECORD
341
161B
  2
AcDbDs::TreatedAsObjectData
280
     1
291
     1
102
ATTRRECORD}
102
{ATTRRECORD
341
161C
  2
AcDbDs::Legacy
280
     1
291
     1
102
ATTRRECORD}
  2
AcDbDs::ID
280
    10
 91
        8
102
{ATTRRECORD
341
161D
  2
AcDs:Indexable
280
     1
291
     1
102
ATTRRECORD}
102
{ATTRRECORD
341
161E
  2
AcDbDs::HandleAttribute
280
     7
282
     1
102
ATTRRECORD}
  2
Thumbnail_Data
280
    15
 91
        0
  0
XRECORD
  5
161B
102
{ACAD_REACTORS
330
1620
102
}
330
1620
100
AcDbXrecord
280
     1
  1
AcDbDs::TreatedAsObjectDataSchema
  2
AcDbDs::TreatedAsObjectData
280
     1
 91
        0
  0
XRECORD
  5
161C
102
{ACAD_REACTORS
330
1620
102
}
330
1620
100
AcDbXrecord
280
     1
  1
AcDbDs::LegacySchema
  2
AcDbDs::Legacy
280
     1
 91
        0
  0
XRECORD
  5
161D
102
{ACAD_REACTORS
330
1620
102
}
330
1620
100
AcDbXrecord
280
     1
  1
AcDbDs::IndexedPropertySchema
  2
AcDs:Indexable
280
     1
 91
        0
  0
XRECORD
  5
161E
102
{ACAD_REACTORS
330
1620
102
}
330
1620
100
AcDbXrecord
280
     1
  1
AcDbDs::HandleAttributeSchema
  2
AcDbDs::HandleAttribute
280
     7
 91
        1
284
     1
  0
XRECORD
  5
1625
102
{ACAD_REACTORS
330
1624
102
}
330
1624
100
AcDbXrecord
280
     1
102
DISPLAYNAME
  1
Imperial24
102
FLAGS
 90
        0
  0
XRECORD
  5
1C
102
{ACAD_REACTORS
330
1A
102
}
330
1A
100
AcDbXrecord
280
     1
270
     1
271
     1
  0
XRECORD
  5
1B
102
{ACAD_REACTORS
330
1A
102
}
330
1A
100
AcDbXrecord
280
     1
270
     1
271
     1
  0
XRECORD
  5
1F
102
{ACAD_REACTORS
330
1A
102
}
330
1A
100
AcDbXrecord
280
     1
270
     1
271
     1
  0
XRECORD
  5
1E
102
{ACAD_REACTORS
330
1A
102
}
330
1A
100
AcDbXrecord
280
     1
270
     1
271
     1
  0
XRECORD
  5
20
102
{ACAD_REACTORS
330
1A
102
}
330
1A
100
AcDbXrecord
280
     1
270
     1
271
     1
  0
XRECORD
  5
1D
102
{ACAD_REACTORS
330
1A
102
}
330
1A
100
AcDbXrecord
280
     1
270
     1
271
     1
  0
XRECORD
  5
14
102
{ACAD_REACTORS
330
12
102
}
330
12
100
AcDbXrecord
280
     1
270
     1
271
     1
  0
XRECORD
  5
13
102
{ACAD_REACTORS
330
12
102
}
330
12
100
AcDbXrecord
280
     1
270
     1
271
     1
  0
XRECORD
  5
17
102
{ACAD_REACTORS
330
12
102
}
330
12
100
AcDbXrecord
280
     1
270
     1
271
     1
  0
XRECORD
  5
16
102
{ACAD_REACTORS
330
12
102
}
330
12
100
AcDbXrecord
280
     1
270
     1
271
     1
  0
XRECORD
  5
18
102
{ACAD_REACTORS
330
12
102
}
330
12
100
AcDbXrecord
280
     1
270
     1
271
     1
  0
XRECORD
  5
15
102
{ACAD_REACTORS
330
12
102
}
330
12
100
AcDbXrecord
280
     1
270
     1
271
     1
  0
XRECORD
  5
24
102
{ACAD_REACTORS
330
22
102
}
330
22
100
AcDbXrecord
280
     1
270
     1
271
     1
  0
XRECORD
  5
23
102
{ACAD_REACTORS
330
22
102
}
330
22
100
AcDbXrecord
280
     1
270
     1
271
     1
  0
XRECORD
  5
27
102
{ACAD_REACTORS
330
22
102
}
330
22
100
AcDbXrecord
280
     1
270
     1
271
     1
  0
XRECORD
  5
26
102
{ACAD_REACTORS
330
22
102
}
330
22
100
AcDbXrecord
280
     1
270
     1
271
     1
  0
XRECORD
  5
28
102
{ACAD_REACTORS
330
22
102
}
330
22
100
AcDbXrecord
280
     1
270
     1
271
     1
  0
XRECORD
  5
25
102
{ACAD_REACTORS
330
22
102
}
330
22
100
AcDbXrecord
280
     1
270
     1
271
     1
  0
XRECORD
  5
1623
102
{ACAD_REACTORS
330
1622
102
}
330
1622
100
AcDbXrecord
280
     1
102
DISPLAYNAME
  1
Imperial24
102
FLAGS
 90
        0
  0
CELLSTYLEMAP
  5
1618
102
{ACAD_REACTORS
330
1617
102
}
330
1617
100
AcDbCellStyleMap
 90
        3
300
CELLSTYLE
  1
TABLEFORMAT_BEGIN
 90
        5
170
     1
 91
        0
 92
    32768
 62
   257
 93
        1
300
CONTENTFORMAT
  1
CONTENTFORMAT_BEGIN
 90
        0
 91
        0
 92
      512
 93
        0
300

 40
0.0
140
1.0
 94
        5
 62
     0
340
55
144
0.25
309
CONTENTFORMAT_END
171
     0
 94
        0
309
TABLEFORMAT_END
  1
CELLSTYLE_BEGIN
 90
        1
 91
        1
300
_TITLE
309
CELLSTYLE_END
300
CELLSTYLE
  1
TABLEFORMAT_BEGIN
 90
        5
170
     1
 91
        0
 92
        0
 62
   257
 93
        1
300
CONTENTFORMAT
  1
CONTENTFORMAT_BEGIN
 90
        0
 91
        0
 92
      512
 93
        0
300

 40
0.0
140
1.0
 94
        5
 62
     0
340
55
144
0.18
309
CONTENTFORMAT_END
171
     0
 94
        0
309
TABLEFORMAT_END
  1
CELLSTYLE_BEGIN
 90
        2
 91
        1
300
_HEADER
309
CELLSTYLE_END
300
CELLSTYLE
  1
TABLEFORMAT_BEGIN
 90
        5
170
     1
 91
        0
 92
        0
 62
   257
 93
        1
300
CONTENTFORMAT
  1
CONTENTFORMAT_BEGIN
 90
        0
 91
        0
 92
      512
 93
        0
300

 40
0.0
140
1.0
 94
        2
 62
     0
340
55
144
0.18
309
CONTENTFORMAT_END
171
     0
 94
        0
309
TABLEFORMAT_END
  1
CELLSTYLE_BEGIN
 90
        3
 91
        2
300
_DATA
309
CELLSTYLE_END
  0
ENDSEC
  0
SECTION
  2
ACDSDATA
 70
     2
 71
     8
  0
ACDSSCHEMA
 90
        0
  1
AcDb_Thumbnail_Schema
  2
AcDbDs::ID
280
    10
 91
        8
  2
Thumbnail_Data
280
    15
 91
        0
101
ACDSRECORD
 95
        0
 90
        1
  2
AcDbDs::TreatedAsObjectData
280
     1
291
     1
101
ACDSRECORD
 95
        0
 90
        2
  2
AcDbDs::Legacy
280
     1
291
     1
101
ACDSRECORD
  1
AcDbDs::ID
 90
        3
  2
AcDs:Indexable
280
     1
291
     1
101
ACDSRECORD
  1
AcDbDs::ID
 90
        4
  2
AcDbDs::HandleAttribute
280
     7
282
     1
  0
ACDSSCHEMA
 90
        1
  1
AcDbDs::TreatedAsObjectDataSchema
  2
AcDbDs::TreatedAsObjectData
280
     1
 91
        0
  0
ACDSSCHEMA
 90
        2
  1
AcDbDs::LegacySchema
  2
AcDbDs::Legacy
280
     1
 91
        0
  0
ACDSSCHEMA
 90
        3
  1
AcDbDs::IndexedPropertySchema
  2
AcDs:Indexable
280
     1
 91
        0
  0
ACDSSCHEMA
 90
        4
  1
AcDbDs::HandleAttributeSchema
  2
AcDbDs::HandleAttribute
280
     7
 91
        1
284
     1
  0
ACDSRECORD
 90
        0
  2
AcDbDs::ID
280
    10
320
72
  2
Thumbnail_Data
280
    15
 94
     1363
310
89504E470D0A1A0A0000000D49484452000001000000005F08030000003003E9C200000300504C5445D6D6D6FFFFFFD6D6D60000000000000000000000000000000000000000000000000000330000660000990000CC0000FF0033000033330033660033990033CC0033FF0066000066330066660066990066CC0066FF0099
310
000099330099660099990099CC0099FF00CC0000CC3300CC6600CC9900CCCC00CCFF00FF0000FF3300FF6600FF9900FFCC00FFFF3300003300333300663300993300CC3300FF3333003333333333663333993333CC3333FF3366003366333366663366993366CC3366FF3399003399333399663399993399CC3399FF33CC00
310
33CC3333CC6633CC9933CCCC33CCFF33FF0033FF3333FF6633FF9933FFCC33FFFF6600006600336600666600996600CC6600FF6633006633336633666633996633CC6633FF6666006666336666666666996666CC6666FF6699006699336699666699996699CC6699FF66CC0066CC3366CC6666CC9966CCCC66CCFF66FF0066
310
FF3366FF6666FF9966FFCC66FFFF9900009900339900669900999900CC9900FF9933009933339933669933999933CC9933FF9966009966339966669966999966CC9966FF9999009999339999669999999999CC9999FF99CC0099CC3399CC6699CC9999CCCC99CCFF99FF0099FF3399FF6699FF9999FFCC99FFFFCC0000CC00
310
33CC0066CC0099CC00CCCC00FFCC3300CC3333CC3366CC3399CC33CCCC33FFCC6600CC6633CC6666CC6699CC66CCCC66FFCC9900CC9933CC9966CC9999CC99CCCC99FFCCCC00CCCC33CCCC66CCCC99CCCCCCCCCCFFCCFF00CCFF33CCFF66CCFF99CCFFCCCCFFFFFF0000FF0033FF0066FF0099FF00CCFF00FFFF3300FF3333
310
FF3366FF3399FF33CCFF33FFFF6600FF6633FF6666FF6699FF66CCFF66FFFF9900FF9933FF9966FF9999FF99CCFF99FFFFCC00FFCC33FFCC66FFCC99FFCCCCFFCCFFFFFF00FFFF33FFFF66FFFF99FFFFCCFFFFFF0000000D0D0D1A1A1A2828283535354343435050505D5D5D6B6B6B787878868686939393A1A1A1AEAEAEBB
310
BBBBC9C9C9D6D6D6E4E4E4F1F1F1FFFFFF0000000000000000000000000000000000000000000000000000000000008A60A2FA0000020E4944415478DAED5B5B8E03210CE3FEC7F449AA2D13488099859F56756C5555B7EA7EC4499C074C29822008822008822008DF0280ECF623B5F1A9CDFF7B7BBF72DA3F7D486B7F962C
310
08F98E042A080C6AE7250FBE0A82D7E3DD6A5453EBE7E875CE08682676A7BFBFC2657E4C07C2345858540968C4F89F32A6C1CC403574CD4CE586BBCBB7C667DDFF83300DCE08A02C8798FA806AE44DF3C3A884A1FA5B21BCADFD9C39D0DD6D5A771BED7C2A10E7BD1E0FB70410F644DEDD9D80FDEE816B24A819310F40F637
310
A70C0EED4E193AE1AB2C908E8653F8E38E0070EA8027C09AFE450D7413025908F81EC01CFF34F9F0A5C0656E6D7D6C1D70344432B5831BFE65DD0F6E4FBC7C1280D802E522C0AA9ED9BE45001B03BDBA212101ADFC6F1F035237C3C73B14A2A138330167414DA501588C3DE90838B5C726C6A412684B13AE30F8DC7FFD480D
310
D88A0A62021E85C17A66E60878280CFF1C1B903080706720FCE2E9D488450511B6A365D810D9D840B90C090372A32224FC7893882809BAB8B5A06F3BD27878487B7B74EE70FA263C1C1F1652D862A0A704DC6D090C5F9252609BE14BE8FD7591FDBDF1AFA700DCD92886F24F7D713812504602D687A674C510E66EAF83BE40
310
B0DBDFC3A0E700B686048A0C70B2DF09A0BF34BCB02F5C1ACFF3BC8497386471FA38EA836EDD71381124F4FBB214647E5432F973A282200882200882200882200882200882207C092FF7249D4B364ADA030000000049454E44AE426082
  0
ENDSEC
  0
EOF
