  0
SECTION
  2
HEADER
  9
$ACADVER
  1
AC1027
  9
$ACADMAINTVER
 70
   125
  9
$DWGCODEPAGE
  3
ANSI_1252
  9
$LASTSAVEDBY
  1
Lebatard
  9
$REQUIREDVERSIONS
160
                 0
  9
$INSBASE
 10
0.0
 20
0.0
 30
0.0
  9
$EXTMIN
 10
-1077.26091217086
 20
35.85216799999961
 30
0.0
  9
$EXTMAX
 10
1461.818892991989
 20
4535.852167999997
 30
0.0
  9
$LIMMIN
 10
0.0
 20
0.0
  9
$LIMMAX
 10
12.0
 20
9.0
  9
$ORTHOMODE
 70
     0
  9
$REGENMODE
 70
     1
  9
$FILLMODE
 70
     1
  9
$QTEXTMODE
 70
     0
  9
$MIRRTEXT
 70
     0
  9
$LTSCALE
 40
1.0
  9
$ATTMODE
 70
     1
  9
$TEXTSIZE
 40
0.2
  9
$TRACEWID
 40
0.05
  9
$TEXTSTYLE
  7
Standard
  9
$CLAYER
  8
0
  9
$CELTYPE
  6
Continuous
  9
$CECOLOR
 62
   256
  9
$CELTSCALE
 40
1.0
  9
$DISPSILH
 70
     0
  9
$DIMSCALE
 40
1.0
  9
$DIMASZ
 40
0.18
  9
$DIMEXO
 40
0.0625
  9
$DIMDLI
 40
0.38
  9
$DIMRND
 40
0.0
  9
$DIMDLE
 40
0.0
  9
$DIMEXE
 40
0.18
  9
$DIMTP
 40
0.0
  9
$DIMTM
 40
0.0
  9
$DIMTXT
 40
0.18
  9
$DIMCEN
 40
0.09
  9
$DIMTSZ
 40
0.0
  9
$DIMTOL
 70
     0
  9
$DIMLIM
 70
     0
  9
$DIMTIH
 70
     1
  9
$DIMTOH
 70
     1
  9
$DIMSE1
 70
     0
  9
$DIMSE2
 70
     0
  9
$DIMTAD
 70
     0
  9
$DIMZIN
 70
     0
  9
$DIMBLK
  1

  9
$DIMASO
 70
     1
  9
$DIMSHO
 70
     1
  9
$DIMPOST
  1

  9
$DIMAPOST
  1

  9
$DIMALT
 70
     0
  9
$DIMALTD
 70
     2
  9
$DIMALTF
 40
25.4
  9
$DIMLFAC
 40
1.0
  9
$DIMTOFL
 70
     0
  9
$DIMTVP
 40
0.0
  9
$DIMTIX
 70
     0
  9
$DIMSOXD
 70
     0
  9
$DIMSAH
 70
     0
  9
$DIMBLK1
  1

  9
$DIMBLK2
  1

  9
$DIMSTYLE
  2
Standard
  9
$DIMCLRD
 70
     0
  9
$DIMCLRE
 70
     0
  9
$DIMCLRT
 70
     0
  9
$DIMTFAC
 40
1.0
  9
$DIMGAP
 40
0.09
  9
$DIMJUST
 70
     0
  9
$DIMSD1
 70
     0
  9
$DIMSD2
 70
     0
  9
$DIMTOLJ
 70
     1
  9
$DIMTZIN
 70
     0
  9
$DIMALTZ
 70
     0
  9
$DIMALTTZ
 70
     0
  9
$DIMUPT
 70
     0
  9
$DIMDEC
 70
     4
  9
$DIMTDEC
 70
     4
  9
$DIMALTU
 70
     2
  9
$DIMALTTD
 70
     2
  9
$DIMTXSTY
  7
Standard
  9
$DIMAUNIT
 70
     0
  9
$DIMADEC
 70
     0
  9
$DIMALTRND
 40
0.0
  9
$DIMAZIN
 70
     0
  9
$DIMDSEP
 70
    46
  9
$DIMATFIT
 70
     3
  9
$DIMFRAC
 70
     0
  9
$DIMLDRBLK
  1

  9
$DIMLUNIT
 70
     2
  9
$DIMLWD
 70
    -2
  9
$DIMLWE
 70
    -2
  9
$DIMTMOVE
 70
     0
  9
$DIMFXL
 40
1.0
  9
$DIMFXLON
 70
     0
  9
$DIMJOGANG
 40
0.7853981633974483
  9
$DIMTFILL
 70
     0
  9
$DIMTFILLCLR
 70
     0
  9
$DIMARCSYM
 70
     0
  9
$DIMLTYPE
  6

  9
$DIMLTEX1
  6

  9
$DIMLTEX2
  6

  9
$DIMTXTDIRECTION
 70
     0
  9
$LUNITS
 70
     2
  9
$LUPREC
 70
     4
  9
$SKETCHINC
 40
0.1
  9
$FILLETRAD
 40
0.0
  9
$AUNITS
 70
     0
  9
$AUPREC
 70
     0
  9
$MENU
  1
.
  9
$ELEVATION
 40
0.0
  9
$PELEVATION
 40
0.0
  9
$THICKNESS
 40
0.0
  9
$LIMCHECK
 70
     0
  9
$CHAMFERA
 40
0.0
  9
$CHAMFERB
 40
0.0
  9
$CHAMFERC
 40
0.0
  9
$CHAMFERD
 40
0.0
  9
$SKPOLY
 70
     0
  9
$TDCREATE
 40
2460984.337361111
  9
$TDUCREATE
 40
2460984.295694444
  9
$TDUPDATE
 40
2460984.363680556
  9
$TDUUPDATE
 40
2460984.322013889
  9
$TDINDWG
 40
0.0098611111
  9
$TDUSRTIMER
 40
0.0098611111
  9
$USRTIMER
 70
     1
  9
$ANGBASE
 50
0.0
  9
$ANGDIR
 70
     0
  9
$PDMODE
 70
     0
  9
$PDSIZE
 40
0.0
  9
$PLINEWID
 40
0.0
  9
$SPLFRAME
 70
     0
  9
$SPLINETYPE
 70
     6
  9
$SPLINESEGS
 70
     8
  9
$HANDSEED
  5
D04
  9
$SURFTAB1
 70
     6
  9
$SURFTAB2
 70
     6
  9
$SURFTYPE
 70
     6
  9
$SURFU
 70
     6
  9
$SURFV
 70
     6
  9
$UCSBASE
  2

  9
$UCSNAME
  2

  9
$UCSORG
 10
0.0
 20
0.0
 30
0.0
  9
$UCSXDIR
 10
1.0
 20
0.0
 30
0.0
  9
$UCSYDIR
 10
0.0
 20
1.0
 30
0.0
  9
$UCSORTHOREF
  2

  9
$UCSORTHOVIEW
 70
     0
  9
$UCSORGTOP
 10
0.0
 20
0.0
 30
0.0
  9
$UCSORGBOTTOM
 10
0.0
 20
0.0
 30
0.0
  9
$UCSORGLEFT
 10
0.0
 20
0.0
 30
0.0
  9
$UCSORGRIGHT
 10
0.0
 20
0.0
 30
0.0
  9
$UCSORGFRONT
 10
0.0
 20
0.0
 30
0.0
  9
$UCSORGBACK
 10
0.0
 20
0.0
 30
0.0
  9
$PUCSBASE
  2

  9
$PUCSNAME
  2

  9
$PUCSORG
 10
0.0
 20
0.0
 30
0.0
  9
$PUCSXDIR
 10
1.0
 20
0.0
 30
0.0
  9
$PUCSYDIR
 10
0.0
 20
1.0
 30
0.0
  9
$PUCSORTHOREF
  2

  9
$PUCSORTHOVIEW
 70
     0
  9
$PUCSORGTOP
 10
0.0
 20
0.0
 30
0.0
  9
$PUCSORGBOTTOM
 10
0.0
 20
0.0
 30
0.0
  9
$PUCSORGLEFT
 10
0.0
 20
0.0
 30
0.0
  9
$PUCSORGRIGHT
 10
0.0
 20
0.0
 30
0.0
  9
$PUCSORGFRONT
 10
0.0
 20
0.0
 30
0.0
  9
$PUCSORGBACK
 10
0.0
 20
0.0
 30
0.0
  9
$USERI1
 70
     0
  9
$USERI2
 70
     0
  9
$USERI3
 70
     0
  9
$USERI4
 70
     0
  9
$USERI5
 70
     0
  9
$USERR1
 40
0.0
  9
$USERR2
 40
0.0
  9
$USERR3
 40
0.0
  9
$USERR4
 40
0.0
  9
$USERR5
 40
0.0
  9
$WORLDVIEW
 70
     1
  9
$SHADEDGE
 70
     3
  9
$SHADEDIF
 70
    70
  9
$TILEMODE
 70
     1
  9
$MAXACTVP
 70
    64
  9
$PINSBASE
 10
0.0
 20
0.0
 30
0.0
  9
$PLIMCHECK
 70
     0
  9
$PEXTMIN
 10
1.000000000000000E+20
 20
1.000000000000000E+20
 30
1.000000000000000E+20
  9
$PEXTMAX
 10
-1.000000000000000E+20
 20
-1.000000000000000E+20
 30
-1.000000000000000E+20
  9
$PLIMMIN
 10
0.0
 20
0.0
  9
$PLIMMAX
 10
12.0
 20
9.0
  9
$UNITMODE
 70
     0
  9
$VISRETAIN
 70
     1
  9
$PLINEGEN
 70
     0
  9
$PSLTSCALE
 70
     1
  9
$TREEDEPTH
 70
  3020
  9
$CMLSTYLE
  2
Standard
  9
$CMLJUST
 70
     0
  9
$CMLSCALE
 40
1.0
  9
$PROXYGRAPHICS
 70
     1
  9
$MEASUREMENT
 70
     0
  9
$CELWEIGHT
370
    -1
  9
$ENDCAPS
280
     0
  9
$JOINSTYLE
280
     0
  9
$LWDISPLAY
290
     0
  9
$INSUNITS
 70
     0
  9
$HYPERLINKBASE
  1

  9
$STYLESHEET
  1

  9
$XEDIT
290
     1
  9
$CEPSNTYPE
380
     0
  9
$PSTYLEMODE
290
     1
  9
$FINGERPRINTGUID
  2
{E5CC2A15-10F4-A54B-B7B0-12EBCFF3A2BB}
  9
$VERSIONGUID
  2
{53994456-E88E-F24E-A710-9CC85FA317EF}
  9
$EXTNAMES
290
     1
  9
$PSVPSCALE
 40
0.0
  9
$OLESTARTUP
290
     0
  9
$SORTENTS
280
   127
  9
$INDEXCTL
280
     0
  9
$HIDETEXT
280
     0
  9
$XCLIPFRAME
280
     2
  9
$HALOGAP
280
     0
  9
$OBSCOLOR
 70
   257
  9
$OBSLTYPE
280
     0
  9
$INTERSECTIONDISPLAY
280
     0
  9
$INTERSECTIONCOLOR
 70
   257
  9
$DIMASSOC
280
     1
  9
$PROJECTNAME
  1

  9
$CAMERADISPLAY
290
     0
  9
$LENSLENGTH
 40
50.0
  9
$CAMERAHEIGHT
 40
0.0
  9
$STEPSPERSEC
 40
2.0
  9
$STEPSIZE
 40
6.0
  9
$3DDWFPREC
 40
2.0
  9
$PSOLWIDTH
 40
0.25
  9
$PSOLHEIGHT
 40
4.0
  9
$LOFTANG1
 40
1.570796326794896
  9
$LOFTANG2
 40
1.570796326794896
  9
$LOFTMAG1
 40
0.0
  9
$LOFTMAG2
 40
0.0
  9
$LOFTPARAM
 70
     7
  9
$LOFTNORMALS
280
     1
  9
$LATITUDE
 40
37.795
  9
$LONGITUDE
 40
-122.394
  9
$NORTHDIRECTION
 40
0.0
  9
$TIMEZONE
 70
 -8000
  9
$LIGHTGLYPHDISPLAY
280
     1
  9
$TILEMODELIGHTSYNCH
280
     1
  9
$CMATERIAL
347
11
  9
$SOLIDHIST
280
     0
  9
$SHOWHIST
280
     1
  9
$DWFFRAME
280
     2
  9
$DGNFRAME
280
     0
  9
$REALWORLDSCALE
290
     1
  9
$INTERFERECOLOR
 62
     1
  9
$INTERFEREOBJVS
345
33
  9
$INTERFEREVPVS
346
30
  9
$CSHADOW
280
     0
  9
$SHADOWPLANELOCATION
 40
0.0
  0
ENDSEC
  0
SECTION
  2
CLASSES
  0
CLASS
  1
ACDBDICTIONARYWDFLT
  2
AcDbDictionaryWithDefault
  3
ObjectDBX Classes
 90
        0
 91
        1
280
     0
281
     0
  0
CLASS
  1
MATERIAL
  2
AcDbMaterial
  3
ObjectDBX Classes
 90
     1153
 91
        3
280
     0
281
     0
  0
CLASS
  1
VISUALSTYLE
  2
AcDbVisualStyle
  3
ObjectDBX Classes
 90
     4095
 91
       24
280
     0
281
     0
  0
CLASS
  1
SCALE
  2
AcDbScale
  3
ObjectDBX Classes
 90
     1153
 91
       17
280
     0
281
     0
  0
CLASS
  1
TABLESTYLE
  2
AcDbTableStyle
  3
ObjectDBX Classes
 90
     4095
 91
        1
280
     0
281
     0
  0
CLASS
  1
MLEADERSTYLE
  2
AcDbMLeaderStyle
  3
ACDB_MLEADERSTYLE_CLASS
 90
     4095
 91
        1
280
     0
281
     0
  0
CLASS
  1
ACDBSECTIONVIEWSTYLE
  2
AcDbSectionViewStyle
  3
ObjectDBX Classes
 90
     1025
 91
        1
280
     0
281
     0
  0
CLASS
  1
ACDBDETAILVIEWSTYLE
  2
AcDbDetailViewStyle
  3
ObjectDBX Classes
 90
     1025
 91
        1
280
     0
281
     0
  0
CLASS
  1
RAPIDRTRENDERSETTINGS
  2
AcDbRapidRTRenderSettings
  3
ObjectDBX Classes
 90
     1024
 91
        7
280
     0
281
     0
  0
CLASS
  1
SPIFILEHEADER
  2
CSPIFileHeader
  3
SPIKERNELAPP|Product Desc: CSPIFileHeader|Company: 2020 Technologies|WEB Address: www.2020spaces.com
 90
     3071
 91
        1
280
     0
281
     0
  0
CLASS
  1
SPIFILEHEADER
  2
CSPIFHVersion
  3
SPIKERNELAPP|Product Desc: CSPIFHVersion|Company: 2020 Technologies|WEB Address: www.2020spaces.com
 90
     3071
 91
        1
280
     0
281
     0
  0
CLASS
  1
DICTIONARYVAR
  2
AcDbDictionaryVar
  3
ObjectDBX Classes
 90
        0
 91
        9
280
     0
281
     0
  0
CLASS
  1
SORTENTSTABLE
  2
AcDbSortentsTable
  3
ObjectDBX Classes
 90
        0
 91
        1
280
     0
281
     0
  0
CLASS
  1
ACAD_EVALUATION_GRAPH
  2
AcDbEvalGraph
  3
ObjectDBX Classes
 90
     1153
 91
        0
280
     0
281
     0
  0
CLASS
  1
ACAECUSTOBJ
  2
AcAeEditorObj
  3
AcAeEditorObj
 90
     1024
 91
        0
280
     0
281
     0
  0
CLASS
  1
ACDB_DYNAMICBLOCKPURGEPREVENTER_VERSION
  2
AcDbDynamicBlockPurgePreventer
  3
ObjectDBX Classes
 90
     1153
 91
        0
280
     0
281
     0
  0
CLASS
  1
CELLSTYLEMAP
  2
AcDbCellStyleMap
  3
ObjectDBX Classes
 90
     1152
 91
        1
280
     0
281
     0
  0
CLASS
  1
MENTALRAYRENDERSETTINGS
  2
AcDbMentalRayRenderSettings
  3
SCENEOE
 90
     1024
 91
        1
280
     0
281
     0
  0
ENDSEC
  0
SECTION
  2
TABLES
  0
TABLE
  2
VPORT
  5
8
330
0
100
AcDbSymbolTable
 70
     1
1001
ACAD
1000
DbSaveVer
1071
      123
  0
VPORT
  5
C3B
330
8
100
AcDbSymbolTableRecord
100
AcDbViewportTableRecord
  2
*Active
 70
     0
 10
0.0
 20
0.0
 11
1.0
 21
1.0
 12
-316.8506914336731
 22
4249.850274116918
 13
0.0
 23
0.0
 14
1.0
 24
1.0
 15
0.0
 25
0.0
 16
0.0
 26
0.0
 36
1.0
 17
0.0
 27
0.0
 37
0.0
 40
11922.08558720865
 41
1.135693215339232
 42
50.0
 43
0.0
 44
0.0
 50
0.0
 51
0.0
 71
     0
 72
  1000
 73
     1
 74
     3
 75
     0
 76
     0
 77
     0
 78
     0
281
     0
 65
     1
110
0.0
120
0.0
130
0.0
111
1.0
121
0.0
131
0.0
112
0.0
122
1.0
132
0.0
 79
     0
146
0.0
348
2F
 60
     3
 61
     5
292
     1
282
     1
141
0.0
142
0.0
 63
   250
421
  3355443
1001
ACAD_NAV_VCDISPLAY
1070
     0
  0
ENDTAB
  0
TABLE
  2
LTYPE
  5
5
330
0
100
AcDbSymbolTable
 70
     1
  0
LTYPE
  5
5A
330
5
100
AcDbSymbolTableRecord
100
AcDbLinetypeTableRecord
  2
ByBlock
 70
     0
  3

 72
    65
 73
     0
 40
0.0
  0
LTYPE
  5
5B
330
5
100
AcDbSymbolTableRecord
100
AcDbLinetypeTableRecord
  2
ByLayer
 70
     0
  3

 72
    65
 73
     0
 40
0.0
  0
LTYPE
  5
5C
330
5
100
AcDbSymbolTableRecord
100
AcDbLinetypeTableRecord
  2
Continuous
 70
     0
  3
Solid line
 72
    65
 73
     0
 40
0.0
  0
ENDTAB
  0
TABLE
  2
LAYER
  5
2
102
{ACAD_XDICTIONARY
360
C5D
102
}
330
0
100
AcDbSymbolTable
 70
     1
  0
LAYER
  5
54
102
{ACAD_XDICTIONARY
360
C48
102
}
330
2
100
AcDbSymbolTableRecord
100
AcDbLayerTableRecord
  2
0
 70
     0
 62
     7
  6
Continuous
370
    -3
390
F
347
21
348
0
  0
ENDTAB
  0
TABLE
  2
STYLE
  5
3
330
0
100
AcDbSymbolTable
 70
     1
  0
STYLE
  5
55
330
3
100
AcDbSymbolTableRecord
100
AcDbTextStyleTableRecord
  2
Standard
 70
     0
 40
0.0
 41
1.0
 50
0.0
 71
     0
 42
0.2
  3
txt
  4

  0
ENDTAB
  0
TABLE
  2
VIEW
  5
6
330
0
100
AcDbSymbolTable
 70
     0
  0
ENDTAB
  0
TABLE
  2
UCS
  5
7
330
0
100
AcDbSymbolTable
 70
     0
  0
ENDTAB
  0
TABLE
  2
APPID
  5
9
330
0
100
AcDbSymbolTable
 70
     7
  0
APPID
  5
56
330
9
100
AcDbSymbolTableRecord
100
AcDbRegAppTableRecord
  2
ACAD
 70
     0
  0
APPID
  5
5D
330
9
100
AcDbSymbolTableRecord
100
AcDbRegAppTableRecord
  2
AcadAnnotative
 70
     0
  0
APPID
  5
C3A
330
9
100
AcDbSymbolTableRecord
100
AcDbRegAppTableRecord
  2
ACAD_NAV_VCDISPLAY
 70
     0
  0
APPID
  5
CD8
330
9
100
AcDbSymbolTableRecord
100
AcDbRegAppTableRecord
  2
ACAUTHENVIRON
 70
     0
  0
APPID
  5
CDC
330
9
100
AcDbSymbolTableRecord
100
AcDbRegAppTableRecord
  2
AcDbDynamicBlockTrueName
 70
     0
  0
APPID
  5
CDD
330
9
100
AcDbSymbolTableRecord
100
AcDbRegAppTableRecord
  2
AcDbDynamicBlockGUID
 70
     0
  0
APPID
  5
CDF
330
9
100
AcDbSymbolTableRecord
100
AcDbRegAppTableRecord
  2
ACAD_EXEMPT_FROM_CAD_STANDARDS
 70
     0
  0
ENDTAB
  0
TABLE
  2
DIMSTYLE
  5
A
330
0
100
AcDbSymbolTable
 70
     1
100
AcDbDimStyleTable
 71
     1
340
57
  0
DIMSTYLE
105
57
330
A
100
AcDbSymbolTableRecord
100
AcDbDimStyleTableRecord
  2
Standard
 70
     0
340
55
  0
ENDTAB
  0
TABLE
  2
BLOCK_RECORD
  5
1
330
0
100
AcDbSymbolTable
 70
     1
  0
BLOCK_RECORD
  5
6F
102
{ACAD_XDICTIONARY
360
C58
102
}
330
1
100
AcDbSymbolTableRecord
100
AcDbBlockTableRecord
  2
*Model_Space
340
72
 70
     0
280
     1
281
     0
  0
BLOCK_RECORD
  5
6B
330
1
100
AcDbSymbolTableRecord
100
AcDbBlockTableRecord
  2
*Paper_Space
340
6E
 70
     0
280
     1
281
     0
  0
BLOCK_RECORD
  5
C7F
102
{ACAD_XDICTIONARY
360
CD9
102
}
330
1
100
AcDbSymbolTableRecord
100
AcDbBlockTableRecord
  2
Palmier
340
0
310
2800000020000000200000000100200000000000001000000100000001000000000000000000000001000000D6D6D6FFD6D6D6FFD6D6D6FFD6D6D6FFD6D6D6FFD6D6D6FFD6D6D6FFD6D6D6FFD6D6D6FFD6D6D6FFD6D6D6FFD6D6D6FFD6D6D6FFD6D6D6FFD6D6D6FFD6D6D6FFD6D6D6FFD6D6D6FFD6D6D6FFD6D6D6FFD6D6D6
310
FFD6D6D6FFD6D6D6FFD6D6D6FFD6D6D6FFD6D6D6FFD6D6D6FFD6D6D6FFD6D6D6FFD6D6D6FFD6D6D6FFD6D6D6FFD6D6D6FFD6D6D6FFD6D6D6FFD6D6D6FFD6D6D6FFD6D6D6FFD6D6D6FFD6D6D6FFD6D6D6FFD6D6D6FFD6D6D6FFD6D6D6FFD6D6D6FFD6D6D6FF000000FF000000FF000000FF000000FFD6D6D6FFD6D6D6FFD6D6
310
D6FFD6D6D6FFD6D6D6FFD6D6D6FFD6D6D6FFD6D6D6FFD6D6D6FFD6D6D6FFD6D6D6FFD6D6D6FFD6D6D6FFD6D6D6FFD6D6D6FFD6D6D6FFD6D6D6FFD6D6D6FFD6D6D6FFD6D6D6FFD6D6D6FFD6D6D6FFD6D6D6FFD6D6D6FFD6D6D6FFD6D6D6FFD6D6D6FFD6D6D6FF000000FF000000FFD6D6D6FF000000FFD6D6D6FFD6D6D6FFD6
310
D6D6FFD6D6D6FFD6D6D6FFD6D6D6FFD6D6D6FFD6D6D6FFD6D6D6FFD6D6D6FFD6D6D6FFD6D6D6FFD6D6D6FFD6D6D6FFD6D6D6FFD6D6D6FFD6D6D6FFD6D6D6FFD6D6D6FFD6D6D6FFD6D6D6FFD6D6D6FFD6D6D6FFD6D6D6FFD6D6D6FFD6D6D6FFD6D6D6FFD6D6D6FFD6D6D6FF000000FFD6D6D6FF000000FFD6D6D6FFD6D6D6FF
310
D6D6D6FFD6D6D6FFD6D6D6FFD6D6D6FFD6D6D6FFD6D6D6FFD6D6D6FFD6D6D6FFD6D6D6FFD6D6D6FFD6D6D6FFD6D6D6FFD6D6D6FFD6D6D6FFD6D6D6FFD6D6D6FFD6D6D6FFD6D6D6FFD6D6D6FFD6D6D6FFD6D6D6FFD6D6D6FFD6D6D6FFD6D6D6FFD6D6D6FFD6D6D6FFD6D6D6FF000000FF000000FFD6D6D6FFD6D6D6FFD6D6D6
310
FFD6D6D6FFD6D6D6FFD6D6D6FFD6D6D6FFD6D6D6FFD6D6D6FFD6D6D6FFD6D6D6FFD6D6D6FFD6D6D6FFD6D6D6FFD6D6D6FFD6D6D6FFD6D6D6FFD6D6D6FFD6D6D6FFD6D6D6FFD6D6D6FFD6D6D6FFD6D6D6FFD6D6D6FFD6D6D6FFD6D6D6FFD6D6D6FFD6D6D6FFD6D6D6FFD6D6D6FF000000FF000000FFD6D6D6FFD6D6D6FFD6D6
310
D6FFD6D6D6FFD6D6D6FFD6D6D6FFD6D6D6FFD6D6D6FFD6D6D6FFD6D6D6FFD6D6D6FFD6D6D6FFD6D6D6FFD6D6D6FFD6D6D6FFD6D6D6FFD6D6D6FFD6D6D6FFD6D6D6FFD6D6D6FFD6D6D6FFD6D6D6FFD6D6D6FFD6D6D6FFD6D6D6FFD6D6D6FFD6D6D6FFD6D6D6FFD6D6D6FFD6D6D6FF000000FF000000FFD6D6D6FFD6D6D6FFD6
310
D6D6FFD6D6D6FFD6D6D6FFD6D6D6FFD6D6D6FFD6D6D6FFD6D6D6FFD6D6D6FFD6D6D6FFD6D6D6FFD6D6D6FFD6D6D6FFD6D6D6FFD6D6D6FFD6D6D6FFD6D6D6FFD6D6D6FFD6D6D6FFD6D6D6FFD6D6D6FFD6D6D6FFD6D6D6FFD6D6D6FFD6D6D6FFD6D6D6FFD6D6D6FFD6D6D6FFD6D6D6FF000000FF000000FFD6D6D6FFD6D6D6FF
310
D6D6D6FFD6D6D6FFD6D6D6FFD6D6D6FFD6D6D6FFD6D6D6FFD6D6D6FFD6D6D6FFD6D6D6FFD6D6D6FFD6D6D6FFD6D6D6FFD6D6D6FFD6D6D6FFD6D6D6FFD6D6D6FFD6D6D6FFD6D6D6FFD6D6D6FFD6D6D6FFD6D6D6FFD6D6D6FFD6D6D6FFD6D6D6FFD6D6D6FFD6D6D6FFD6D6D6FFD6D6D6FF000000FF000000FFD6D6D6FFD6D6D6
310
FFD6D6D6FFD6D6D6FFD6D6D6FFD6D6D6FFD6D6D6FFD6D6D6FFD6D6D6FFD6D6D6FFD6D6D6FFD6D6D6FFD6D6D6FFD6D6D6FFD6D6D6FFD6D6D6FFD6D6D6FFD6D6D6FFD6D6D6FFD6D6D6FFD6D6D6FFD6D6D6FFD6D6D6FFD6D6D6FFD6D6D6FFD6D6D6FFD6D6D6FFD6D6D6FFD6D6D6FFD6D6D6FF000000FF000000FFD6D6D6FFD6D6
310
D6FFD6D6D6FFD6D6D6FFD6D6D6FFD6D6D6FFD6D6D6FFD6D6D6FFD6D6D6FFD6D6D6FFD6D6D6FFD6D6D6FFD6D6D6FFD6D6D6FFD6D6D6FFD6D6D6FFD6D6D6FFD6D6D6FFD6D6D6FFD6D6D6FFD6D6D6FFD6D6D6FFD6D6D6FFD6D6D6FFD6D6D6FFD6D6D6FFD6D6D6FFD6D6D6FFD6D6D6FFD6D6D6FF000000FF000000FFD6D6D6FFD6
310
D6D6FFD6D6D6FFD6D6D6FFD6D6D6FFD6D6D6FFD6D6D6FFD6D6D6FFD6D6D6FFD6D6D6FFD6D6D6FFD6D6D6FFD6D6D6FFD6D6D6FFD6D6D6FFD6D6D6FFD6D6D6FFD6D6D6FFD6D6D6FFD6D6D6FFD6D6D6FFD6D6D6FFD6D6D6FFD6D6D6FFD6D6D6FFD6D6D6FFD6D6D6FFD6D6D6FFD6D6D6FFD6D6D6FF000000FF000000FFD6D6D6FF
310
D6D6D6FFD6D6D6FFD6D6D6FFD6D6D6FFD6D6D6FFD6D6D6FFD6D6D6FFD6D6D6FFD6D6D6FFD6D6D6FFD6D6D6FFD6D6D6FFD6D6D6FFD6D6D6FFD6D6D6FFD6D6D6FFD6D6D6FFD6D6D6FFD6D6D6FFD6D6D6FFD6D6D6FFD6D6D6FFD6D6D6FFD6D6D6FFD6D6D6FFD6D6D6FFD6D6D6FFD6D6D6FFD6D6D6FF000000FF000000FFD6D6D6
310
FFD6D6D6FFD6D6D6FFD6D6D6FFD6D6D6FFD6D6D6FFD6D6D6FFD6D6D6FFD6D6D6FFD6D6D6FFD6D6D6FFD6D6D6FFD6D6D6FFD6D6D6FFD6D6D6FFD6D6D6FFD6D6D6FFD6D6D6FFD6D6D6FFD6D6D6FFD6D6D6FFD6D6D6FFD6D6D6FFD6D6D6FFD6D6D6FFD6D6D6FFD6D6D6FFD6D6D6FFD6D6D6FFD6D6D6FF000000FF000000FFD6D6
310
D6FFD6D6D6FFD6D6D6FFD6D6D6FFD6D6D6FFD6D6D6FFD6D6D6FFD6D6D6FFD6D6D6FFD6D6D6FFD6D6D6FFD6D6D6FFD6D6D6FFD6D6D6FFD6D6D6FFD6D6D6FFD6D6D6FFD6D6D6FFD6D6D6FFD6D6D6FFD6D6D6FFD6D6D6FFD6D6D6FFD6D6D6FFD6D6D6FFD6D6D6FFD6D6D6FFD6D6D6FFD6D6D6FF000000FFD6D6D6FF000000FFD6
310
D6D6FFD6D6D6FFD6D6D6FFD6D6D6FFD6D6D6FFD6D6D6FFD6D6D6FFD6D6D6FFD6D6D6FFD6D6D6FFD6D6D6FFD6D6D6FFD6D6D6FFD6D6D6FFD6D6D6FFD6D6D6FFD6D6D6FFD6D6D6FFD6D6D6FFD6D6D6FFD6D6D6FFD6D6D6FFD6D6D6FFD6D6D6FFD6D6D6FFD6D6D6FFD6D6D6FFD6D6D6FFD6D6D6FF000000FFD6D6D6FF000000FF
310
D6D6D6FFD6D6D6FFD6D6D6FFD6D6D6FFD6D6D6FFD6D6D6FFD6D6D6FFD6D6D6FFD6D6D6FFD6D6D6FFD6D6D6FFD6D6D6FFD6D6D6FFD6D6D6FFD6D6D6FFD6D6D6FFD6D6D6FFD6D6D6FFD6D6D6FFD6D6D6FFD6D6D6FFD6D6D6FFD6D6D6FFD6D6D6FFD6D6D6FFD6D6D6FFD6D6D6FFD6D6D6FFD6D6D6FF000000FFD6D6D6FF000000
310
FFD6D6D6FFD6D6D6FFD6D6D6FFD6D6D6FFD6D6D6FFD6D6D6FFD6D6D6FFD6D6D6FFD6D6D6FFD6D6D6FFD6D6D6FFD6D6D6FFD6D6D6FFD6D6D6FFD6D6D6FFD6D6D6FFD6D6D6FFD6D6D6FFD6D6D6FFD6D6D6FFD6D6D6FFD6D6D6FFD6D6D6FFD6D6D6FFD6D6D6FFD6D6D6FFD6D6D6FFD6D6D6FFD6D6D6FF000000FFD6D6D6FF0000
310
00FF000000FFD6D6D6FFD6D6D6FFD6D6D6FFD6D6D6FFD6D6D6FFD6D6D6FFD6D6D6FFD6D6D6FFD6D6D6FFD6D6D6FFD6D6D6FFD6D6D6FFD6D6D6FFD6D6D6FFD6D6D6FFD6D6D6FFD6D6D6FFD6D6D6FFD6D6D6FFD6D6D6FFD6D6D6FFD6D6D6FFD6D6D6FFD6D6D6FFD6D6D6FFD6D6D6FF000000FF000000FF000000FFD6D6D6FF00
310
0000FF000000FF000000FF000000FFD6D6D6FFD6D6D6FFD6D6D6FFD6D6D6FFD6D6D6FFD6D6D6FFD6D6D6FFD6D6D6FFD6D6D6FFD6D6D6FFD6D6D6FFD6D6D6FFD6D6D6FFD6D6D6FFD6D6D6FFD6D6D6FFD6D6D6FFD6D6D6FFD6D6D6FFD6D6D6FFD6D6D6FF000000FF000000FF000000FF000000FFD6D6D6FFD6D6D6FF000000FF
310
000000FF000000FF000000FF000000FFD6D6D6FFD6D6D6FFD6D6D6FFD6D6D6FFD6D6D6FFD6D6D6FFD6D6D6FFD6D6D6FFD6D6D6FFD6D6D6FFD6D6D6FFD6D6D6FFD6D6D6FFD6D6D6FFD6D6D6FFD6D6D6FFD6D6D6FFD6D6D6FFD6D6D6FFD6D6D6FF000000FF000000FF000000FF000000FF000000FFD6D6D6FFD6D6D6FFD6D6D6
310
FF000000FF000000FF000000FF000000FF000000FF000000FFD6D6D6FFD6D6D6FFD6D6D6FFD6D6D6FFD6D6D6FFD6D6D6FFD6D6D6FFD6D6D6FFD6D6D6FFD6D6D6FFD6D6D6FFD6D6D6FFD6D6D6FFD6D6D6FFD6D6D6FFD6D6D6FFD6D6D6FFD6D6D6FFD6D6D6FF000000FF000000FF000000FF000000FFD6D6D6FFD6D6D6FFD6D6
310
D6FFD6D6D6FF000000FF000000FFD6D6D6FF000000FF000000FF000000FFD6D6D6FFD6D6D6FFD6D6D6FFD6D6D6FFD6D6D6FFD6D6D6FFD6D6D6FFD6D6D6FFD6D6D6FFD6D6D6FFD6D6D6FFD6D6D6FFD6D6D6FFD6D6D6FFD6D6D6FFD6D6D6FFD6D6D6FFD6D6D6FF000000FF000000FF000000FFD6D6D6FFD6D6D6FFD6D6D6FFD6
310
D6D6FFD6D6D6FFD6D6D6FF000000FF000000FFD6D6D6FF000000FF000000FF000000FFD6D6D6FFD6D6D6FFD6D6D6FFD6D6D6FFD6D6D6FFD6D6D6FFD6D6D6FFD6D6D6FFD6D6D6FFD6D6D6FFD6D6D6FFD6D6D6FFD6D6D6FFD6D6D6FFD6D6D6FFD6D6D6FF000000FF000000FF000000FFD6D6D6FFD6D6D6FFD6D6D6FF000000FF
310
D6D6D6FFD6D6D6FFD6D6D6FF000000FF000000FF000000FF000000FF000000FF000000FFD6D6D6FFD6D6D6FFD6D6D6FFD6D6D6FFD6D6D6FFD6D6D6FFD6D6D6FFD6D6D6FFD6D6D6FFD6D6D6FFD6D6D6FFD6D6D6FFD6D6D6FFD6D6D6FFD6D6D6FFD6D6D6FFD6D6D6FF000000FF000000FFD6D6D6FFD6D6D6FF000000FF000000
310
FF000000FF000000FFD6D6D6FF000000FF000000FF000000FF000000FF000000FFD6D6D6FFD6D6D6FFD6D6D6FFD6D6D6FFD6D6D6FFD6D6D6FFD6D6D6FFD6D6D6FFD6D6D6FFD6D6D6FFD6D6D6FFD6D6D6FFD6D6D6FFD6D6D6FFD6D6D6FFD6D6D6FFD6D6D6FF000000FF000000FFD6D6D6FFD6D6D6FF000000FF000000FF0000
310
00FF000000FFD6D6D6FF000000FF000000FF000000FF000000FF000000FF000000FFD6D6D6FFD6D6D6FFD6D6D6FFD6D6D6FFD6D6D6FFD6D6D6FFD6D6D6FFD6D6D6FFD6D6D6FFD6D6D6FFD6D6D6FFD6D6D6FFD6D6D6FFD6D6D6FFD6D6D6FFD6D6D6FFD6D6D6FF000000FF000000FF000000FF000000FF000000FF000000FFD6
310
D6D6FF000000FF000000FF000000FF000000FF000000FFD6D6D6FFD6D6D6FFD6D6D6FFD6D6D6FFD6D6D6FFD6D6D6FFD6D6D6FFD6D6D6FFD6D6D6FFD6D6D6FFD6D6D6FFD6D6D6FFD6D6D6FFD6D6D6FFD6D6D6FFD6D6D6FFD6D6D6FFD6D6D6FFD6D6D6FFD6D6D6FF000000FF000000FF000000FF000000FF000000FF000000FF
310
000000FF000000FF000000FF000000FF000000FF000000FFD6D6D6FFD6D6D6FFD6D6D6FFD6D6D6FFD6D6D6FFD6D6D6FFD6D6D6FFD6D6D6FFD6D6D6FFD6D6D6FFD6D6D6FFD6D6D6FFD6D6D6FFD6D6D6FFD6D6D6FFD6D6D6FFD6D6D6FFD6D6D6FFD6D6D6FFD6D6D6FF000000FFD6D6D6FFD6D6D6FFD6D6D6FF000000FF000000
310
FF000000FF000000FF000000FF000000FFD6D6D6FFD6D6D6FFD6D6D6FFD6D6D6FFD6D6D6FFD6D6D6FFD6D6D6FFD6D6D6FFD6D6D6FFD6D6D6FFD6D6D6FFD6D6D6FFD6D6D6FFD6D6D6FFD6D6D6FFD6D6D6FFD6D6D6FFD6D6D6FFD6D6D6FFD6D6D6FFD6D6D6FFD6D6D6FFD6D6D6FFD6D6D6FFD6D6D6FFD6D6D6FF000000FF0000
310
00FF000000FF000000FF000000FFD6D6D6FFD6D6D6FFD6D6D6FFD6D6D6FFD6D6D6FFD6D6D6FFD6D6D6FFD6D6D6FFD6D6D6FFD6D6D6FFD6D6D6FFD6D6D6FFD6D6D6FFD6D6D6FFD6D6D6FFD6D6D6FFD6D6D6FFD6D6D6FFD6D6D6FFD6D6D6FFD6D6D6FFD6D6D6FFD6D6D6FFD6D6D6FFD6D6D6FFD6D6D6FFD6D6D6FFD6D6D6FF00
310
0000FF000000FF000000FFD6D6D6FFD6D6D6FFD6D6D6FFD6D6D6FFD6D6D6FFD6D6D6FFD6D6D6FFD6D6D6FFD6D6D6FFD6D6D6FFD6D6D6FFD6D6D6FFD6D6D6FFD6D6D6FFD6D6D6FFD6D6D6FFD6D6D6FFD6D6D6FFD6D6D6FFD6D6D6FFD6D6D6FFD6D6D6FFD6D6D6FFD6D6D6FFD6D6D6FFD6D6D6FFD6D6D6FFD6D6D6FFD6D6D6FF
310
D6D6D6FFD6D6D6FFD6D6D6FFD6D6D6FFD6D6D6FFD6D6D6FFD6D6D6FFD6D6D6FFD6D6D6FFD6D6D6FFD6D6D6FFD6D6D6FFD6D6D6FFD6D6D6FFD6D6D6FFD6D6D6FFD6D6D6FFD6D6D6FF
102
{BLKREFS
331
CAB
102
}
 70
     0
280
     1
281
     0
1001
AcDbDynamicBlockGUID
1000
{452C1761-C7CC-2A43-9308-CA6D72E5D2B0}
  0
ENDTAB
  0
ENDSEC
  0
SECTION
  2
BLOCKS
  0
BLOCK
  5
70
330
6F
100
AcDbEntity
  8
0
100
AcDbBlockBegin
  2
*Model_Space
 70
     0
 10
0.0
 20
0.0
 30
0.0
  3
*Model_Space
  1

  0
ENDBLK
  5
71
330
6F
100
AcDbEntity
  8
0
100
AcDbBlockEnd
  0
BLOCK
  5
6C
330
6B
100
AcDbEntity
 67
     1
  8
0
100
AcDbBlockBegin
  2
*Paper_Space
 70
     0
 10
0.0
 20
0.0
 30
0.0
  3
*Paper_Space
  1

  0
ENDBLK
  5
6D
330
6B
100
AcDbEntity
 67
     1
  8
0
100
AcDbBlockEnd
  0
BLOCK
  5
C80
330
C7F
100
AcDbEntity
  8
0
100
AcDbBlockBegin
  2
Palmier
 70
     0
 10
0.0
 20
0.0
 30
0.0
  3
Palmier
  1

  0
LWPOLYLINE
  5
CAF
330
C7F
100
AcDbEntity
  8
0
  6
ByBlock
 62
     0
100
AcDbPolyline
 90
       49
 70
     0
 43
0.0
 10
206.2314826455821
 20
2667.490268816377
 10
207.4839076296629
 20
2633.841747742811
 10
208.6637315851375
 20
2624.462049241099
 10
210.1191169108077
 20
2621.151181518499
 10
211.9553863658474
 20
2618.026938159435
 10
211.0919089737948
 20
2609.758683458873
 10
207.633539613891
 20
2600.557754910776
 10
200.2055574517302
 20
2588.571148886363
 10
169.2515270421889
 20
2550.281706856962
 10
136.0503390032353
 20
2510.818861777539
 10
120.714887342588
 20
2493.954876243546
 10
110.5892986351522
 20
2485.751149154038
 10
106.0546063336795
 20
2483.351671719512
 10
104.1696076814613
 20
2480.441209669828
 10
102.1063865946993
 20
2478.127324398191
 10
97.14587378059594
 20
2477.164636550758
 10
91.95753330425885
 20
2475.481572886236
 10
90.12213987973053
 20
2470.727385167277
 10
89.56210751084553
 20
2465.515441641601
 10
87.85962185169763
 20
2462.348073689651
 10
84.98109509609992
 20
2461.192997596115
 10
80.89294939275839
 20
2462.017949555464
 10
77.7335951290064
 20
2465.317349242283
 10
78.18530831617443
 20
2471.26118639529
 10
78.97854398906599
 20
2476.75638642281
 10
71.99388303997318
 20
2472.996055318672
 10
63.81869662632164
 20
2469.27742525784
 10
56.86827055140622
 20
2472.251538888067
 10
52.27650685311494
 20
2477.689657563876
 10
53.98502517691906
 20
2485.024193153224
 10
57.91129437866186
 20
2501.098009121115
 10
61.72386875691507
 20
2510.90446389532
 10
70.60669868056891
 20
2523.057714814682
 10
79.42850511521226
 20
2534.368562848718
 10
83.09840597886557
 20
2542.144707409681
 10
84.19893921819483
 20
2545.857195302043
 10
86.84556676066074
 20
2547.401975559412
 10
88.89342744880229
 20
2549.415153403228
 10
88.34162777574318
 20
2554.499455301483
 10
88.60248577020172
 20
2559.854470537446
 10
91.23584344140306
 20
2568.671538443415
 10
101.9869776631038
 20
2593.360457464902
 10
117.3290095074761
 20
2621.903432900321
 10
133.9958981313683
 20
2647.637685284048
 10
150.0655927739002
 20
2665.777191151958
 10
173.2458379319231
 20
2688.633026283901
 10
194.5579878446354
 20
2707.737519579337
 10
205.0234067061254
 20
2714.623029802403
 10
206.2314826455821
 20
2667.490268816377
  0
LWPOLYLINE
  5
CB0
330
C7F
100
AcDbEntity
  8
0
  6
ByBlock
 62
     0
100
AcDbPolyline
 90
       99
 70
     0
 43
0.0
 10
920.3450454008356
 20
3381.070020388725
 10
924.1707901014313
 20
3377.194680415331
 10
931.4811751223713
 20
3377.11215435923
 10
936.1508657165799
 20
3377.45384607812
 10
940.1238830919592
 20
3376.334707145323
 10
947.9026656993472
 20
3368.732832926712
 10
955.0392183931903
 20
3361.607260478934
 10
961.7253719456329
 20
3358.643241109368
 10
965.3329850489697
 20
3358.274969828381
 10
967.3874956050816
 20
3356.863216795097
 10
967.6794327728996
 20
3353.947598111268
 10
965.9993157564608
 20
3349.06770001397
 10
955.885025851639
 20
3331.573500121283
 10
935.3688093875966
 20
3300.697436427228
 10
911.0530295893694
 20
3265.648341664287
 10
894.4753168895484
 20
3244.252072912727
 10
883.2477116638491
 20
3233.772010404853
 10
878.8939694373761
 20
3231.770350371278
 10
874.9822642428798
 20
3231.471514463186
 10
868.8582236317865
 20
3231.129434503501
 10
866.412426083986
 20
3229.072027073767
 10
867.8924597226732
 20
3226.486532524126
 10
873.5459027161486
 20
3224.560161340042
 10
876.6131941371007
 20
3222.750123025875
 10
875.2324804576076
 20
3217.112368942461
 10
854.2306344887691
 20
3184.099945568861
 10
827.6141994705998
 20
3142.593181938595
 10
817.0785986193017
 20
3125.104088905593
 10
806.5429977680036
 20
3106.800237722825
 10
801.6435084429106
 20
3099.703195996009
 10
789.8616247760022
 20
3086.845805688689
 10
775.7079283199108
 20
3073.888776865627
 10
773.1436078259174
 20
3073.930477908932
 10
772.0318852877875
 20
3077.504244378887
 10
772.846633482662
 20
3085.368629104056
 10
776.4217139983819
 20
3093.578060346777
 10
780.3326128466127
 20
3101.089942340158
 10
781.9599291149742
 20
3107.284871738404
 10
784.1328929330342
 20
3113.019755704734
 10
789.3559162536961
 20
3119.428914382507
 10
793.8669159118011
 20
3125.4535155757
 10
794.3217051606501
 20
3130.255994476583
 10
793.6393570316558
 20
3135.233629705221
 10
796.9964254088234
 20
3139.795110621526
 10
803.3884118976018
 20
3143.127869152012
 10
811.8107981936526
 20
3144.419357132973
 10
819.8252628731975
 20
3145.998382219412
 10
827.2520404934052
 20
3149.531761691827
 10
831.235649874055
 20
3153.21394689242
 10
831.0439286057265
 20
3154.546618262293
 10
828.9206098349257
 20
3155.239419028068
 10
811.8107981936526
 20
3156.184108430455
 10
797.7633303919214
 20
3156.844346743937
 10
809.176902958274
 20
3159.850505172064
 10
816.7323475597967
 20
3162.682054791505
 10
820.2322586847321
 20
3165.67229534705
 10
819.3019441466402
 20
3168.039628434755
 10
813.5667316688691
 20
3169.002425786002
 10
808.6062188547661
 20
3170.419464867028
 10
806.5429977680036
 20
3173.827731254633
 10
808.3383824808951
 20
3183.520809761899
 10
812.6935980314096
 20
3195.604814451318
 10
818.0621917402945
 20
3206.43509006578
 10
822.8977607027545
 20
3212.366961438397
 10
826.0874176582763
 20
3215.290583855531
 10
824.6256014722634
 20
3217.845467111745
 10
823.1763483601698
 20
3223.089515164673
 10
824.4416649296125
 20
3232.824025933157
 10
827.690971599025
 20
3243.710208222054
 10
832.1936788319515
 20
3252.409270836225
 10
835.1228262142408
 20
3254.91688826441
 10
839.0313358883494
 20
3256.228972917273
 10
848.7692512299553
 20
3255.534828241055
 10
859.3730530475195
 20
3250.863495089639
 10
868.8083993964687
 20
3242.751631745089
 10
873.4265037394456
 20
3239.572079005121
 10
878.6556692285779
 20
3244.465426161744
 10
881.3717221890469
 20
3248.420116580636
 10
881.9625350845248
 20
3251.267912584101
 10
876.0217739931993
 20
3257.290761716272
 10
858.1990527039655
 20
3272.223219432037
 10
852.5140527023058
 20
3278.997553419333
 10
851.0343973495222
 20
3285.307999386336
 10
853.8210105857009
 20
3291.746843552564
 10
860.9347964411488
 20
3298.906382092432
 10
865.0190896012203
 20
3306.314663522985
 10
865.805755045279
 20
3319.696636828167
 10
866.6393777157095
 20
3333.627333744728
 10
869.6828570345868
 20
3344.455299824208
 10
872.856267606085
 20
3353.521180305108
 10
874.009472179893
 20
3363.208664162974
 10
875.1468783398257
 20
3371.231530771511
 10
877.504495452772
 20
3372.047712470858
 10
881.6337349509966
 20
3371.35269176413
 10
890.6008529466657
 20
3372.042326874193
 10
901.5986992610494
 20
3377.881249418606
 10
915.3573159115357
 20
3386.04590355634
 10
918.2742486411301
 20
3385.086122537422
 10
920.3450454008356
 20
3381.070020388725
  0
LWPOLYLINE
  5
CB1
330
C7F
100
AcDbEntity
  8
0
  6
ByBlock
 62
     0
100
AcDbPolyline
 90
       17
 70
     0
 43
0.0
 10
106.2135162774115
 20
2931.07343491674
 10
124.8018285039769
 20
2863.501607881
 10
131.4181883074051
 20
2840.706079485832
 10
116.9176833178475
 20
2835.058997668453
 10
70.80687165235065
 20
2814.040477255228
 10
36.03236268017247
 20
2797.236191209587
 10
34.5270933898313
 20
2798.648840183166
 10
35.42130153401706
 20
2804.175637038437
 10
41.14212919260092
 20
2827.627889670151
 10
46.77620992080335
 20
2847.702268200059
 10
55.39811216575333
 20
2869.115330854712
 10
66.6690709468586
 20
2891.128912424711
 10
80.25028146395914
 20
2913.004887520226
 10
94.17702628832728
 20
2932.457115154099
 10
101.4689848038582
 20
2940.615179153217
 10
103.9215815430119
 20
2937.85924689471
 10
106.2135162774115
 20
2931.07343491674
  0
LWPOLYLINE
  5
CB2
330
C7F
100
AcDbEntity
  8
0
  6
ByBlock
 62
     0
100
AcDbPolyline
 90
       26
 70
     0
 43
0.0
 10
186.364852760399
 20
4032.384380287498
 10
182.6427185775222
 20
4030.283410249622
 10
176.2682327891815
 20
4029.409828642015
 10
167.7778545795999
 20
4026.416840536231
 10
158.916099162673
 20
4018.603813099774
 10
150.207987551519
 20
4005.197699181077
 10
150.2553429735788
 20
4002.311984993331
 10
153.6869336735416
 20
4003.288559915342
 10
155.4143264729022
 20
4004.000613442576
 10
155.8536955937778
 20
4003.283901025806
 10
153.3792080467395
 20
3998.352197669647
 10
138.5929279676182
 20
3980.011911581531
 10
86.61027292929782
 20
3920.819386068525
 10
51.49160342497101
 20
3893.202066281662
 10
14.61700044542738
 20
3865.226539609795
 10
-22.25760253411602
 20
3835.930546265858
 10
-51.57862247697256
 20
3811.843967904984
 10
-78.44747374103929
 20
3792.179701067861
 10
-23.13557424917019
 20
3849.574144092197
 10
89.4856141194008
 20
3965.196214796044
 10
148.5701390072394
 20
4029.409828642015
 10
161.5535184298804
 20
4046.129826615642
 10
168.6755768007223
 20
4054.066643136251
 10
178.4420825926444
 20
4044.71454955053
 10
184.7963699047694
 20
4037.233826369646
 10
186.364852760399
 20
4032.384380287498
  0
LWPOLYLINE
  5
CB3
330
C7F
100
AcDbEntity
  8
0
  6
ByBlock
 62
     0
100
AcDbPolyline
 90
       20
 70
     0
 43
0.0
 10
413.4491931509026
 20
3605.351899354712
 10
388.8494400985945
 20
3545.874036767398
 10
363.2119393118813
 20
3492.448887988769
 10
352.3348060199677
 20
3468.667397208271
 10
346.9203899424186
 20
3448.62078287263
 10
343.6275704393251
 20
3433.632139745448
 10
340.6637203029262
 20
3431.018761542835
 10
335.8966409986055
 20
3430.106226442163
 10
323.0783236430583
 20
3428.276537170847
 10
320.1459110561367
 20
3428.495156557823
 10
318.6884849775714
 20
3430.636513593238
 10
323.410189883375
 20
3457.893426463929
 10
338.0353599875956
 20
3516.438445970541
 10
349.6315450959395
 20
3560.101489019587
 10
376.7536985913065
 20
3584.919851503979
 10
409.3262650543145
 20
3615.88750020601
 10
414.7668027689213
 20
3621.078249766253
 10
417.2665956518593
 20
3621.055204190876
 10
416.8269477940024
 20
3615.814401432796
 10
413.4491931509026
 20
3605.351899354712
  0
LWPOLYLINE
  5
CB4
330
C7F
100
AcDbEntity
  8
0
  6
ByBlock
 62
     0
100
AcDbPolyline
 90
       30
 70
     0
 43
0.0
 10
-449.5429377280555
 20
4295.212497681337
 10
-419.9115640668641
 20
4247.14162747665
 10
-398.3715267625647
 20
4206.759109638866
 10
-385.5040521494755
 20
4183.931974461054
 10
-369.8200498492318
 20
4156.746617355291
 10
-363.7380985222393
 20
4143.136537650894
 10
-361.0232600586152
 20
4132.906741132208
 10
-361.725249189864
 20
4126.467787462166
 10
-365.8937806474893
 20
4124.230236303698
 10
-370.2371399214281
 20
4127.348058757311
 10
-376.961868681034
 20
4134.746962679439
 10
-387.8218795584129
 20
4150.660544702939
 10
-424.3663683586613
 20
4206.011079131325
 10
-446.0833737810911
 20
4236.736017607326
 10
-460.0939089328661
 20
4253.082826583233
 10
-464.5966261206841
 20
4256.213530667315
 10
-467.6375669420582
 20
4256.168604238945
 10
-469.3716792936348
 20
4253.087704480396
 10
-469.9539110720617
 20
4247.110458709262
 10
-470.7537368835707
 20
4241.4835753681
 10
-474.8354119070008
 20
4249.779484759113
 10
-478.9723863564425
 20
4257.839652348617
 10
-482.1506250506439
 20
4261.193047370573
 10
-483.5156498200746
 20
4267.123654471885
 10
-483.0882962540503
 20
4281.479783660281
 10
-478.3262043507066
 20
4314.854375965968
 10
-474.9592009911515
 20
4323.617796958026
 10
-473.1634280374656
 20
4325.807614408533
 10
-471.5869314936382
 20
4326.04669109892
 10
-449.5429377280555
 20
4295.212497681337
  0
LWPOLYLINE
  5
CB5
330
C7F
100
AcDbEntity
  8
0
  6
ByBlock
 62
     0
100
AcDbPolyline
 90
       28
 70
     0
 43
0.0
 10
527.0616000878698
 20
3890.315316785131
 10
529.6778154347515
 20
3887.962338651936
 10
531.4813432494392
 20
3883.545591912911
 10
532.6959495981608
 20
3870.435078562349
 10
530.796635811
 20
3854.812478037018
 10
525.8745887002472
 20
3840.506501595382
 10
515.0988658948834
 20
3826.169744627151
 10
498.6576248118398
 20
3809.991890081177
 10
443.0647683982182
 20
3757.190972771046
 10
415.1309427696577
 20
3730.963037374757
 10
397.2875849889532
 20
3717.496337982304
 10
384.3213279808473
 20
3707.355388876248
 10
367.8651645144386
 20
3688.509394265826
 10
354.2158525799936
 20
3671.52995189243
 10
347.7491844901464
 20
3665.257324560787
 10
352.6144389410614
 20
3674.285018075319
 10
370.2567477194738
 20
3697.538401826125
 10
383.356002086989
 20
3715.097736578289
 10
402.5659176905195
 20
3739.845867298411
 10
418.4816997451888
 20
3760.337604682604
 10
441.3088349230019
 20
3790.167409209447
 10
465.8919035760304
 20
3822.132418648344
 10
493.4249452457715
 20
3853.10357147242
 10
507.7112110009092
 20
3869.536480310716
 10
515.7182692406784
 20
3882.297726269444
 10
519.9478739617751
 20
3891.640163609758
 10
522.5645970081576
 20
3891.901250566736
 10
527.0616000878698
 20
3890.315316785131
  0
LWPOLYLINE
  5
CB6
330
C7F
100
AcDbEntity
  8
0
  6
ByBlock
 62
     0
100
AcDbPolyline
 90
       27
 70
     0
 43
0.0
 10
580.6807896247026
 20
3442.316986773597
 10
585.8118396965941
 20
3436.234925942792
 10
588.3787982370116
 20
3430.234843649016
 10
588.3039573576669
 20
3424.677913335142
 10
585.5095992153787
 20
3419.925318398929
 10
579.3182933978836
 20
3407.137244005799
 10
567.4410518188645
 20
3377.157369479473
 10
532.6419542630231
 20
3281.382168199849
 10
525.1910957586527
 20
3262.681475195561
 10
518.5066942672332
 20
3249.775365645954
 10
506.5593204728673
 20
3225.192296992926
 10
503.0871834970906
 20
3216.855622318469
 10
502.3817897927191
 20
3216.290224262704
 10
502.358256427626
 20
3218.07769483632
 10
509.0035849672735
 20
3248.019432170738
 10
522.1094294734065
 20
3305.968312914558
 10
530.7244827525417
 20
3359.426382521598
 10
537.9343432723352
 20
3400.866418509639
 10
542.5981007508101
 20
3421.154468845113
 10
544.2304044201504
 20
3430.00361141366
 10
546.6512350983842
 20
3435.861288974923
 10
550.6978390366947
 20
3440.026694596407
 10
557.2074724411544
 20
3443.798991480934
 10
565.9041160165265
 20
3448.0555938696
 10
570.9761833523019
 20
3449.337206597527
 10
575.0322245283909
 20
3447.479205612877
 10
580.6807896247026
 20
3442.316986773597
  0
LWPOLYLINE
  5
CB7
330
C7F
100
AcDbEntity
  8
0
  6
ByBlock
 62
     0
100
AcDbPolyline
 90
       22
 70
     0
 43
0.0
 10
90.05541223750595
 20
2343.675057497798
 10
79.32326199517627
 20
2303.072008933741
 10
70.66463615300597
 20
2277.525973696299
 10
62.04289318633084
 20
2262.223841059749
 10
51.42136170580977
 20
2252.352470433693
 10
41.00028193405103
 20
2246.52629015126
 10
37.33936038313629
 20
2246.181492506012
 10
34.5744985863513
 20
2247.693103062667
 10
31.32190680252199
 20
2256.718158530772
 10
30.42040172237455
 20
2274.466695963546
 10
30.68522176391741
 20
2288.845601945229
 10
31.98318042478979
 20
2297.832908462222
 10
35.06956532892571
 20
2304.046712336025
 10
40.6996342355834
 20
2310.105130297924
 10
50.03505337691638
 20
2321.880851886579
 10
58.03772150923816
 20
2336.356330277218
 10
63.91033140875913
 20
2348.13864200449
 10
70.28008862331842
 20
2356.894606782311
 10
77.69024157359979
 20
2363.218163342303
 10
86.68401877050326
 20
2367.703260370978
 10
96.01154368234473
 20
2370.48465724366
 10
90.05541223750595
 20
2343.675057497798
  0
LWPOLYLINE
  5
CB8
330
C7F
100
AcDbEntity
  8
0
  6
ByBlock
 62
     0
100
AcDbPolyline
 90
       34
 70
     0
 43
0.0
 10
-460.5702007488054
 20
3801.760080240855
 10
-458.316900950923
 20
3794.985248508949
 10
-454.2172374373393
 20
3792.358809487808
 10
-449.4635375080965
 20
3791.336641159652
 10
-446.222035474146
 20
3788.113844368091
 10
-444.3573945764184
 20
3782.456001312276
 10
-443.7343178754121
 20
3774.128704146245
 10
-442.8379097000564
 20
3765.682665026395
 10
-440.7562521529927
 20
3761.113727895853
 10
-438.8308167287744
 20
3756.278547174188
 10
-439.5231496146169
 20
3748.442036147098
 10
-442.0743495607276
 20
3741.144154470725
 10
-445.7255451819911
 20
3737.924871756101
 10
-450.6228444308058
 20
3740.761139994431
 10
-455.7203166514031
 20
3747.582510847236
 10
-459.462649310495
 20
3753.593503702833
 10
-461.1004978547745
 20
3754.486835816507
 10
-464.0443187481245
 20
3755.448647633428
 10
-470.9231890581119
 20
3761.633482771012
 10
-477.4504326668224
 20
3770.565479907101
 10
-479.3446495491913
 20
3778.072533777777
 10
-479.6159402706456
 20
3782.585285496906
 10
-483.2849651037876
 20
3782.609864125676
 10
-488.3739856209311
 20
3782.256983107985
 10
-492.5299540046361
 20
3785.025587944227
 10
-495.3320869177106
 20
3790.422174809897
 10
-496.359640842532
 20
3797.953210015815
 10
-495.7992799622053
 20
3802.882663566343
 10
-493.7678846657148
 20
3806.590651847445
 10
-483.1901348009632
 20
3812.699541112653
 10
-473.4825719255876
 20
3815.566321095489
 10
-466.8046510689715
 20
3814.857582547348
 10
-462.6644810991423
 20
3810.334955575187
 10
-460.5702007488054
 20
3801.760080240855
  0
LWPOLYLINE
  5
CB9
330
C7F
100
AcDbEntity
  8
0
  6
ByBlock
 62
     0
100
AcDbPolyline
 90
       45
 70
     0
 43
0.0
 10
120.0186620939065
 20
4074.186127282586
 10
124.9019149898676
 20
4068.260736544774
 10
131.7763951924079
 20
4065.11146658679
 10
137.4234770097858
 20
4065.232627579407
 10
137.507765081801
 20
4068.082504155337
 10
137.23910245188
 20
4070.864348998165
 10
141.4691451882321
 20
4070.972777683697
 10
144.2503827826393
 20
4069.994609978937
 10
144.3888254680668
 20
4068.325702171082
 10
135.7377752988385
 20
4061.216804167691
 10
93.876328815399
 20
4024.384350201603
 10
45.58815326950287
 20
3978.140083251656
 10
31.80231994382041
 20
3966.380160076877
 10
28.18564788860738
 20
3964.659287731888
 10
26.96121606131271
 20
3965.848548925142
 10
27.94234036904675
 20
3971.369313115758
 10
30.38791890921937
 20
3976.603645193927
 10
33.70926913327651
 20
3980.607940840508
 10
37.31770849266366
 20
3982.438605691255
 10
39.30103161485852
 20
3982.877596526229
 10
38.96126119015742
 20
3983.316577406309
 10
39.8010359839501
 20
3986.788057359203
 10
44.62590343732597
 20
3994.515920693133
 10
51.55920709770668
 20
4001.784604670767
 10
57.29671915556981
 20
4003.348259403693
 10
60.68391103644819
 20
4003.253439055762
 10
61.75327550838926
 20
4005.760917115456
 10
61.50234254142549
 20
4011.847696565152
 10
62.91175617504848
 20
4016.105563225123
 10
66.43552917651811
 20
4019.213072410447
 10
72.52768426798628
 20
4021.8487794362
 10
80.22876894197622
 20
4026.027026868584
 10
81.27536657552161
 20
4028.504978718099
 10
80.71033685076679
 20
4031.548557585899
 10
79.96318237373623
 20
4035.577541365064
 10
83.04572468949425
 20
4034.712749927245
 10
85.90745754199895
 20
4033.573143736143
 10
85.15284685073254
 20
4035.952432649346
 10
86.31878373162805
 20
4042.674155031516
 10
92.87895812364139
 20
4053.17814910017
 10
107.2951650862918
 20
4074.186127282586
 10
110.9734081495847
 20
4079.766053397376
 10
113.9958129617356
 20
4082.087832898506
 10
116.8189108777232
 20
4079.766053397376
 10
120.0186620939065
 20
4074.186127282586
  0
LWPOLYLINE
  5
CBA
330
C7F
100
AcDbEntity
  8
0
  6
ByBlock
 62
     0
100
AcDbPolyline
 90
       19
 70
     0
 43
0.0
 10
442.8400068427726
 20
3415.711084031346
 10
438.8083850171804
 20
3400.785644514561
 10
435.2056498110076
 20
3378.916807076733
 10
427.1805931261923
 20
3304.209303377661
 10
418.450092962545
 20
3233.971964369008
 10
414.0707965278673
 20
3205.877028765545
 10
413.6704406294114
 20
3228.704163943358
 10
414.4952930398388
 20
3253.594520207933
 10
417.0453481733505
 20
3281.382168199849
 10
419.5589684015143
 20
3316.262467811132
 10
420.2973327087573
 20
3358.204260229288
 10
420.1487957626681
 20
3385.446141212799
 10
421.0580955233857
 20
3400.513477762596
 10
423.8723634500169
 20
3408.693163787509
 10
429.4387210467779
 20
3415.272093196373
 10
437.0337363446822
 20
3422.424563762798
 10
441.7061147597768
 20
3424.87880305916
 10
443.5951152786482
 20
3422.639440110317
 10
442.8400068427726
 20
3415.711084031346
  0
LWPOLYLINE
  5
CBB
330
C7F
100
AcDbEntity
  8
0
  6
ByBlock
 62
     0
100
AcDbPolyline
 90
       18
 70
     0
 43
0.0
 10
331.5103164100545
 20
3138.024244808053
 10
331.8465727578194
 20
3066.390065194589
 10
333.2457228976135
 20
3049.895595303104
 10
335.6753935200962
 20
3041.433857318299
 10
338.163379900919
 20
3036.116839905756
 10
338.6907701783743
 20
3032.242863752589
 10
337.0853447178964
 20
3028.615818699734
 10
333.1749436142753
 20
3024.039584633229
 10
325.684126172729
 20
3016.067647253041
 10
323.9036140687416
 20
3082.262822205294
 10
320.3495981048553
 20
3159.608183186828
 10
317.3179850174459
 20
3182.29314259465
 10
316.4303570569854
 20
3199.199655427999
 10
317.6946283627497
 20
3210.899600377445
 10
321.1187031191233
 20
3217.964876043341
 10
329.7543829348386
 20
3224.900807795255
 10
331.3342840517884
 20
3199.500790916183
 10
331.5103164100545
 20
3138.024244808053
  0
LWPOLYLINE
  5
CBC
330
C7F
100
AcDbEntity
  8
0
  6
ByBlock
 62
     0
100
AcDbPolyline
 90
       17
 70
     0
 43
0.0
 10
509.7867263795031
 20
3446.439914870186
 10
494.1799939522933
 20
3367.42290848545
 10
488.5710991012842
 20
3342.95573468708
 10
488.0188215934011
 20
3342.647720368406
 10
487.6714555859734
 20
3344.388462678169
 10
487.3213121636298
 20
3353.466746954715
 10
490.3415169446101
 20
3399.12101731034
 10
495.6936054422743
 20
3451.707715295835
 10
498.0914403195928
 20
3477.186744154072
 10
500.6795828705516
 20
3491.524387107707
 10
504.2383074984353
 20
3497.26891736455
 10
509.5479184712038
 20
3496.968657906876
 10
513.816596144073
 20
3496.99938865901
 10
517.3372433094012
 20
3499.658748508563
 10
519.3621081966269
 20
3502.116780618842
 10
519.2604289279887
 20
3497.461634122095
 10
509.7867263795031
 20
3446.439914870186
  0
LWPOLYLINE
  5
CBD
330
C7F
100
AcDbEntity
  8
0
  6
ByBlock
 62
     0
100
AcDbPolyline
 90
       13
 70
     0
 43
0.0
 10
-529.4203553980552
 20
2907.396430684472
 10
-524.0255803227604
 20
2901.79604726627
 10
-521.4931951228535
 20
2895.401213678331
 10
-521.1798748466518
 20
2884.248897302124
 10
-522.4422746326876
 20
2864.376065519119
 10
-527.6995427824198
 20
2810.791996841865
 10
-530.4879678089743
 20
2791.476728614486
 10
-530.9831341004704
 20
2811.870141528701
 10
-534.8180970312174
 20
2846.988811033029
 10
-539.3791299773755
 20
2886.866496379018
 10
-540.479663216705
 20
2907.328667733462
 10
-539.9103031138557
 20
2916.148005354847
 10
-529.4203553980552
 20
2907.396430684472
  0
LWPOLYLINE
  5
CBE
330
C7F
100
AcDbEntity
  8
0
  6
ByBlock
 62
     0
100
AcDbPolyline
 90
       16
 70
     0
 43
0.0
 10
327.7245206917422
 20
2950.487037568988
 10
321.1429034619922
 20
2939.459008021541
 10
310.3552646506991
 20
2928.284143814566
 10
298.4146402732257
 20
2919.625955987651
 10
288.3740563900409
 20
2916.148005354847
 10
285.5719135220737
 20
2916.373204925548
 10
284.6339138072261
 20
2917.399106338269
 10
288.342449607397
 20
2923.954880667942
 10
292.203743227937
 20
2931.01154535211
 10
293.8104230048283
 20
2937.022538207705
 10
299.7428418965145
 20
2946.707831989293
 10
314.0036529923699
 20
2962.606491629429
 10
331.0357766551373
 20
2978.448965858149
 10
333.2546723456756
 20
2978.0755578528
 10
333.2100545189636
 20
2973.243940982531
 10
327.7245206917422
 20
2950.487037568988
  0
LWPOLYLINE
  5
CBF
330
C7F
100
AcDbEntity
  8
0
  6
ByBlock
 62
     0
100
AcDbPolyline
 90
       13
 70
     0
 43
0.0
 10
336.0827676175335
 20
2766.893659961457
 10
331.0959141587449
 20
2734.556387329811
 10
328.320659454533
 20
2723.72052702084
 10
323.2855247687129
 20
2713.485185627215
 10
316.6375581826404
 20
2703.680054853668
 10
315.6437015678197
 20
2715.971589180182
 10
316.9849042802838
 20
2735.759913883546
 10
321.9220430075687
 20
2762.208389961
 10
328.5224849384152
 20
2786.770334332841
 10
334.8536072164569
 20
2800.899063919367
 10
340.3066681854156
 20
2805.657651700666
 10
340.56039847708
 20
2797.91046592103
 10
336.0827676175335
 20
2766.893659961457
  0
LWPOLYLINE
  5
CC0
330
C7F
100
AcDbEntity
  8
0
  6
ByBlock
 62
     0
100
AcDbPolyline
 90
       15
 70
     0
 43
0.0
 10
198.5264458794007
 20
3754.606244748103
 10
206.4162952187438
 20
3717.145159251174
 10
207.032134713142
 20
3706.454262082003
 10
205.4377990025431
 20
3701.050268776557
 10
203.4775712301861
 20
3699.83861903081
 10
201.3740826045908
 20
3700.121377788047
 10
196.675254040996
 20
3705.271531298015
 10
191.2172156259524
 20
3716.703540324669
 10
184.8758198991894
 20
3734.620205931323
 10
178.9548192688233
 20
3756.71643301613
 10
179.8977466552955
 20
3761.689946919409
 10
183.2638739843399
 20
3766.104095431578
 10
191.6783063215456
 20
3773.043541260427
 10
194.5716459566946
 20
3767.62692515171
 10
198.5264458794007
 20
3754.606244748103
  0
LWPOLYLINE
  5
CC1
330
C7F
100
AcDbEntity
  8
0
  6
ByBlock
 62
     0
100
AcDbPolyline
 90
       14
 70
     0
 43
0.0
 10
41.41605796048054
 20
2678.219024440477
 10
56.49952143559392
 20
2658.447204948333
 10
62.78576705972739
 20
2648.336538624262
 10
46.19571029361407
 20
2650.82294217723
 10
31.59644281882413
 20
2654.955098458861
 10
21.34574102657837
 20
2662.693056053454
 10
15.54665796063557
 20
2669.74719219501
 10
13.5344656511437
 20
2674.394593785647
 10
15.25846383227429
 20
2678.120142496539
 10
20.66794228330616
 20
2682.408680179289
 10
26.76828029613933
 20
2686.355794925239
 10
31.01302640822871
 20
2687.225205433026
 10
35.27226684331925
 20
2684.638934401796
 10
41.41605796048054
 20
2678.219024440477
  0
LWPOLYLINE
  5
CC2
330
C7F
100
AcDbEntity
  8
0
  6
ByBlock
 62
     0
100
AcDbPolyline
 90
       21
 70
     0
 43
0.0
 10
-309.4440369804321
 20
3705.440107442045
 10
-300.0840292554359
 20
3693.923810343375
 10
-296.1867387448038
 20
3687.195955747628
 10
-293.5760981375377
 20
3682.12832829376
 10
-287.3017087899803
 20
3674.605914024462
 10
-280.7670089670336
 20
3665.486028253532
 10
-280.4637829514935
 20
3661.500447804233
 10
-281.8126608858225
 20
3656.853424499498
 10
-284.2727237941043
 20
3652.079476319578
 10
-285.0721215452498
 20
3651.573608518998
 10
-285.4263763380605
 20
3652.512753046444
 10
-286.9821368414952
 20
3656.834988039197
 10
-290.4132297968491
 20
3661.415333476167
 10
-302.8152236068971
 20
3675.234585374869
 10
-314.9343989303564
 20
3690.924242053866
 10
-324.1371890432903
 20
3704.828767558908
 10
-327.7900272217615
 20
3713.292635890637
 10
-327.0045762745482
 20
3718.771748812408
 10
-324.1666555241176
 20
3719.495031458012
 10
-318.5539280396227
 20
3715.153981719057
 10
-309.4440369804321
 20
3705.440107442045
  0
LWPOLYLINE
  5
CC3
330
C7F
100
AcDbEntity
  8
0
  6
ByBlock
 62
     0
100
AcDbPolyline
 90
       25
 70
     0
 43
0.0
 10
-375.6462400865574
 20
3688.228447298966
 10
-376.7129665120732
 20
3679.160366786895
 10
-372.3169856781165
 20
3683.490934024394
 10
-366.8244236970221
 20
3690.51466792526
 10
-359.6988512492436
 20
3683.490934024394
 10
-354.8480811664378
 20
3676.249466721956
 10
-354.6382519492496
 20
3668.565494507609
 10
-356.6211967855417
 20
3663.530688333231
 10
-359.1207109314991
 20
3661.047470345759
 10
-361.8855926380683
 20
3661.225812239008
 10
-364.6646302013054
 20
3664.175665797014
 10
-365.1044871118974
 20
3666.655917226619
 10
-363.1158978517441
 20
3667.687532747446
 10
-360.4898968458573
 20
3668.788065986776
 10
-359.3968297756561
 20
3671.434693529242
 10
-361.3336237318421
 20
3673.473774002488
 10
-366.0202077780656
 20
3673.081760303672
 10
-373.9811748670815
 20
3673.991776816626
 10
-384.4575142452833
 20
3680.572567790326
 10
-397.6094499021696
 20
3691.090618166727
 10
-392.9772992063391
 20
3704.600770663507
 10
-387.0071313635391
 20
3717.1837842328
 10
-380.2432699228074
 20
3708.586739353601
 10
-375.4741598204831
 20
3699.28204100951
 10
-375.6462400865574
 20
3688.228447298966
  0
LWPOLYLINE
  5
CC4
330
C7F
100
AcDbEntity
  8
0
  6
ByBlock
 62
     0
100
AcDbPolyline
 90
       27
 70
     0
 43
0.0
 10
-1169.131502034612
 20
3841.98851625761
 10
-1160.274574740388
 20
3832.46564649669
 10
-1156.590627523881
 20
3826.185114980662
 10
-1155.501512545872
 20
3823.376939448041
 10
-1152.882091723711
 20
3822.209678566485
 10
-1147.31013947755
 20
3818.845313253356
 10
-1139.123037057969
 20
3811.116563934021
 10
-1131.718876952775
 20
3802.570000313025
 10
-1128.495691920419
 20
3796.752152275339
 10
-1131.590528528009
 20
3796.363214638204
 10
-1139.031292771718
 20
3799.382543388674
 10
-1146.664335757716
 20
3805.239464378132
 10
-1149.566893623016
 20
3811.765383986183
 10
-1149.772501965923
 20
3816.325162615928
 10
-1151.106407742426
 20
3818.225023922159
 10
-1161.461586128011
 20
3815.336950424969
 10
-1168.228075660276
 20
3813.637650331315
 10
-1168.23597984466
 20
3817.356280392147
 10
-1168.157843896007
 20
3821.2048417056
 10
-1172.562594989966
 20
3821.595103343394
 10
-1177.071723128343
 20
3822.619083461926
 10
-1180.64252304043
 20
3827.23209090011
 10
-1183.116303790124
 20
3835.106520111481
 10
-1184.334374441321
 20
3845.914775504461
 10
-1184.239066303672
 20
3851.60784892367
 10
-1182.470888311085
 20
3853.057042306411
 10
-1169.131502034612
 20
3841.98851625761
  0
LWPOLYLINE
  5
CC5
330
C7F
100
AcDbEntity
  8
0
  6
ByBlock
 62
     0
100
AcDbPolyline
 90
       14
 70
     0
 43
0.0
 10
246.6776520639099
 20
2683.012713171573
 10
244.4120679290885
 20
2648.636808036827
 10
242.7875489854258
 20
2638.551825334559
 10
240.9111712698285
 20
2633.846575865514
 10
239.9311519551255
 20
2634.039053705647
 10
239.1793385885588
 20
2636.473980511197
 10
238.3098683514194
 20
2646.89755896089
 10
238.7540058656449
 20
2681.74405175836
 10
241.4356447638773
 20
2719.607693184914
 10
243.363041301853
 20
2733.802682533732
 10
245.5468360425951
 20
2741.71006243819
 10
249.170645755495
 20
2746.741693001965
 10
249.0832816217993
 20
2738.798724357995
 10
246.6776520639099
 20
2683.012713171573
  0
LWPOLYLINE
  5
CC6
330
C7F
100
AcDbEntity
  8
0
  6
ByBlock
 62
     0
100
AcDbPolyline
 90
       19
 70
     0
 43
0.0
 10
-340.1693537423356
 20
3738.778254887492
 10
-339.1926195420491
 20
3732.064008629342
 10
-339.9094812822019
 20
3728.144319611324
 10
-341.2712109823241
 20
3728.590328645279
 10
-341.8374950234928
 20
3732.365582132782
 10
-343.1224028207283
 20
3736.260244551881
 10
-346.2273336889797
 20
3736.973154199841
 10
-349.2865218277037
 20
3737.490131660085
 10
-353.6173976668593
 20
3740.204840710111
 10
-363.879726773161
 20
3749.807269969264
 10
-372.5854293004096
 20
3760.94000507257
 10
-374.9705020059645
 20
3765.567586472894
 10
-375.305583676453
 20
3768.762579250619
 10
-373.2862636641665
 20
3777.721345091757
 10
-371.8910755714563
 20
3778.313352574296
 10
-368.3473131465065
 20
3775.740928798076
 10
-357.5429998908266
 20
3764.311727051014
 10
-346.3310935300818
 20
3749.851559284535
 10
-340.1693537423356
 20
3738.778254887492
  0
LWPOLYLINE
  5
CC7
330
C7F
100
AcDbEntity
  8
0
  6
ByBlock
 62
     0
100
AcDbPolyline
 90
       13
 70
     0
 43
0.0
 10
350.7799315019369
 20
2963.797017093987
 10
340.1389680718966
 20
2936.28856400791
 10
333.375116586057
 20
2924.067261445665
 10
331.7277213001852
 20
2924.015077900902
 10
331.0449948852887
 20
2925.35129321239
 10
332.5287516536472
 20
2932.611634990384
 10
342.6903472060666
 20
2966.594222335437
 10
346.4884272613184
 20
2984.267689926345
 10
349.3260195003076
 20
2990.630757453365
 10
356.1460563975623
 20
2998.424024428863
 10
362.7290573573244
 20
3003.906492149295
 10
364.9924514158687
 20
3004.713774175041
 10
350.7799315019369
 20
2963.797017093987
  0
LWPOLYLINE
  5
CC8
330
C7F
100
AcDbEntity
  8
0
  6
ByBlock
 62
     0
100
AcDbPolyline
 90
       19
 70
     0
 43
0.0
 10
233.3430939101398
 20
2986.385344363501
 10
239.4537451912628
 20
2955.62139266508
 10
242.504680724377
 20
2946.073944275389
 10
246.6776520639099
 20
2939.199902088104
 10
249.4586706506892
 20
2934.277576240371
 10
249.4507166918446
 20
2929.036554474663
 10
247.0149636302452
 20
2924.870163318855
 10
242.5125849087607
 20
2923.171739255712
 10
238.8672626738788
 20
2925.492204711075
 10
236.970855715232
 20
2931.07343491674
 10
235.7662838978189
 20
2945.998874433525
 10
229.3922460796265
 20
2972.099068653472
 10
225.6421187399641
 20
2987.175842441045
 10
223.7679908299968
 20
3000.258093852732
 10
223.9904428504587
 20
3008.495289289719
 10
224.9568239628865
 20
3009.906196157169
 10
226.5300752118664
 20
3009.036885198303
 10
229.7509009347767
 20
3001.006124360273
 10
233.3430939101398
 20
2986.385344363501
  0
LWPOLYLINE
  5
CC9
330
C7F
100
AcDbEntity
  8
0
  6
ByBlock
 62
     0
100
AcDbPolyline
 90
        9
 70
     0
 43
0.0
 10
-945.8786104979189
 20
3282.284718543674
 10
-894.9565397166447
 20
3229.99652795483
 10
-952.902344398784
 20
3285.779025064317
 10
-991.7633465622035
 20
3324.151441119965
 10
-1001.979315735663
 20
3335.025388846383
 10
-1004.052650992871
 20
3337.633839377371
 10
-1003.824415180058
 20
3338.070719775205
 10
-983.9055420207596
 20
3320.243170363268
 10
-945.8786104979189
 20
3282.284718543674
  0
LWPOLYLINE
  5
CCA
330
C7F
100
AcDbEntity
  8
0
  6
ByBlock
 62
     0
100
AcDbPolyline
 90
       13
 70
     0
 43
0.0
 10
-274.9153541155334
 20
3431.767339569446
 10
-273.272687403443
 20
3425.835786753378
 10
-273.942572007439
 20
3419.841030326915
 10
-275.7834505775537
 20
3417.563589915516
 10
-279.0005332610077
 20
3418.510041333818
 10
-292.8293916306553
 20
3432.213338648508
 10
-304.7587669799751
 20
3447.570292876246
 10
-307.3838322259977
 20
3453.078274985313
 10
-307.7197102878598
 20
3457.035215209836
 10
-306.3673083217021
 20
3459.942053678769
 10
-303.9040598479254
 20
3460.074742436521
 10
-292.1235101365675
 20
3450.555824767793
 10
-274.9153541155334
 20
3431.767339569446
  0
LWPOLYLINE
  5
CCB
330
C7F
100
AcDbEntity
  8
0
  6
ByBlock
 62
     0
100
AcDbPolyline
 90
       15
 70
     0
 43
0.0
 10
51.27387002339867
 20
3622.956887242374
 10
53.02189931423083
 20
3610.892742562838
 10
51.38350325088197
 20
3606.903588307249
 10
47.81117028540018
 20
3602.76364729994
 10
41.36732876330154
 20
3597.861957943678
 10
39.32819851559418
 20
3598.462158302474
 10
37.29663398593686
 20
3600.962060689226
 10
33.1384257514934
 20
3609.079737690803
 10
31.49723236344437
 20
3616.641672882022
 10
32.38523860980729
 20
3623.422646782395
 10
35.81462927860014
 20
3629.197469776117
 10
41.36020106050716
 20
3634.421259623476
 10
45.29578804132177
 20
3635.319529363668
 10
48.35561329314498
 20
3631.596628654094
 10
51.27387002339867
 20
3622.956887242374
  0
LWPOLYLINE
  5
CCC
330
C7F
100
AcDbEntity
  8
0
  6
ByBlock
 62
     0
100
AcDbPolyline
 90
       14
 70
     0
 43
0.0
 10
-290.7082231165633
 20
2614.706901981145
 10
-280.5167827974141
 20
2599.391658751605
 10
-278.6260799919813
 20
2597.125178676487
 10
-278.9188832354183
 20
2595.103668587924
 10
-285.8131238989184
 20
2597.560217419269
 10
-299.7899119662326
 20
2606.064203966449
 10
-311.9642373923213
 20
2615.532630422084
 10
-314.6870895441431
 20
2618.739021551346
 10
-314.5221967102165
 20
2620.304826540981
 10
-311.4686231306772
 20
2624.582712489109
 10
-310.1534325514561
 20
2632.856233327629
 10
-310.0761726333143
 20
2643.978316696312
 10
-303.7688525024536
 20
2635.778103683741
 10
-290.7082231165633
 20
2614.706901981145
  0
LWPOLYLINE
  5
CCD
330
C7F
100
AcDbEntity
  8
0
  6
ByBlock
 62
     0
100
AcDbPolyline
 90
       11
 70
     0
 43
0.0
 10
1216.209298721428
 20
3448.181801992549
 10
1204.117509306331
 20
3439.068506360236
 10
1189.821129380748
 20
3434.559268718045
 10
1174.502372074272
 20
3432.185245942799
 10
1186.021297264474
 20
3441.944723580849
 10
1206.246243538474
 20
3456.6069856133
 10
1220.656198828841
 20
3463.079138848733
 10
1224.444483270196
 20
3462.988350232131
 10
1225.295706189986
 20
3460.543349075705
 10
1222.715457868519
 20
3455.641908591746
 10
1216.209298721428
 20
3448.181801992549
  0
LWPOLYLINE
  5
CCE
330
C7F
100
AcDbEntity
  8
0
  6
ByBlock
 62
     0
100
AcDbPolyline
 90
       13
 70
     0
 43
0.0
 10
91.87807335494733
 20
3654.879757622709
 10
95.63796644382945
 20
3638.299795117257
 10
95.09653976841297
 20
3634.394102677633
 10
93.00538525421769
 20
3632.105293779375
 10
85.45355427855282
 20
3629.379644302853
 10
83.67199691088751
 20
3630.948186887835
 10
83.09840597886557
 20
3634.500391061346
 10
77.57423721512703
 20
3650.623374241671
 10
73.84419884786609
 20
3660.687501444841
 10
74.96124725330844
 20
3664.068113141995
 10
78.1185806739494
 20
3668.007114650824
 10
85.14933277379611
 20
3674.711266648312
 10
91.87807335494733
 20
3654.879757622709
  0
LWPOLYLINE
  5
CCF
330
C7F
100
AcDbEntity
  8
0
  6
ByBlock
 62
     0
100
AcDbPolyline
 90
       20
 70
     0
 43
0.0
 10
11.18590749007319
 20
2819.195896903154
 10
17.00589582957639
 20
2814.411854462573
 10
19.30402250690633
 20
2809.372319714414
 10
17.94433355967942
 20
2805.387675024979
 10
12.79082525104979
 20
2803.768262941
 10
6.716618830166339
 20
2801.847715368838
 10
3.305276380880172
 20
2796.600541479768
 10
1.11947075191972
 20
2792.281382548698
 10
-1.92565112416571
 20
2790.835812746708
 10
-5.073487577675791
 20
2792.266460165333
 10
-7.567466803585716
 20
2796.575962850996
 10
-7.596873555059687
 20
2799.241902884275
 10
-5.305824806063469
 20
2798.876229830144
 10
-3.702649151217087
 20
2798.907508101346
 10
-2.850152005229233
 20
2801.5364756651
 10
-3.339176128255644
 20
2815.069454729629
 10
-3.991062287205863
 20
2829.273632443922
 10
-2.826061166174326
 20
2830.366649739663
 10
-0.4734911835590765
 20
2828.351331594029
 10
11.18590749007319
 20
2819.195896903154
  0
LWPOLYLINE
  5
CD0
330
C7F
100
AcDbEntity
  8
0
  6
ByBlock
 62
     0
100
AcDbPolyline
 90
       17
 70
     0
 43
0.0
 10
-147.4381018737195
 20
3672.01064377071
 10
-154.7895906444354
 20
3658.249827089053
 10
-159.4956564146381
 20
3652.451301497071
 10
-160.9942161076557
 20
3652.463804841639
 10
-161.9964846063618
 20
3654.377991237704
 10
-162.7322805514244
 20
3663.792870328348
 10
-161.2476377976624
 20
3675.33769814798
 10
-156.5865183656132
 20
3681.454053582317
 10
-153.0930878754819
 20
3684.014202976491
 10
-153.3239915993971
 20
3685.14151487576
 10
-153.9258345154018
 20
3686.650736258294
 10
-151.3222220620085
 20
3690.13538653353
 10
-145.8675284907341
 20
3693.914542338764
 10
-139.768185967118
 20
3696.234181538076
 10
-135.5099310663526
 20
3696.478972336571
 10
-135.5785302283051
 20
3694.033563029565
 10
-147.4381018737195
 20
3672.01064377071
  0
LWPOLYLINE
  5
CD1
330
C7F
100
AcDbEntity
  8
0
  6
ByBlock
 62
     0
100
AcDbPolyline
 90
       14
 70
     0
 43
0.0
 10
-781.5478198283959
 20
3933.247889756426
 10
-777.0539425848259
 20
3926.259714730397
 10
-775.3678128135153
 20
3921.312810253893
 10
-776.3327006921177
 20
3916.215776048551
 10
-779.7918863531793
 20
3908.77720188112
 10
-785.011833612161
 20
3899.820178146112
 10
-788.7225694435011
 20
3896.046676719632
 10
-790.5820935266527
 20
3901.573483529796
 10
-791.3564646788796
 20
3914.986177632219
 10
-793.4881654688887
 20
3939.569246285249
 10
-794.3782025132549
 20
3944.433734209466
 10
-792.0456717285802
 20
3944.663214383801
 10
-787.4492889603217
 20
3940.765366399208
 10
-781.5478198283959
 20
3933.247889756426
  0
LWPOLYLINE
  5
CD2
330
C7F
100
AcDbEntity
  8
0
  6
ByBlock
 62
     0
100
AcDbPolyline
 90
       10
 70
     0
 43
0.0
 10
393.7160185501683
 20
2985.338806459309
 10
389.6611221866796
 20
2975.691709598983
 10
382.3902381778756
 20
2966.539788985044
 10
372.8274293895637
 20
2957.742561179173
 10
375.8125133109637
 20
2974.697852984161
 10
381.3617086736216
 20
2999.84808170887
 10
384.2470843950331
 20
3001.768091716855
 10
388.7467255211703
 20
2999.54430817426
 10
393.5636887901623
 20
2994.036385794545
 10
393.7160185501683
 20
2985.338806459309
  0
LWPOLYLINE
  5
CD3
330
C7F
100
AcDbEntity
  8
0
  6
ByBlock
 62
     0
100
AcDbPolyline
 90
       12
 70
     0
 43
0.0
 10
269.3151465458585
 20
2865.812417090956
 10
258.8739280272365
 20
2856.347932772621
 10
253.2659191616311
 20
2853.678916677663
 10
252.7640532277031
 20
2858.241054616852
 10
256.2755916666946
 20
2865.55165864542
 10
263.0057557974263
 20
2874.359637734837
 10
272.15976693872
 20
2883.413890901682
 10
282.7094141428723
 20
2891.483286676228
 10
284.1891192701172
 20
2890.820748782654
 10
284.1141589320667
 20
2887.347188257298
 10
279.3880639188154
 20
2878.037661790502
 10
269.3151465458585
 20
2865.812417090956
  0
LWPOLYLINE
  5
CD4
330
C7F
100
AcDbEntity
  8
0
  6
ByBlock
 62
     0
100
AcDbPolyline
 90
       17
 70
     0
 43
0.0
 10
-934.1770727657252
 20
3650.774380001019
 10
-933.4935698692385
 20
3635.538148750644
 10
-935.0032889963802
 20
3633.280020830058
 10
-938.0436325242239
 20
3633.250166108437
 10
-943.5407538459328
 20
3637.176156573198
 10
-947.653418448692
 20
3644.527207328658
 10
-949.1341688396152
 20
3651.997448008086
 10
-948.4977326733149
 20
3654.744171991335
 10
-946.7355077062462
 20
3656.280988334967
 10
-944.2324197539996
 20
3658.31216462383
 10
-944.4106521434358
 20
3661.130872432371
 10
-945.3800396332997
 20
3665.560222064885
 10
-944.2719307210278
 20
3670.2002769451
 10
-941.9285291941022
 20
3673.188874943436
 10
-939.1920189302211
 20
3672.663843975426
 10
-936.5041184048131
 20
3664.906135874764
 10
-934.1770727657252
 20
3650.774380001019
  0
LWPOLYLINE
  5
CD5
330
C7F
100
AcDbEntity
  8
0
  6
ByBlock
 62
     0
100
AcDbPolyline
 90
       10
 70
     0
 43
0.0
 10
309.3609700206219
 20
3030.28368124391
 10
310.0808978675635
 20
3017.817428604895
 10
306.4601642163451
 20
3009.212479541313
 10
303.5337444745108
 20
3006.396728335749
 10
301.9548786663467
 20
3009.027228952897
 10
301.4136112692043
 20
3039.063348619992
 10
302.2358355880991
 20
3064.784699463464
 10
303.0764266830496
 20
3065.953334120138
 10
304.3144170734821
 20
3060.134550322588
 10
309.3609700206219
 20
3030.28368124391
  0
LWPOLYLINE
  5
CD6
330
C7F
100
AcDbEntity
  8
0
  6
ByBlock
 62
     0
100
AcDbPolyline
 90
       27
 70
     0
 43
0.0
 10
-1047.076570054731
 20
3110.210266126344
 10
-1044.497984200257
 20
3102.714182546839
 10
-1038.943084684385
 20
3099.53769591366
 10
-1020.957939374484
 20
3095.620644942068
 10
-1017.218344310738
 20
3093.265227860292
 10
-1016.115949506573
 20
3090.294459073834
 10
-1014.568531202778
 20
3086.292253954608
 10
-1010.848149080924
 20
3083.446319515979
 10
-1007.127766959069
 20
3080.550789804553
 10
-1005.580348655275
 20
3076.422585615115
 10
-1004.199027727359
 20
3072.623679303812
 10
-1000.901220823288
 20
3069.770676891741
 10
-996.9561368753412
 20
3068.573730521732
 10
-993.6329748609091
 20
3069.74302220129
 10
-992.1496561078058
 20
3076.135934495039
 10
-991.532880853544
 20
3088.56311418228
 10
-992.8872041138907
 20
3101.115078442891
 10
-996.4516926243414
 20
3110.130368161776
 10
-1001.478654343688
 20
3114.448093588374
 10
-1004.306908893821
 20
3114.48259724464
 10
-1007.220387275832
 20
3112.907374927011
 10
-1013.575550618468
 20
3111.36171863913
 10
-1024.295088012417
 20
3114.543909425524
 10
-1036.076414205364
 20
3118.819655071835
 10
-1043.321505088552
 20
3119.613726955669
 10
-1046.748755455528
 20
3116.789474272189
 10
-1047.076570054731
 20
3110.210266126344
  0
LWPOLYLINE
  5
CD7
330
C7F
100
AcDbEntity
  8
0
  6
ByBlock
 62
     0
100
AcDbPolyline
 90
     2011
 70
     1
 43
0.0
 10
-272.8696934585613
 20
0.0000000000003979
 10
272.8696934585613
 20
-0.0000000000003979
 10
264.0728704637366
 20
3.218605781956512
 10
235.945392317767
 20
11.84808369984887
 10
214.9317000272448
 20
18.14573763041085
 10
203.7450790926149
 20
22.79457272552037
 10
199.6340072726028
 20
32.67038323348419
 10
195.6256500300154
 20
51.53569033471808
 10
186.7090132925476
 20
99.63071110781283
 10
175.7260893615283
 20
160.3552845711009
 10
170.740559903399
 20
206.9463401447289
 10
167.1338726050338
 20
240.1053891251212
 10
158.5087250652358
 20
296.9344241387996
 10
153.8282831874825
 20
328.6263808403281
 10
149.8273921140229
 20
347.2067988374016
 10
147.32079008484
 20
362.1805195812177
 10
146.231237091575
 20
385.1981714854061
 10
145.1482145075755
 20
421.0521391901872
 10
142.4133965753634
 20
460.3117352361484
 10
138.529545169163
 20
497.1850241699253
 10
133.9994022534128
 20
525.8800506283695
 10
129.7237063815631
 20
560.4236558766327
 10
127.249597120427
 20
606.2034673774312
 10
125.2162307552866
 20
661.5294231770463
 10
124.8896206980361
 20
666.1124066604424
 10
119.8500959047691
 20
702.9870096399859
 10
116.5340118186708
 20
730.1921272067093
 10
116.3101362486285
 20
747.7914109411565
 10
116.1687767797952
 20
764.093054571281
 10
113.0511235593484
 20
788.1778808711326
 10
109.3087909002564
 20
823.0300877767088
 10
107.6709423559767
 20
865.2177063021436
 10
106.0085052280341
 20
911.596294612158
 10
102.2099871575268
 20
956.5262470133939
 10
93.49353334673322
 20
1060.126322051159
 10
86.62080520521511
 20
1142.655195386327
 10
79.88153234814706
 20
1232.207802622361
 10
74.56807878699954
 20
1325.272276808829
 10
70.91573835313681
 20
1379.706214540536
 10
65.71817964664877
 20
1446.431686598757
 10
57.9727558829278
 20
1545.360976004174
 10
51.60749827963002
 20
1651.875903199071
 10
47.07015797684005
 20
1708.065774405994
 10
42.96479031004184
 20
1751.964111286403
 10
35.71980893066791
 20
1839.760785047221
 10
31.19027326333992
 20
1901.618643345083
 10
27.60300795960132
 20
1981.035726891293
 10
25.90293138435834
 20
2051.273016125487
 10
27.03496190251838
 20
2085.591471577511
 10
34.75053094461748
 20
2097.222777545435
 10
49.51442247124567
 20
2115.322941679485
 10
64.04916233498113
 20
2133.97621953236
 10
71.21424574978789
 20
2146.92974423338
 10
76.09574658472673
 20
2164.608477962246
 10
81.16687816063802
 20
2187.435613140059
 10
88.22924699802058
 20
2222.554282644387
 10
107.0699754704832
 20
2310.804869623542
 10
111.3560443399759
 20
2340.102943539944
 10
112.8333802028841
 20
2363.028960661694
 10
113.8750899843734
 20
2383.485587141199
 10
115.9940684221877
 20
2398.147630166022
 10
126.931777232964
 20
2430.253113088349
 10
132.9906232552265
 20
2442.669760499674
 10
139.4076761624918
 20
2452.581567897729
 10
146.7751425351424
 20
2464.357299441275
 10
151.3269572511502
 20
2475.408703075542
 10
157.2062568382101
 20
2488.264769382202
 10
167.7660082579158
 20
2504.381600439165
 10
180.9214579917387
 20
2519.153834165433
 10
186.1986956551662
 20
2522.020673877622
 10
191.8433683886391
 20
2522.818906906383
 10
199.4240585967085
 20
2524.864298781267
 10
204.4176017430362
 20
2529.750010535594
 10
205.7236935508125
 20
2535.600401115789
 10
202.2419998785511
 20
2540.539789648704
 10
201.2215338369559
 20
2543.293691109208
 10
203.3653596856301
 20
2548.86422976068
 10
218.4141502713109
 20
2570.829639607463
 10
236.1640017498497
 20
2593.13438186369
 10
249.7786308399699
 20
2608.153765697897
 10
264.4365624943256
 20
2619.131752002398
 10
283.3525200869275
 20
2630.024793212002
 10
302.6642244629101
 20
2638.841004997245
 10
318.5093865125158
 20
2643.588503028665
 10
329.8983704952051
 20
2646.259271184647
 10
337.0625778795005
 20
2649.446290093742
 10
348.2443607365352
 20
2657.909889643383
 10
352.5749279740334
 20
2662.74145673919
 10
350.9818565347408
 20
2666.973142032751
 10
343.5309980303699
 20
2670.547675029403
 10
330.2881841628517
 20
2673.407765324699
 10
313.1256912322082
 20
2676.055706912932
 10
332.4409594595881
 20
2678.707172532992
 10
358.5271073266803
 20
2683.574617060185
 10
362.7064497972036
 20
2686.206869738355
 10
362.7834907077176
 20
2689.62205477602
 10
362.6729714948313
 20
2692.505847669576
 10
365.72906366209
 20
2695.282306915741
 10
386.874897191295
 20
2703.760828848746
 10
391.3850108639962
 20
2706.126509424351
 10
388.6308306665113
 20
2708.12607893057
 10
374.9872228852804
 20
2716.494858132278
 10
369.6456766184259
 20
2721.598034506089
 10
370.0279245680225
 20
2722.674476906364
 10
372.3533276499023
 20
2722.995323081048
 10
376.4082140584991
 20
2724.026938601875
 10
378.0952298152127
 20
2726.50719003148
 10
380.467938544691
 20
2728.987441461086
 10
386.1725198192516
 20
2730.019056981913
 10
392.8793098631648
 20
2731.021255796374
 10
397.6633523037457
 20
2733.432589507477
 10
406.5253267283
 20
2736.7075698438
 10
423.7565283247112
 20
2740.48661614522
 10
458.8681696751649
 20
2744.951514697679
 10
475.382728539051
 20
2742.26273814176
 10
502.7594784017009
 20
2735.74691279437
 10
528.7051527853635
 20
2729.851745109189
 10
549.5963700375008
 20
2726.874615146634
 10
563.1324251637119
 20
2727.006149136894
 10
566.4232935079402
 20
2728.297228967277
 10
567.0126032147012
 20
2730.43697331016
 10
561.2496265426638
 20
2735.928649305851
 10
549.2390391830098
 20
2743.606469396836
 10
537.5634040802459
 20
2751.163566510459
 10
532.6068433583349
 20
2756.358059110159
 10
534.5820532434098
 20
2758.085292631245
 10
540.1071478121206
 20
2759.723967431574
 10
558.4080921663748
 20
2762.401106718545
 10
580.7118986627382
 20
2763.720468397586
 10
600.2208094526357
 20
2763.013043895212
 10
613.5435212847222
 20
2762.42217127038
 10
616.1639774156691
 20
2763.687657072989
 10
616.9021824446371
 20
2766.145629453915
 10
612.9156065061205
 20
2770.541719791685
 10
602.8094995226637
 20
2774.761996778818
 10
589.3642628777327
 20
2777.933983800736
 10
575.3603079096832
 20
2779.185194287971
 10
565.1082920716702
 20
2780.726022453148
 10
554.966894995467
 20
2784.431920206893
 10
544.9089099607666
 20
2789.678656080708
 10
557.2250229160525
 20
2789.699720632542
 10
581.1303027807015
 20
2786.395054807764
 10
591.438075969765
 20
2784.833590151116
 10
599.9468906396481
 20
2785.745358725092
 10
603.7160019586816
 20
2787.448670640291
 10
604.5193418471271
 20
2789.391995005741
 10
595.96443602649
 20
2797.850766432678
 10
587.0232206602516
 20
2804.510579340435
 10
581.2637580651506
 20
2807.280129891433
 10
572.5016511188591
 20
2812.547930317082
 10
566.01874659988
 20
2816.345572357078
 10
557.8290658632266
 20
2818.075613157757
 10
556.656210332272
 20
2818.711969684919
 10
560.4199460095327
 20
2820.250767052094
 10
579.8625173980002
 20
2825.109879334539
 10
603.0957126274828
 20
2830.922013264119
 10
614.8056025142085
 20
2835.385597770812
 10
616.7265881016259
 20
2838.99931322305
 10
594.0750472668249
 20
2840.23197774617
 10
574.6542074079674
 20
2842.215251093904
 10
558.3058056493135
 20
2845.596788596029
 10
547.342413216735
 20
2849.740193905814
 10
544.6027771167126
 20
2851.89870322044
 10
544.0766013361025
 20
2854.009030856957
 10
549.5730556800357
 20
2857.411812098976
 10
560.7794768951943
 20
2859.193429195995
 10
573.840823033321
 20
2859.087847609625
 10
584.9020521461596
 20
2856.829062666156
 10
611.6238497430707
 20
2850.806213533985
 10
625.6642893909287
 20
2849.658265143244
 10
626.487937259404
 20
2851.086224740982
 10
624.364897225584
 20
2854.160046571198
 10
619.9522419472394
 20
2858.254881962078
 10
616.0979665256808
 20
2859.958134147923
 10
609.6479828351124
 20
2863.135058796358
 10
598.991659006452
 20
2870.771167889146
 10
591.0591728639387
 20
2876.728722883564
 10
585.4020565152512
 20
2879.410361781797
 10
579.8285513059112
 20
2879.32377412969
 10
572.1469483559011
 20
2876.976639518201
 10
556.2443366235737
 20
2872.457745630604
 10
555.6847422699441
 20
2873.250005724063
 10
561.0599858467988
 20
2876.151349092517
 10
588.2544019044379
 20
2888.029745439027
 10
611.307343901374
 20
2896.354683295613
 10
632.4157968104754
 20
2901.810641138193
 10
653.7767854241804
 20
2905.082117352471
 10
671.3734311122029
 20
2908.259918031417
 10
673.8693316323014
 20
2910.936778581408
 10
674.0121644251761
 20
2915.270033639793
 10
674.6789829223834
 20
2920.855225892541
 10
677.5240313756088
 20
2923.087451183697
 10
688.1572498995391
 20
2921.67036232821
 10
700.7800531728411
 20
2918.398677061196
 10
712.2920099385226
 20
2914.228164580029
 10
719.5926789847038
 20
2910.114613991865
 10
724.5896267041538
 20
2906.741468463842
 10
727.8666378384799
 20
2906.539533476145
 10
728.9969660700784
 20
2910.955165267248
 10
726.7687426455753
 20
2917.255994808413
 10
721.879626318126
 20
2924.149468945216
 10
715.0272559310982
 20
2930.342974793881
 10
706.9420617426757
 20
2938.570832542012
 10
704.6988562054547
 20
2949.071760503876
 10
702.7936690319132
 20
2958.923420443433
 10
699.8393059077542
 20
2961.800414145635
 10
695.0412270692112
 20
2964.102552644511
 10
685.3835879780748
 20
2967.758397200418
 10
695.1184869873535
 20
2970.448487802105
 10
707.6460816719271
 20
2970.209630119344
 10
724.5953408122603
 20
2965.782540247352
 10
741.1231695474106
 20
2958.815708510138
 10
752.3864929262207
 20
2950.957635186606
 10
761.4300445839806
 20
2943.356467765339
 10
773.9111698318992
 20
2935.314457899157
 10
785.7529122654349
 20
2929.203756843573
 10
792.878325434939
 20
2927.396515854105
 10
793.6602722601077
 20
2929.44255479698
 10
791.9690754486818
 20
2933.606536868883
 10
783.6210422422586
 20
2945.340836151213
 10
772.7418283778814
 20
2956.704415249081
 10
764.2390463726536
 20
2961.802275710472
 10
759.3922283820405
 20
2963.349694014267
 10
757.3768604619462
 20
2967.070076136121
 10
756.2837933917448
 20
2970.790458257976
 10
753.657792385858
 20
2972.33787656177
 10
751.6779833405993
 20
2973.383100420195
 10
752.1371527420041
 20
2975.8953966477
 10
751.7956800307419
 20
2977.783351902894
 10
749.2420610458333
 20
2980.294891558594
 10
739.1959223328171
 20
2985.879635841195
 10
724.0597775683326
 20
2992.306354948759
 10
767.9370399420148
 20
3013.493441551123
 10
824.1023325201672
 20
3040.130961030911
 10
863.6881006081233
 20
3058.125762586219
 10
894.2799720404694
 20
3070.670151173886
 10
898.632489815206
 20
3068.497187355826
 10
904.467898282683
 20
3063.274164035164
 10
910.4512364478253
 20
3058.737709717777
 10
915.1545048933284
 20
3058.220582934151
 10
917.4375499090187
 20
3062.887575752581
 10
916.5513554530315
 20
3070.434419327268
 10
913.0852511419101
 20
3078.718084200911
 10
907.6285765470938
 20
3085.595580735779
 10
902.8032710784627
 20
3091.015272906179
 10
910.6312208982844
 20
3092.28920045735
 10
928.5803693180945
 20
3092.155755127793
 10
934.0367751308225
 20
3092.644341235563
 10
936.22614461118
 20
3094.884470711103
 10
935.0316172799679
 20
3098.22030530327
 10
930.3363027933103
 20
3101.99600676092
 10
926.0017834636199
 20
3105.071082907549
 10
930.5013648604038
 20
3105.683468054363
 10
936.7002463508415
 20
3108.79497910634
 10
942.7437319744843
 20
3116.131266756711
 10
947.5512580056978
 20
3122.699554385843
 10
953.4268344630858
 20
3127.072489644423
 10
960.9038146045135
 20
3129.522677299671
 10
970.5155815525239
 20
3130.322722118808
 10
976.9854252529738
 20
3131.494532386084
 10
980.3452909548425
 20
3134.187091801029
 10
980.0282375940764
 20
3137.316223012148
 10
975.4673141517317
 20
3139.79773871306
 10
970.4936310152859
 20
3142.535901489041
 10
968.2592056929605
 20
3146.436925084237
 10
969.0669356888538
 20
3149.929698551485
 10
973.2197185070635
 20
3151.443091033839
 10
978.6894439655165
 20
3153.288140703773
 10
984.6332811185238
 20
3157.722308504099
 10
1003.013516188923
 20
3172.710961586172
 10
1020.766881744399
 20
3184.054292433363
 10
1053.632251450844
 20
3208.311627059653
 10
1115.994663503519
 20
3258.555033022036
 10
1168.913237684222
 20
3305.117119859446
 10
1187.800385818881
 20
3323.562320556155
 10
1195.756186318859
 20
3333.273516967174
 10
1194.173925892465
 20
3339.347673613595
 10
1187.875993224922
 20
3345.231861052712
 10
1178.944822344884
 20
3349.53372833608
 10
1169.462837326112
 20
3350.860944425044
 10
1158.372360740075
 20
3350.095353487712
 10
1179.299574882303
 20
3378.074404191408
 10
1195.057761039008
 20
3398.178517984231
 10
1203.55955750991
 20
3407.222895898041
 10
1205.948940683776
 20
3409.254948217416
 10
1207.008210895055
 20
3412.490696323691
 10
1209.333673706288
 20
3418.082359256351
 10
1216.09033775998
 20
3426.399442703014
 10
1242.938124472211
 20
3451.2546880629
 10
1257.166890770168
 20
3464.760450452234
 10
1263.085701324256
 20
3473.203851525659
 10
1262.652593830556
 20
3476.630833110546
 10
1260.7428473164
 20
3477.707385014635
 10
1248.83103239687
 20
3472.673564374582
 10
1239.085601111674
 20
3469.251241679231
 10
1231.120691885358
 20
3471.212624219079
 10
1221.743123730572
 20
3473.115173346196
 10
1206.786963416546
 20
3469.565557444649
 10
1182.126634845375
 20
3463.999249622349
 10
1171.275344453539
 20
3461.214398402085
 10
1156.464983490255
 20
3454.392101744306
 10
1142.05957758561
 20
3445.830775018219
 10
1132.423182234367
 20
3437.828813683243
 10
1126.229128866633
 20
3432.722999263006
 10
1119.302843405233
 20
3435.026352258726
 10
1110.510443722064
 20
3439.123377725884
 10
1108.958038017291
 20
3437.874417044279
 10
1108.563555505217
 20
3434.383674375034
 10
1106.500334418454
 20
3430.176020191176
 10
1101.539821604351
 20
3427.124646642806
 10
1096.579308790248
 20
3424.708484809
 10
1094.516087703486
 20
3422.028926483232
 10
1092.376920744348
 20
3419.445512506054
 10
1087.232471387594
 20
3417.259816380907
 10
1081.527004127631
 20
3413.774728090416
 10
1078.041915837139
 20
3408.069260830453
 10
1075.219255936407
 20
3402.924811473698
 10
1071.105984085225
 20
3400.785644514561
 10
1055.046214470189
 20
3395.082377285767
 10
1040.294617235392
 20
3390.850572533501
 10
1017.788816021979
 20
3389.684635652606
 10
1000.008343295121
 20
3388.709484280174
 10
985.3049277384341
 20
3385.678906501551
 10
975.2964384276104
 20
3381.091035166098
 10
972.5583752005503
 20
3378.368790262699
 10
971.6007444383411
 20
3375.444013078073
 10
969.7030234339276
 20
3373.499752952759
 10
965.1424185481326
 20
3372.690708911099
 10
960.0740842969219
 20
3375.22737471464
 10
954.7696797327583
 20
3381.284249668253
 10
950.8447843061352
 20
3388.531640131532
 10
949.9149675126531
 20
3394.63988232875
 10
948.3469127173865
 20
3396.499406411901
 10
943.713009960534
 20
3397.273777564128
 10
938.2169339025034
 20
3398.376500879735
 10
934.5751356994496
 20
3401.027966499796
 10
928.3621979012663
 20
3403.399351228616
 10
916.6786586141183
 20
3403.826923802269
 10
906.4055682693791
 20
3403.876529029958
 10
903.5758802147741
 20
3405.340535292249
 10
903.085094075833
 20
3407.083298445123
 10
898.4380209966383
 20
3407.809378415425
 10
893.0631059312252
 20
3408.840993936254
 10
890.8278045783886
 20
3411.321245365858
 10
893.149584079518
 20
3413.803258811378
 10
898.729500239416
 20
3414.836626393228
 10
908.6182122876337
 20
3418.735788423588
 10
921.1523373814728
 20
3427.911302131972
 10
931.913187577933
 20
3438.596047177782
 10
936.4820749340141
 20
3447.022883310634
 10
939.1295884618825
 20
3451.723075694455
 10
945.630491425908
 20
3454.998334767759
 10
952.4061991883234
 20
3458.28412611698
 10
953.3786030105156
 20
3460.781888201915
 10
952.9843395060678
 20
3464.153769458633
 10
952.6520252956032
 20
3469.578289751737
 10
954.3715238654725
 20
3472.98260404715
 10
956.62746170978
 20
3479.726705026921
 10
957.5848834192541
 20
3493.179348111628
 10
958.0288019258523
 20
3503.837921745919
 10
960.430369887735
 20
3511.660117638066
 10
966.4575095784325
 20
3519.805618563263
 10
977.7781233616883
 20
3531.434117251595
 10
1017.255014793966
 20
3566.763501958514
 10
1030.896422544027
 20
3579.05811234671
 10
1036.570283021346
 20
3587.125308090085
 10
1040.045167547362
 20
3593.389931688423
 10
1048.197198881823
 20
3601.494985886728
 10
1057.61745361424
 20
3608.50829701549
 10
1064.896998379234
 20
3611.497661540524
 10
1069.682354865581
 20
3613.079752733751
 10
1074.81802400744
 20
3616.884860942877
 10
1078.338233157512
 20
3622.928784581774
 10
1076.261403733152
 20
3630.932328744606
 10
1072.41766058751
 20
3637.048246163689
 10
1068.710886803254
 20
3639.592597143984
 10
1059.413604853829
 20
3634.559483301276
 10
1042.166883580523
 20
3621.647400816367
 10
1000.348890201411
 20
3585.309665171626
 10
977.18153662875
 20
3564.681406396194
 10
972.7951622657382
 20
3562.916742480544
 10
971.6007444383411
 20
3565.759103112883
 10
970.4589481709607
 20
3567.885537764933
 10
967.7131101731156
 20
3567.367544905688
 10
965.8101130758517
 20
3564.872361137826
 10
968.3557781019148
 20
3562.166462167372
 10
969.4907751779414
 20
3560.013577366822
 10
967.8667539788888
 20
3556.395591265842
 10
955.562049330031
 20
3543.634345307114
 10
936.9421303208213
 20
3529.147896625302
 10
940.4539972712539
 20
3535.342826023548
 10
961.0651435870426
 20
3565.527323358458
 10
998.6596744135285
 20
3623.076286219077
 10
1019.436320811665
 20
3656.066769010331
 10
1034.147093033666
 20
3683.728865902182
 10
1041.245896776397
 20
3702.753082947147
 10
1041.457647287774
 20
3707.991775268087
 10
1039.186627781826
 20
3709.829936152639
 10
1026.154967132155
 20
3698.53182042569
 10
997.3778526328654
 20
3666.317908817833
 10
978.5156116384204
 20
3639.848965482074
 10
959.3267705416163
 20
3615.023574843809
 10
949.2714135984501
 20
3602.686387381798
 10
933.5426441481116
 20
3580.034846546996
 10
911.6672265265583
 20
3548.284056432734
 10
878.6556692285779
 20
3499.117919126677
 10
838.564202573208
 20
3437.990361673399
 10
823.8178714763702
 20
3415.163226495586
 10
817.9183734130941
 20
3408.371272349147
 10
811.5263371498553
 20
3404.834826769943
 10
806.9789125412956
 20
3404.752738729098
 10
809.176902958274
 20
3408.171099377365
 10
812.2778717794407
 20
3412.999042892423
 10
813.5667316688691
 20
3418.211523982275
 10
822.5992533061033
 20
3451.749854354396
 10
841.62654641275
 20
3513.165386928407
 10
859.0945748939178
 20
3565.843391184898
 10
874.0454690699852
 20
3605.977614102144
 10
883.0700865228358
 20
3635.192664217836
 10
887.6671263139773
 20
3659.36446641059
 10
889.3352576402424
 20
3684.368905739449
 10
889.0647334454856
 20
3709.572691784039
 10
887.9827163055946
 20
3716.580925917793
 10
886.1701892683839
 20
3719.92918421539
 10
883.5526797855195
 20
3719.669341619932
 10
880.0557053537753
 20
3715.853223300066
 10
870.1253519916043
 20
3697.759649304634
 10
859.1437421063519
 20
3672.298618891442
 10
856.9135376583071
 20
3666.940876015025
 10
851.790332041447
 20
3660.142729925655
 10
845.8091242232288
 20
3654.232858864737
 10
841.0049529906771
 20
3651.539970938351
 10
831.7209409125169
 20
3649.440802735958
 10
823.1642233015058
 20
3644.231337978433
 10
814.1327469279493
 20
3634.92021872889
 10
803.4244585621539
 20
3620.516136824905
 10
780.4076826884765
 20
3590.595026027065
 10
774.9361952141088
 20
3583.149871675909
 10
764.8922565322631
 20
3565.141013812855
 10
740.0001382517737
 20
3521.945054304489
 10
723.5035877878257
 20
3492.891820961042
 10
719.8661199628672
 20
3488.997427324033
 10
718.746324007186
 20
3491.391807853768
 10
717.6712553820306
 20
3494.109553145906
 10
715.0869554194494
 20
3494.728090416082
 10
715.2402707137816
 20
3497.434636454528
 10
718.3626525080084
 20
3505.455084024266
 10
731.3785047889126
 20
3532.480655155787
 10
762.6376327337214
 20
3594.097674747346
 10
767.9298027354064
 20
3606.526994736406
 10
770.1600569579121
 20
3614.833934147945
 10
770.6681247896621
 20
3621.607173097102
 10
769.1648763424317
 20
3625.136431244158
 10
766.079317694346
 20
3625.094789930205
 10
761.8404449686384
 20
3621.155290676767
 10
748.2424903229055
 20
3597.506379150207
 10
734.0229422551
 20
3574.679243972395
 10
719.164240335432
 20
3553.551856858384
 10
708.8490009772398
 20
3538.855569004491
 10
713.4785235815369
 20
3553.011027476497
 10
718.2533477919673
 20
3567.56409429672
 10
718.4677064850937
 20
3571.518416384602
 10
717.3863563229782
 20
3573.208657526379
 10
711.7954599170151
 20
3569.649046913093
 10
702.3985792714159
 20
3556.589622069155
 10
686.3001846747541
 20
3531.128581701071
 10
677.6925975647467
 20
3516.677253878839
 10
663.6065047813912
 20
3496.213609200355
 10
655.424728229122
 20
3484.166148920098
 10
652.0208519489646
 20
3476.5331059341
 10
649.5498187495098
 20
3470.700335513048
 10
643.6099336886944
 20
3462.973786224885
 10
638.1287800140284
 20
3456.103258114537
 10
636.7617941308398
 20
3452.332822794844
 10
634.6006766344638
 20
3447.75599143481
 10
627.2060035415096
 20
3438.949107383532
 10
619.5194032356283
 20
3431.397276407867
 10
621.899568179343
 20
3436.374901681613
 10
625.793792583186
 20
3443.79942949619
 10
626.9988024158541
 20
3448.666436008127
 10
629.2468360757778
 20
3463.122163892699
 10
636.5545930051847
 20
3483.862365430597
 10
641.9439924387078
 20
3492.174521205634
 10
644.9229839660987
 20
3493.440713805588
 10
648.5160131524047
 20
3493.109116347359
 10
653.3508653626284
 20
3492.613561815068
 10
655.2166510729561
 20
3494.459865801417
 10
654.1193033991215
 20
3498.693143877724
 10
650.064745501966
 20
3505.358511615312
 10
645.2526103556773
 20
3511.067761734301
 10
641.1753254396947
 20
3512.593388779133
 10
637.0624916037685
 20
3509.818522315715
 10
632.1436897878637
 20
3502.626272000173
 10
626.1550755298697
 20
3494.676285157222
 10
620.498337467085
 20
3490.366344456303
 10
614.8938924528764
 20
3484.62828487937
 10
607.8516623623567
 20
3473.060739995803
 10
601.8360006623332
 20
3460.261854589775
 10
599.3112409098297
 20
3450.829743580781
 10
598.2345197725739
 20
3447.519921121858
 10
595.6466061841346
 20
3446.57073210821
 10
592.605655407869
 20
3447.909077766622
 10
590.1698525718082
 20
3451.461889188556
 10
585.5330927609028
 20
3456.440390492812
 10
577.0705882494011
 20
3460.175704952923
 10
566.7353793775126
 20
3462.081768156976
 10
556.48051644034
 20
3461.572545557733
 10
549.0050593974141
 20
3460.887300555118
 10
547.5609728743578
 20
3461.569091210151
 10
547.7535203987367
 20
3462.917590858577
 10
553.5340575005647
 20
3504.455961271487
 10
557.8277518174603
 20
3535.327465624927
 10
563.3145996904485
 20
3553.906559621341
 10
579.7031694390128
 20
3574.696804402185
 10
610.4333242785123
 20
3608.614416166036
 10
663.1113285350028
 20
3665.931599272231
 10
682.4195686085098
 20
3688.758734450042
 10
717.0606322511306
 20
3732.397188915426
 10
732.1914511483035
 20
3752.228538662754
 10
739.852208554107
 20
3764.022875899769
 10
741.9890162038004
 20
3771.636546665603
 10
740.5479957875335
 20
3778.925916909169
 10
738.811374803129
 20
3787.658617103986
 10
739.666519950434
 20
3792.263989139875
 10
742.8965539486037
 20
3798.169629371621
 10
746.869352316355
 20
3810.019992741777
 10
749.1970052038653
 20
3822.224113160134
 10
748.0541736276999
 20
3829.694781899925
 10
743.4760680414678
 20
3832.368466839313
 10
735.4979287634558
 20
3830.181615946676
 10
721.3802192425641
 20
3824.394060645867
 10
716.9232248744896
 20
3820.556907638842
 10
715.2344570567528
 20
3813.651258668912
 10
716.4781018259381
 20
3807.189418701767
 10
721.1589717640553
 20
3807.143765566271
 10
722.5376048710844
 20
3806.98573165305
 10
721.847302783245
 20
3804.839108479676
 10
715.013209578244
 20
3795.954964510256
 10
693.1939773681068
 20
3771.621236041443
 10
685.052159753014
 20
3761.107585727383
 10
679.1675840731025
 20
3751.09437779767
 10
675.4836368565955
 20
3744.273006944864
 10
672.6319982647527
 20
3741.436738706533
 10
664.5086071550689
 20
3731.63643605569
 10
648.1437499596558
 20
3708.074002677423
 10
631.6344671886212
 20
3684.511569299156
 10
623.1638394851078
 20
3674.711266648312
 10
621.2213413757075
 20
3673.163848344517
 10
620.4140493950697
 20
3669.443466222663
 10
619.6410022435019
 20
3665.718255978106
 10
617.7801442047993
 20
3664.158105367223
 10
611.2783652102633
 20
3657.295043426004
 10
599.3428476924735
 20
3640.818243468125
 10
587.7458960574325
 20
3624.996674512964
 10
585.638216422233
 20
3623.573453443901
 10
586.0267259990049
 20
3626.589467215276
 10
613.0777617446995
 20
3684.758719407095
 10
646.9813271556971
 20
3755.16111052795
 10
654.5125216398904
 20
3770.047915108218
 10
663.3395942124924
 20
3784.102411063823
 10
673.0920536515608
 20
3800.569554776295
 10
674.9070295922455
 20
3807.300216651636
 10
679.1254450145414
 20
3815.404116082449
 10
683.9075064315801
 20
3821.896736576186
 10
687.4134502211712
 20
3823.793531775628
 10
689.7001088627197
 20
3823.475263918017
 10
690.6513884037239
 20
3825.514344391264
 10
688.2650713366473
 20
3828.14034539715
 10
682.5284353092955
 20
3829.233412467352
 10
675.6583551690954
 20
3827.378766281364
 10
667.4818447547849
 20
3821.265427179355
 10
657.1165721085389
 20
3810.069319232486
 10
643.6801654529634
 20
3792.966366511919
 10
631.6757302166719
 20
3779.336805083543
 10
631.7081035260128
 20
3781.804224657139
 10
636.217450672017
 20
3790.602876012592
 10
639.8729766713748
 20
3799.799902242958
 10
641.3087807241439
 20
3809.114804351526
 10
640.4359755981267
 20
3815.984127919921
 10
639.106061733385
 20
3817.700620112354
 10
637.1656541513406
 20
3817.844428484662
 10
631.5146202417698
 20
3811.886982994057
 10
623.9961580646635
 20
3799.589744514328
 10
617.1212398468687
 20
3788.135784950437
 10
615.880611410011
 20
3788.142156081426
 10
615.764338269449
 20
3791.642385762911
 10
614.3170064515451
 20
3799.150763634248
 10
607.0724630874273
 20
3802.845243126672
 10
600.0680516322658
 20
3803.491863147663
 10
596.5614508197917
 20
3801.57043954499
 10
586.9424466651734
 20
3786.381613491136
 10
566.4059222211011
 20
3751.367420580147
 10
548.2346502922713
 20
3711.585869627855
 10
532.2907755318937
 20
3678.223133598745
 10
506.8709981918608
 20
3633.334016165196
 10
486.0078736454305
 20
3593.130596792466
 10
479.192216900731
 20
3581.380329863094
 10
473.7935992370579
 20
3576.449233755358
 10
470.6939444616576
 20
3575.195932740766
 10
469.4037705264634
 20
3572.280642568379
 10
468.8374864852947
 20
3569.954910975058
 10
467.4757567851728
 20
3570.110306841853
 10
466.8190325486269
 20
3574.270993844447
 10
467.9428303709613
 20
3581.566018466766
 10
470.4024552639879
 20
3587.596771783322
 10
471.687741347126
 20
3588.051342024543
 10
472.9964114719749
 20
3586.784651679982
 10
474.3781704151455
 20
3585.484841409165
 10
475.7471373218762
 20
3585.774001162067
 10
478.0662290021195
 20
3589.906704962767
 10
479.1928241491535
 20
3596.757592070861
 10
478.3660504445369
 20
3603.901491475127
 10
478.861724435534
 20
3611.869098477221
 10
482.7054078518225
 20
3623.895872491547
 10
488.7227121090549
 20
3636.991344000036
 10
495.7392585777723
 20
3648.165063394412
 10
499.4627167613074
 20
3654.875805530517
 10
501.0105730803578
 20
3661.436407982894
 10
504.0651819686826
 20
3672.180583734967
 10
511.3271165294248
 20
3688.145473272718
 10
519.9435435836802
 20
3703.672476968526
 10
527.0616000878698
 20
3713.102995194772
 10
530.985231243187
 20
3718.757105166024
 10
532.6173756342521
 20
3725.875659414823
 10
536.0996666000436
 20
3736.939247837105
 10
544.2508716784549
 20
3753.651889145417
 10
553.6275040733766
 20
3769.59674944012
 10
560.7860570789192
 20
3778.356994821575
 10
563.2237911640608
 20
3781.92439016054
 10
564.1447182388345
 20
3787.218312223247
 10
563.4899252513709
 20
3792.021010131757
 10
561.2004593302288
 20
3794.114742963025
 10
554.6938522129902
 20
3787.354395599229
 10
543.2934499689803
 20
3771.101481166283
 10
530.7947145168108
 20
3753.611940163133
 10
521.6463079798094
 20
3743.884507322984
 10
515.8332880648266
 20
3737.094315192459
 10
511.3635613896644
 20
3726.669343057861
 10
506.3459771787424
 20
3714.468238971831
 10
499.2160046686243
 20
3703.399702968139
 10
483.4973294789477
 20
3677.198108216535
 10
457.8356781238266
 20
3628.610987258733
 10
422.2380787571349
 20
3560.520281378345
 10
412.9159991713116
 20
3544.628749441005
 10
410.528686615018
 20
3541.500016425572
 10
409.7160787219608
 20
3541.688771136032
 10
436.0691272030602
 20
3621.759333623942
 10
446.505955614234
 20
3645.092615339315
 10
459.121023936318
 20
3663.540016067196
 10
469.2242240912604
 20
3677.477303122374
 10
472.9823651191212
 20
3688.393499411167
 10
473.8738854424199
 20
3707.019341581219
 10
476.6930909955684
 20
3720.768520993927
 10
481.9018987302105
 20
3731.021203809714
 10
489.9622355528808
 20
3739.157536279221
 10
507.2792582747009
 20
3751.733531649532
 10
511.1128972047885
 20
3757.585624516289
 10
513.9904284711696
 20
3768.060201878576
 10
518.9891382065342
 20
3782.312232759537
 10
527.9149832192605
 20
3797.2543566756
 10
536.1959702269095
 20
3809.401465426493
 10
539.6411095351176
 20
3816.941878140837
 10
543.2517489256746
 20
3824.677645659152
 10
551.9326438616324
 20
3837.296656118536
 10
560.8046030430345
 20
3851.363167628991
 10
563.9959025557649
 20
3863.58430095807
 10
561.5401202511164
 20
3875.059384803149
 10
553.4708439352765
 20
3886.887727951821
 10
543.8694002104474
 20
3896.175741896634
 10
535.8799024004682
 20
3901.3074589463
 10
532.4710884937939
 20
3902.888017086133
 10
531.9852399813702
 20
3905.454975626552
 10
541.3654362276896
 20
3918.515605012443
 10
550.0687197161409
 20
3930.211876606677
 10
553.6885773368484
 20
3937.209269862858
 10
555.1631258299488
 20
3940.355025743904
 10
558.7105516552172
 20
3942.789633992903
 10
563.0117021863501
 20
3949.049976987606
 10
566.2645727071597
 20
3961.602697820022
 10
569.6017213450926
 20
3974.659823083868
 10
574.0714579751474
 20
3982.343785343323
 10
576.9153516608806
 20
3986.046228749485
 10
576.7944694052443
 20
3989.949173638871
 10
574.115408824084
 20
3993.03626534035
 10
569.2847774881405
 20
3994.291159137689
 10
565.7057448802278
 20
3995.064206289257
 10
564.2101318352923
 20
3996.925064327959
 10
556.828191049425
 20
4011.65032091807
 10
550.5947859929364
 20
4019.342734880979
 10
548.3252796305991
 20
4020.075385080115
 10
546.6670335122606
 20
4018.810138194918
 10
545.3238000017931
 20
4010.519385438049
 10
546.8439518559306
 20
3994.937341143425
 10
547.9618165625301
 20
3981.398986437122
 10
546.9844253393606
 20
3969.988161421009
 10
544.1870010902829
 20
3962.11071587731
 10
539.8447965838362
 20
3959.172489633362
 10
533.2778230004699
 20
3955.649264150962
 10
523.788541045736
 20
3947.535479512223
 10
515.2527287082842
 20
3938.514973429839
 10
511.5461739316559
 20
3932.271593571395
 10
510.7419580126997
 20
3929.01828503533
 10
508.8104301944721
 20
3926.979204562083
 10
481.0543889852005
 20
3895.504095276724
 10
435.819787018844
 20
3838.775156703828
 10
419.8623039208682
 20
3819.112651882619
 10
418.6182609559958
 20
3818.347986750259
 10
418.2913422970881
 20
3819.082637882722
 10
420.0269180178137
 20
3824.727688902097
 10
451.0972812972698
 20
3891.564665707531
 10
470.1108665173959
 20
3928.547139898643
 10
483.5846936126435
 20
3952.148755732497
 10
502.5228705245721
 20
3982.255555134008
 10
516.2380241158379
 20
4006.828519571484
 10
531.1704818316037
 20
4033.167521699728
 10
541.1087393781589
 20
4049.971807745369
 10
549.2724079815683
 20
4066.654932798393
 10
555.7240342293447
 20
4083.359132358143
 10
560.5261846187858
 20
4100.226622014179
 10
563.0428709537385
 20
4113.968504490926
 10
563.149547578247
 20
4123.645953817484
 10
560.8303961686504
 20
4129.370564335093
 10
556.0696183110739
 20
4131.253970204563
 10
553.6687173269668
 20
4129.742718024027
 10
551.3935764956598
 20
4125.156051230527
 10
547.1073383930005
 20
4106.439121797108
 10
543.5132141685556
 20
4089.487612851145
 10
538.6353966437208
 20
4076.156728052587
 10
531.8091478937507
 20
4065.057421477192
 10
522.3697499036878
 20
4054.800627290936
 10
509.4776867069352
 20
4038.99722601399
 10
467.9582007244738
 20
3956.247105200313
 10
434.2851010221364
 20
3885.402209167548
 10
432.8456733886167
 20
3882.419763292573
 10
429.386049712299
 20
3879.505787165953
 10
428.9984758953909
 20
3881.997237849251
 10
431.5638416530617
 20
3890.895647179153
 10
443.67934362131
 20
3922.297886653818
 10
467.4336177266112
 20
3980.243691335958
 10
489.4639931997033
 20
4035.639440884586
 10
509.9482743696597
 20
4083.0887176672
 10
516.2570678245613
 20
4100.457256956006
 10
518.6581479967288
 20
4117.199922219106
 10
517.1037612684134
 20
4131.562193575973
 10
514.828351655018
 20
4137.302403409615
 10
511.5461739316559
 20
4141.789571055862
 10
506.0119109072555
 20
4146.613393245559
 10
501.54964044633
 20
4148.428319411784
 10
497.3191596947225
 20
4147.300509767904
 10
492.4802458884922
 20
4143.296164346861
 10
488.4191575820731
 20
4138.411159389878
 10
487.2998095965393
 20
4134.642924101355
 10
489.1482041102434
 20
4131.751774542485
 10
493.9903532564288
 20
4129.498036729347
 10
499.7382383119346
 20
4126.006467804051
 10
504.4947853403385
 20
4120.687638601133
 10
506.6997441818365
 20
4115.823160631806
 10
506.35779363575
 20
4114.274298868647
 10
504.7928547217337
 20
4113.694635452399
 10
499.6936204852221
 20
4109.194616040359
 10
492.3292401291445
 20
4098.375868191032
 10
481.4611060597538
 20
4075.658376195595
 10
466.2667948603128
 20
4039.602144991675
 10
441.863710657742
 20
3974.154114561562
 10
436.5818638792387
 20
3962.282686639571
 10
429.7723493030092
 20
3955.144381884706
 10
421.5893184343266
 20
3949.773856926741
 10
417.1441206134744
 20
3944.371725186131
 10
416.4397124434279
 20
3938.945890847261
 10
419.4790704369469
 20
3933.504258094516
 10
423.2249171729753
 20
3927.237324961195
 10
421.0207746326354
 20
3921.212723768001
 10
414.5953297512695
 20
3909.828836690105
 10
406.5207176132251
 20
3891.477301573835
 10
384.9644438797944
 20
3832.745279417784
 10
367.2540934133912
 20
3788.846942537375
 10
364.6416509706418
 20
3785.523561515315
 10
362.8427521808138
 20
3792.46811420385
 10
359.7668000036732
 20
3853.816481120381
 10
358.4318489634924
 20
3926.226783947095
 10
359.0749549075475
 20
3994.291159137689
 10
359.5573988468485
 20
4046.239738580107
 10
357.521832450538
 20
4089.394713797402
 10
353.0617620207821
 20
4122.654775068657
 10
346.2706938597465
 20
4144.918642537628
 10
340.4607500064443
 20
4155.110082856777
 10
336.2759223903343
 20
4159.348905808025
 10
333.441674995115
 20
4152.822956335297
 10
330.7137259385016
 20
4134.59117857185
 10
325.995365876467
 20
4071.086472507185
 10
322.9580984103044
 20
3984.987506057274
 10
322.439159836303
 20
3892.44701757514
 10
322.5410083381083
 20
3819.031439872284
 10
321.3625581577534
 20
3811.837815781622
 10
319.1134195047983
 20
3818.775071534195
 10
316.64590038228
 20
3836.058725457458
 10
316.8623197380856
 20
3850.381874088089
 10
317.708236700348
 20
3858.797620471062
 10
316.9052850526977
 20
3859.213506001305
 10
315.232813393446
 20
3857.328348070814
 10
312.2134846429761
 20
3855.133871730771
 10
311.4224390463622
 20
3862.244959810441
 10
308.2020513387073
 20
3888.202928485934
 10
295.6155236924786
 20
3955.660622682929
 10
288.7006564923994
 20
3996.391253145053
 10
285.7901944427157
 20
4010.434768854593
 10
281.3573406881563
 20
4023.991022457019
 10
275.8366860013542
 20
4037.199153480212
 10
261.1184575651163
 20
4021.687231446043
 10
241.4796553421669
 20
4005.083128327076
 10
232.3854034185778
 20
3999.786677721758
 10
225.7153270169923
 20
3997.803026088121
 10
217.1182721829022
 20
4013.804410260572
 10
207.3307018391455
 20
4038.189496018097
 10
201.8442820265208
 20
4047.599108970784
 10
191.9276465057622
 20
4054.877887209079
 10
182.7673836921843
 20
4061.216366152437
 10
180.9467533727464
 20
4064.457221118395
 10
180.7634240785181
 20
4067.984179685359
 10
179.6637768245917
 20
4075.463130895438
 10
175.4956236528695
 20
4083.671686107648
 10
168.2939360995486
 20
4089.777399762253
 10
158.6232959192369
 20
4092.432040992918
 10
147.3334726174665
 20
4091.562520981316
 10
135.2742157899864
 20
4087.095750909129
 10
128.0603434486478
 20
4083.966958164343
 10
123.577506180496
 20
4083.457904798268
 10
121.8200894263463
 20
4085.570233368112
 10
122.7824985367982
 20
4090.305606340866
 10
131.206099329694
 20
4099.941941962756
 10
147.0727739012821
 20
4112.389977149096
 10
164.0278964731045
 20
4123.154948670914
 10
175.7168711313783
 20
4127.742103254131
 10
181.7974785479276
 20
4128.727677398665
 10
187.6332951659827
 20
4131.426926501148
 10
197.4149423488978
 20
4140.421699187269
 10
202.7505654549108
 20
4151.636850842861
 10
203.0288544655613
 20
4157.111573657185
 10
201.3289172588087
 20
4161.982801043403
 10
196.7306729257142
 20
4165.477993549449
 10
188.7011265845298
 20
4165.833572342918
 10
176.4217670911406
 20
4162.946812891495
 10
159.0741330758941
 20
4156.715010572646
 10
145.1025016427246
 20
4150.433095326607
 10
132.2496209015584
 20
4142.322934268619
 10
117.3936565772372
 20
4130.092692213204
 10
97.41277439460271
 20
4111.450553884668
 10
67.00527752016239
 20
4083.81918774495
 10
61.63584760033598
 20
4081.221607956213
 10
60.27127080105277
 20
4084.233580041369
 10
61.09875130301372
 20
4090.158980734075
 10
63.08778853331512
 20
4092.623433749803
 10
66.14530425015402
 20
4095.688415635772
 10
69.54260034658648
 20
4103.057186099297
 10
73.24806008507573
 20
4110.197252870077
 10
77.05096826303076
 20
4112.714825190432
 10
80.2252548650398
 20
4114.196829897769
 10
82.4171031135487
 20
4118.850055100327
 10
85.7489856135229
 20
4126.857989370606
 10
91.6673581523554
 20
4136.40938985249
 10
145.6201759454201
 20
4208.195461210705
 10
156.8836586025048
 20
4221.315143016957
 10
167.291468502999
 20
4235.908487330903
 10
174.6248493248548
 20
4248.567227764945
 10
176.6650746107015
 20
4255.883107886363
 10
174.0148931717307
 20
4260.026353917873
 10
170.0389490580531
 20
4261.733986256273
 10
164.567451628793
 20
4260.90401703127
 10
157.4305803783999
 20
4257.434468327459
 10
137.4815339409296
 20
4242.168710866901
 10
108.8333651599358
 20
4215.120860686702
 10
85.12344009925834
 20
4192.841583044649
 10
74.00618485327857
 20
4184.827496651005
 10
73.03833041680935
 20
4187.710473243405
 10
74.29678806554591
 20
4190.770895788757
 10
76.86560817079987
 20
4192.792913576822
 10
79.82886101366819
 20
4192.560636077788
 10
82.13790820771043
 20
4193.198037868629
 10
83.09840597886557
 20
4197.565040011475
 10
84.06635996425654
 20
4203.123891619539
 10
86.39605360466237
 20
4206.625654354417
 10
100.8438673499571
 20
4228.153407321777
 10
120.4725753122446
 20
4257.144741145702
 10
149.9362588148091
 20
4291.746293821296
 10
157.5995945376857
 20
4301.970654968854
 10
157.425592977422
 20
4305.080901749525
 10
154.9933440378667
 20
4308.199391180915
 10
146.3855379202312
 20
4314.826552042349
 10
142.2802498925715
 20
4315.980523142854
 10
137.9713245906531
 20
4315.608110626723
 10
127.734450143634
 20
4310.02418264528
 10
113.6586706285678
 20
4297.554913673938
 10
85.25469535253785
 20
4268.508270469108
 10
66.18876730937415
 20
4247.437068766513
 10
54.22383308521796
 20
4234.854045242328
 10
62.919222344177
 20
4252.413379994492
 10
88.57692160710564
 20
4309.48122291647
 10
93.77843240578556
 20
4320.021651890471
 10
97.68670316248233
 20
4324.406652478361
 10
103.4040167441302
 20
4328.232397178958
 10
112.9563032114159
 20
4337.428656882628
 10
122.4409760510751
 20
4350.11922310694
 10
124.5747574135474
 20
4355.961599998937
 10
125.240809384058
 20
4362.011725535658
 10
124.528228247539
 20
4369.55850938099
 10
122.0134034774218
 20
4372.916075502767
 10
117.1306981005303
 20
4372.293815102918
 10
109.3144950534705
 20
4367.90112933827
 10
102.9922525392456
 20
4364.81463493032
 10
101.2626597087145
 20
4364.914771190672
 10
100.6577407310286
 20
4366.145195863054
 10
98.66607540919439
 20
4368.910346351714
 10
93.87983293744344
 20
4370.060922833988
 10
88.56462731527415
 20
4372.10745952147
 10
85.9781372764154
 20
4377.962618495016
 10
84.03315044397311
 20
4382.624823010311
 10
80.23606587793835
 20
4385.427971322386
 10
75.23768465401542
 20
4386.514488073539
 10
69.68877798323081
 20
4386.026748131603
 10
64.24012703150435
 20
4384.10715622909
 10
59.5425030098628
 20
4380.898107143618
 10
56.2466870842253
 20
4376.541995652806
 10
55.00347037540371
 20
4371.181206579385
 10
42.36689948622927
 20
4353.250932635131
 10
11.98309525515685
 20
4316.901788683962
 10
-42.72476128953747
 20
4252.936648946588
 10
-56.82139630370295
 20
4236.648613654061
 10
-81.34915557582791
 20
4208.965004240229
 10
-112.6671069784773
 20
4169.884506659323
 10
-139.9191917264655
 20
4135.857152164175
 10
-147.4602714185852
 20
4129.954249527776
 10
-152.8533939817797
 20
4129.543689864845
 10
-156.5478834290962
 20
4132.672761346611
 10
-156.7550845547511
 20
4137.108253147597
 10
-154.4938805724847
 20
4140.454182000424
 10
-151.4767518531845
 20
4137.694735664982
 10
-149.4490796863664
 20
4135.773740122671
 10
-150.19492011763
 20
4140.121429774704
 10
-149.4359093640238
 20
4150.792685941622
 10
-144.8393175430295
 20
4166.460431902949
 10
-113.1776436234867
 20
4259.589443655364
 10
-76.8355278261896
 20
4371.816856309204
 10
-62.61597975838469
 20
4415.715193189613
 10
-36.30507033584661
 20
4498.173824805621
 10
-41.91001309466389
 20
4499.463560725558
 10
-55.38504473186424
 20
4499.999999999997
 10
-71.59494407573731
 20
4498.656706760177
 10
-74.88742511249745
 20
4496.2664475558
 10
-76.67397983603279
 20
4492.098294384078
 10
-82.08576782204875
 20
4477.172864822185
 10
-99.45546187834736
 20
4428.006727516128
 10
-110.1245180140951
 20
4398.155858437449
 10
-136.8568478869236
 20
4322.650719003146
 10
-158.5413107668449
 20
4262.134670666172
 10
-164.1784576018364
 20
4249.767897264625
 10
-165.6359832293236
 20
4248.205267885594
 10
-166.1633735067786
 20
4249.779484759113
 10
-167.3312316818632
 20
4253.554847750431
 10
-169.7669847434628
 20
4254.054304600452
 10
-172.1770641381523
 20
4251.757870254791
 10
-173.2678814027227
 20
4247.145579568842
 10
-172.2362658818953
 20
4242.185066754739
 10
-169.7560144522898
 20
4240.121845667977
 10
-167.0901241934726
 20
4238.616237911303
 10
-166.4500345817454
 20
4234.28776120116
 10
-171.1748055943381
 20
4218.292081181922
 10
-180.8324446854741
 20
4191.334989753649
 10
-184.4694247207168
 20
4181.227399491259
 10
-185.0722033965856
 20
4181.862332468841
 10
-185.043174931014
 20
4186.067189327999
 10
-181.8543940060031
 20
4277.828757272185
 10
-179.1818638341077
 20
4359.430501634758
 10
-164.8113100069548
 20
4358.984492600803
 10
-153.3893952409629
 20
4357.670178052092
 10
-146.1106170026668
 20
4355.138997394139
 10
-143.9248014188141
 20
4354.097675853445
 10
-141.9543201075201
 20
4354.691674314419
 10
-138.2089113867472
 20
4361.126735621622
 10
-135.6182004736082
 20
4368.192001332626
 10
-135.5517515683644
 20
4372.013963174198
 10
-138.9798281913905
 20
4374.377393944171
 10
-146.8726938630622
 20
4377.067096305063
 10
-157.4587759725613
 20
4382.387578020082
 10
-165.7243926266973
 20
4389.509646345817
 10
-171.0453123569731
 20
4394.794559231109
 10
-174.5567412921503
 20
4395.694043468145
 10
-176.1265381935462
 20
4409.771794051861
 10
-176.7797483531554
 20
4446.735513226122
 10
-176.7797483531554
 20
4499.999999999997
 10
-195.677100252289
 20
4499.999999999997
 10
-214.577976183251
 20
4499.999999999997
 10
-217.4717538336553
 20
4400.789753672827
 10
-220.317678317392
 20
4230.747353574871
 10
-219.887198915225
 20
4167.518218835295
 10
-218.1881676036602
 20
4131.253970204563
 10
-216.9291624358544
 20
4117.501495722546
 10
-217.7012340079899
 20
4118.500628430219
 10
-219.5051201987957
 20
4124.230236303698
 10
-233.3137800922276
 20
4158.397188251765
 10
-243.5052204113766
 20
4182.449969753718
 10
-248.4674852865022
 20
4195.693221636491
 10
-268.2568552535435
 20
4241.207008553794
 10
-290.511564221718
 20
4287.012294623659
 10
-303.5124941192568
 20
4310.510190435979
 10
-322.6065148681276
 20
4350.745654606607
 10
-343.9933463819096
 20
4397.756388524397
 10
-352.3555354450006
 20
4421.74155639872
 10
-357.3845279623505
 20
4437.544957675667
 10
-364.5452312246019
 20
4454.345729644373
 10
-373.3690684572481
 20
4470.559740358711
 10
-385.0813076985261
 20
4485.244450673008
 10
-397.3130828073355
 20
4495.893368061895
 10
-402.8835318647788
 20
4498.921118651141
 10
-407.6955375974695
 20
4499.999999999997
 10
-415.9835428040991
 20
4499.999999999997
 10
-409.6797367501753
 20
4488.586427433645
 10
-399.6041912856851
 20
4471.905064396536
 10
-389.5040671924236
 20
4450.833862693939
 10
-375.1651101930228
 20
4417.471126664827
 10
-357.7005957887915
 20
4377.084656734854
 10
-325.8233785439542
 20
4308.269622945184
 10
-308.4914433936611
 20
4270.215474747146
 10
-298.3079072588956
 20
4243.300084362178
 10
-282.4632429538982
 20
4197.715169740312
 10
-258.8801730841602
 20
4144.139005247442
 10
-254.2357280964983
 20
4129.913753026423
 10
-254.7357324655897
 20
4125.739407911771
 10
-257.1769208983147
 20
4124.230236303698
 10
-260.1404425232719
 20
4125.984796003795
 10
-262.871845927469
 20
4130.299176586623
 10
-264.7057560730635
 20
4135.749430275988
 10
-264.9767780124292
 20
4140.911599340807
 10
-265.9175153226239
 20
4144.011264071099
 10
-269.1734519502228
 20
4145.301438006294
 10
-276.1580631248547
 20
4151.638712407698
 10
-288.2810810366922
 20
4166.736998717254
 10
-301.114599512585
 20
4184.725986615535
 10
-310.2306924695982
 20
4199.735375738002
 10
-327.9691356417091
 20
4226.074377866246
 10
-398.2872486454418
 20
4330.798250726346
 10
-416.8580004422168
 20
4364.045091900798
 10
-429.9825004162788
 20
4383.435101458599
 10
-447.2093119052421
 20
4403.818748623597
 10
-463.1323311665204
 20
4419.340207444466
 10
-468.9155262245582
 20
4423.447675593512
 10
-472.3454942770969
 20
4424.143671879673
 10
-473.7160041921141
 20
4418.791921848343
 10
-472.4262682721754
 20
4408.329738326808
 10
-469.0820914803692
 20
4395.765698781995
 10
-464.2892688248931
 20
4384.108390635719
 10
-460.8493956546436
 20
4375.711518728301
 10
-460.6495511943034
 20
4373.377882950596
 10
-461.581617793417
 20
4372.782620218318
 10
-463.4987707473486
 20
4371.302865316611
 10
-462.9433474935389
 20
4366.117531217709
 10
-455.8923969174771
 20
4350.426072703229
 10
-453.4248678400667
 20
4344.73465179612
 10
-463.2813658572182
 20
4348.522647545602
 10
-474.5715773997829
 20
4355.903274285704
 10
-475.432695482391
 20
4358.51088860575
 10
-472.3841292136141
 20
4359.525321982689
 10
-470.788419727896
 20
4362.620158590279
 10
-471.0285416819614
 20
4370.060922833988
 10
-472.6314385998274
 20
4376.977273313
 10
-475.0649916302567
 20
4380.028039612947
 10
-478.6778808264447
 20
4379.349862583771
 10
-483.8187663318008
 20
4375.07938307542
 10
-487.5007922541191
 20
4371.261652063022
 10
-488.9324849364217
 20
4368.371717000996
 10
-485.9574952756832
 20
4358.124091270432
 10
-484.451339999939
 20
4351.304920448796
 10
-485.5711857300808
 20
4347.388307492458
 10
-489.4636481180096
 20
4338.828135533863
 10
-494.6177537201694
 20
4320.838600116514
 10
-498.1094819237393
 20
4299.327093533179
 10
-498.5962562411351
 20
4277.56800878154
 10
-496.1956240391162
 20
4258.099096748387
 10
-491.0251127746581
 20
4243.458118275399
 10
-483.6712646944976
 20
4229.586244816679
 10
-475.945153421589
 20
4218.151607698493
 10
-472.7396980521911
 20
4213.261326648658
 10
-472.4684073307368
 20
4210.162109888513
 10
-478.5426237065122
 20
4214.48258286535
 10
-490.5931600484499
 20
4227.426451320963
 10
-499.1940475160261
 20
4238.027625046993
 10
-504.1252531275766
 20
4246.056464590833
 10
-506.3659400770781
 20
4253.644780246307
 10
-506.8952416938299
 20
4262.924402217019
 10
-507.9272952299128
 20
4275.12418230239
 10
-509.2909362693318
 20
4277.584523947652
 10
-511.285080359317
 20
4277.839299502995
 10
-513.1962404681615
 20
4275.753142344669
 10
-514.5691096926235
 20
4271.003444282079
 10
-515.6749090699117
 20
4253.653072671485
 10
-515.3480899599257
 20
4240.431990333576
 10
-513.4132670723898
 20
4231.455435100129
 10
-508.4389269130607
 20
4223.138680164908
 10
-498.9935460328025
 20
4211.896968857003
 10
-487.2116623658936
 20
4197.496122292972
 10
-482.312173040801
 20
4189.645783920656
 10
-480.8218261338248
 20
4186.252877931672
 10
-477.237527387953
 20
4182.56235053144
 10
-472.9842200685965
 20
4176.715085787386
 10
-469.8871834298369
 20
4168.128573184107
 10
-467.6150091563975
 20
4157.592972332809
 10
-474.9126718251426
 20
4169.006534944268
 10
-481.6646769892985
 20
4177.066712488665
 10
-487.6502151856112
 20
4180.420107510621
 10
-494.0391753871692
 20
4182.086486775864
 10
-501.7503543218209
 20
4186.09176795677
 10
-507.4654280527296
 20
4189.035708308827
 10
-509.9773459943322
 20
4188.17693958077
 10
-509.3266046479819
 20
4183.39234962112
 10
-505.5537104699234
 20
4174.558806368607
 10
-490.4175657054394
 20
4143.545504531078
 10
-476.4499859133835
 20
4118.347860654957
 10
-457.3041698605447
 20
4087.355633324155
 10
-439.6230170928803
 20
4059.565576248334
 10
-429.6973823495985
 20
4041.872567204094
 10
-425.8060149998089
 20
4030.678709062855
 10
-426.2276544577272
 20
4022.38609474115
 10
-426.9471542443056
 20
4013.195977205951
 10
-425.6095651576987
 20
4003.429033398773
 10
-424.4044458212169
 20
3998.2427734949
 10
-425.2083431836239
 20
3997.127865391275
 10
-435.8747612729458
 20
4008.658208842796
 10
-467.9626837654827
 20
4043.193909906676
 10
-483.5268391188752
 20
4060.494676289581
 10
-483.4001432062104
 20
4064.140824780514
 10
-479.3762563318353
 20
4067.362576308395
 10
-473.2561080835814
 20
4072.488091460239
 10
-472.1255608443549
 20
4076.075078026996
 10
-475.7933214061912
 20
4077.728127691623
 10
-484.0681065160175
 20
4077.051812227283
 10
-492.8214332474139
 20
4076.359101055538
 10
-496.359640842532
 20
4078.04216472006
 10
-498.0159258471127
 20
4081.064181291416
 10
-501.974239846755
 20
4083.399071385534
 10
-506.7187713203078
 20
4084.455872783555
 10
-510.7337087466213
 20
4083.64359340194
 10
-511.9145779657737
 20
4080.130402450849
 10
-509.9716418411183
 20
4074.249350802767
 10
-508.0076212548436
 20
4067.37048049278
 10
-512.3913177518608
 20
4062.172035800888
 10
-517.9980623461609
 20
4058.637451786521
 10
-521.9536885249168
 20
4058.098264961842
 10
-525.205404278235
 20
4060.843565395511
 10
-528.7004275511138
 20
4067.162393381721
 10
-533.4370548402826
 20
4073.982440233868
 10
-538.3264499047135
 20
4076.820032472857
 10
-542.6444540682918
 20
4073.41982954791
 10
-546.228593535889
 20
4065.03201659237
 10
-548.2751899527248
 20
4054.375742538171
 10
-547.980574918913
 20
4044.170206091708
 10
-547.407750513588
 20
4039.736257299009
 10
-548.1680155836078
 20
4037.437075403109
 10
-555.6013236130801
 20
4037.588967147859
 10
-570.986818516673
 20
4041.831304176042
 10
-575.508340495803
 20
4042.409006478532
 10
-577.1325807024842
 20
4039.773349227239
 10
-574.5139861363733
 20
4033.506087582477
 10
-568.3129643441185
 20
4023.725873904034
 10
-555.0921010138376
 20
4007.962859624626
 10
-554.0244985578111
 20
4000.002768566122
 10
-555.970072728892
 20
3983.379790971598
 10
-574.1158899984399
 20
3887.179217149492
 10
-582.4003811281333
 20
3852.060547645163
 10
-591.1616120439135
 20
3817.01299589051
 10
-593.4064601383425
 20
3811.451735198541
 10
-594.3337085696454
 20
3813.524831538336
 10
-596.2006988219253
 20
3820.85980514294
 10
-600.1879915126784
 20
3828.492410113682
 10
-605.5975794675244
 20
3846.319959525619
 10
-610.8570376935341
 20
3881.075594022241
 10
-621.0800847953274
 20
3962.684356583795
 10
-628.1178650490468
 20
4017.1182943155
 10
-631.9132075089513
 20
4044.561562767641
 10
-636.7482787268032
 20
4062.632091187696
 10
-644.1514035232118
 20
4075.150358138305
 10
-655.6509067187873
 20
4085.936842182106
 10
-667.6821703894812
 20
4094.20350409992
 10
-677.5171061101895
 20
4098.280609827844
 10
-684.6753306042905
 20
4098.058546048177
 10
-688.6765004147301
 20
4093.42764966876
 10
-686.6646366166802
 20
4089.183998594809
 10
-679.5140375699826
 20
4085.259053393726
 10
-671.0065369458662
 20
4080.1861598019
 10
-667.0820297600381
 20
4072.163293193363
 10
-661.0205456913496
 20
4025.880839277048
 10
-652.5674784176261
 20
3943.369088356414
 10
-645.3014324864174
 20
3868.741920637166
 10
-644.7706973651929
 20
3853.805062859061
 10
-646.1622220575837
 20
3851.041116912354
 10
-648.8729989252018
 20
3850.304614169947
 10
-652.7724894670035
 20
3851.852032473742
 10
-654.3936536120037
 20
3855.572414595597
 10
-655.2119158838141
 20
3859.292796717451
 10
-657.178564561622
 20
3860.840215021245
 10
-660.3857719920421
 20
3865.482459977738
 10
-664.1882521096337
 20
3876.643616298194
 10
-668.9079759918955
 20
3888.715714936574
 10
-673.7238442227486
 20
3892.868000010175
 10
-675.8032021897205
 20
3891.959914746303
 10
-677.4690339358938
 20
3889.054718834577
 10
-678.9767222650328
 20
3877.230098815578
 10
-679.6158860717881
 20
3865.842428878654
 10
-681.1505720684957
 20
3859.835816175614
 10
-684.079958368197
 20
3859.774852415958
 10
-688.0421647306781
 20
3862.485081764507
 10
-691.5269842390813
 20
3866.585352526512
 10
-693.0241900667637
 20
3870.694513007227
 10
-694.5716083705582
 20
3874.33236907298
 10
-698.2919904924127
 20
3878.39954977341
 10
-700.6799501166973
 20
3881.716121649225
 10
-702.3271263949417
 20
3887.242868730034
 10
-703.6124722074326
 20
3906.04496226598
 10
-705.1768436925953
 20
3926.285059885865
 10
-709.2266232415083
 20
3936.665812389438
 10
-711.9363150258797
 20
3937.904390118508
 10
-714.9706657086356
 20
3936.37268063456
 10
-721.6178060386579
 20
3924.591135433985
 10
-725.1964006313154
 20
3915.274152752953
 10
-732.8136452034383
 20
3924.68244170498
 10
-750.1552465540295
 20
3945.753643407576
 10
-783.5179825831404
 20
3986.933796980592
 10
-818.5659723530505
 20
4029.288667649399
 10
-824.4097727946273
 20
4032.784407674513
 10
-828.8737355872223
 20
4030.670585870844
 10
-833.6677130101907
 20
4024.881109275845
 10
-834.0515437876423
 20
4016.159120545005
 10
-829.991331511734
 20
4004.317925630538
 10
-821.4531598648374
 20
3989.170860349343
 10
-812.640571660345
 20
3974.059732228885
 10
-809.0562729144734
 20
3965.251534131841
 10
-817.288092709688
 20
3942.185591045729
 10
-825.3759149896435
 20
3923.446263104924
 10
-835.1599812113562
 20
3931.860695442129
 10
-840.621205191895
 20
3937.34783200699
 10
-843.7399136309114
 20
3944.145649584919
 10
-846.4857516287569
 20
3975.186606112901
 10
-848.4914633034453
 20
4001.903565632216
 10
-851.153023184168
 20
4017.1182943155
 10
-858.0714044611838
 20
4039.067467733151
 10
-862.541131136346
 20
4050.728618467806
 10
-865.3044200601678
 20
4053.235210542097
 10
-868.7544969948932
 20
4053.992897295045
 10
-873.6676046124758
 20
4052.411682132327
 10
-875.6412714892645
 20
4048.47575668518
 10
-877.1886897930594
 20
4043.028847839582
 10
-880.9090719149136
 20
4037.687301572727
 10
-885.38450274329
 20
4034.365075318161
 10
-886.6966272157222
 20
4038.818117594042
 10
-887.7923323323487
 20
4050.481030344612
 10
-891.235281564279
 20
4061.559053360543
 10
-897.7651532645225
 20
4068.050459357436
 10
-905.9741464919882
 20
4069.223374617744
 10
-910.2683584632771
 20
4067.586670886065
 10
-914.4544204860162
 20
4064.34588560435
 10
-919.8808122988474
 20
4060.797743026845
 10
-925.5528012564385
 20
4059.75806404336
 10
-930.0197903362535
 20
4061.173838853079
 10
-931.831142696188
 20
4064.992067610087
 10
-934.9319522390805
 20
4068.93682304659
 10
-942.6411103306213
 20
4072.097013521285
 10
-952.568666368092
 20
4073.811843246726
 10
-962.3246797036655
 20
4073.420546300146
 10
-970.3135802201142
 20
4070.199282561981
 10
-975.4305341646904
 20
4064.831395650441
 10
-976.946285956488
 20
4058.593003192975
 10
-974.1315800146011
 20
4052.760232771924
 10
-971.8932026000835
 20
4051.267576329965
 10
-969.5863454823188
 20
4051.423091655465
 10
-963.7504989995871
 20
4057.107922423957
 10
-957.4150961179112
 20
4065.487233901583
 10
-955.1288655367256
 20
4056.37393826927
 10
-954.9488810862673
 20
4046.033692221942
 10
-957.7662848039329
 20
4033.947158989913
 10
-962.8576049011678
 20
4012.162171608845
 10
-968.1859908005717
 20
3978.487757860742
 10
-986.3915075584714
 20
3828.355450707189
 10
-988.1488645832682
 20
3814.785100977448
 10
-990.4125971081462
 20
3806.898377474246
 10
-993.2215391674661
 20
3804.617253752745
 10
-996.614554660265
 20
3807.863703368104
 10
-996.7207833146257
 20
3810.656070531959
 10
-994.1878505956493
 20
3812.86108910281
 10
-991.6781824596773
 20
3814.90279766759
 10
-993.738337439651
 20
3817.552939286992
 10
-998.0930452906649
 20
3829.926073864636
 10
-1003.153644590659
 20
3855.663282851338
 10
-1007.345062345386
 20
3885.332246185368
 10
-1009.092215605707
 20
3909.500643804997
 10
-1012.540868990852
 20
3945.356801586057
 10
-1030.440850198228
 20
4083.843766373721
 10
-1036.073835888291
 20
4118.504023048449
 10
-1043.666103635956
 20
4142.067003945785
 10
-1048.397713659471
 20
4150.109471737008
 10
-1053.860012768364
 20
4155.884563512819
 10
-1060.133317032675
 20
4159.561253612933
 10
-1067.297902702873
 20
4161.308526331959
 10
-1074.496344961346
 20
4160.785257379863
 10
-1075.172929207773
 20
4158.614045622827
 10
-1074.419961073715
 20
4154.688662406488
 10
-1069.5187196876
 20
4122.055510469723
 10
-1061.875572486048
 20
4052.236963819829
 10
-1051.25217944069
 20
3959.172489633362
 10
-1040.930797914028
 20
3867.863948922111
 10
-1035.585737570237
 20
3822.209678566485
 10
-1034.871294868882
 20
3814.278954439887
 10
-1037.879862380914
 20
3820.078415791732
 10
-1056.519979866339
 20
3876.643616298194
 10
-1078.174150009383
 20
3943.105701819344
 10
-1091.499051917747
 20
3982.126927972262
 10
-1098.581609276453
 20
4009.64855138068
 10
-1103.726496648462
 20
4028.963819608061
 10
-1114.402570983191
 20
4057.504764245478
 10
-1138.860964566665
 20
4126.209169318445
 10
-1145.525396544389
 20
4141.150188241478
 10
-1151.287706238652
 20
4150.21103154694
 10
-1158.890456487773
 20
4162.388423079817
 10
-1164.815419165223
 20
4175.47188898835
 10
-1169.045740638556
 20
4184.098509852189
 10
-1174.405016568368
 20
4189.209869147364
 10
-1180.578821685426
 20
4190.627843988255
 10
-1187.252740675389
 20
4188.174311489238
 10
-1188.475480171014
 20
4186.018460130821
 10
-1188.584506150075
 20
4182.107063537982
 10
-1185.835701594362
 20
4170.179061963782
 10
-1179.755014538676
 20
4154.713081756983
 10
-1171.091122558547
 20
4138.031877998149
 10
-1163.342632688037
 20
4120.755242273868
 10
-1154.659099705654
 20
4096.135300700237
 10
-1132.105893295721
 20
4029.409828642015
 10
-1110.982010303754
 20
3964.440290059012
 10
-1092.242254302586
 20
3904.154707430696
 10
-1072.151300877212
 20
3846.792747219515
 10
-1061.316754614008
 20
3815.732916215977
 10
-1059.104110595753
 20
3806.588889831531
 10
-1059.255723603523
 20
3802.483522164733
 10
-1063.482640503733
 20
3801.858464440183
 10
-1069.803180731397
 20
3806.227606884847
 10
-1078.127451610207
 20
3815.507009847931
 10
-1088.365590328533
 20
3829.612693859081
 10
-1107.94775916992
 20
3855.895510575911
 10
-1123.147117499692
 20
3876.755997075916
 10
-1141.545789030393
 20
3902.020368594261
 10
-1155.772365252071
 20
3918.494530505716
 10
-1184.595132886858
 20
3952.371755272027
 10
-1196.531307427531
 20
3964.807386662722
 10
-1202.666318329797
 20
3969.70809048466
 10
-1204.530411708456
 20
3969.300049409447
 10
-1205.106849739639
 20
3967.789683214314
 10
-1201.332691290275
 20
3959.744487782637
 10
-1166.627548006746
 20
3911.534010170138
 10
-1118.255084388836
 20
3845.903367198032
 10
-1103.91262326739
 20
3824.000732901282
 10
-1104.418411428834
 20
3822.433355038685
 10
-1105.885553482159
 20
3822.025503106424
 10
-1111.402554723533
 20
3824.409918789095
 10
-1130.658123462562
 20
3840.030209779442
 10
-1156.857966153143
 20
3866.406692076713
 10
-1185.180739373731
 20
3899.084441930403
 10
-1218.965771883644
 20
3937.179425096127
 10
-1231.214072113458
 20
3948.193517794535
 10
-1238.648913196325
 20
3952.148755732497
 10
-1242.702047543899
 20
3951.232159035817
 10
-1244.387301284699
 20
3949.030216526647
 10
-1235.590949509338
 20
3937.767659674534
 10
-1214.441611858089
 20
3915.073979781171
 10
-1195.432585978577
 20
3894.572516467327
 10
-1186.676352418666
 20
3883.062869236629
 10
-1186.294582303894
 20
3880.972889399709
 10
-1188.657873705378
 20
3881.482360871256
 10
-1201.862102410841
 20
3890.768344018066
 10
-1218.839454256881
 20
3901.499349447796
 10
-1224.005754601951
 20
3902.699600842007
 10
-1226.770019105206
 20
3901.423791816215
 10
-1226.991913651706
 20
3897.897470362349
 10
-1224.531094171619
 20
3892.346214337014
 10
-1210.999986626817
 20
3876.071180133662
 10
-1198.855505967458
 20
3862.182622275663
 10
-1197.553754492669
 20
3857.831090035252
 10
-1198.697910069493
 20
3853.883208762606
 10
-1200.577473350586
 20
3847.953527466265
 10
-1199.84322041381
 20
3841.392377494819
 10
-1196.299248936124
 20
3833.539291572265
 10
-1189.749676504274
 20
3823.733832287276
 10
-1183.779060691326
 20
3813.856259763399
 10
-1184.860002702862
 20
3811.36421178657
 10
-1188.50998382728
 20
3808.780300064784
 10
-1192.236896358399
 20
3806.961541265074
 10
-1195.391930198949
 20
3806.970371254429
 10
-1202.877033532389
 20
3813.401918484697
 10
-1209.379310271534
 20
3819.839388875806
 10
-1213.653632368264
 20
3821.83214923578
 10
-1215.45802625857
 20
3819.397331934043
 10
-1214.550478558875
 20
3812.552039475349
 10
-1211.3652117108
 20
3799.382543388674
 10
-1205.524547060258
 20
3787.89566299637
 10
-1198.711956422347
 20
3780.067275161294
 10
-1175.242153315735
 20
3759.487735628149
 10
-1157.792123279613
 20
3740.448148229671
 10
-1152.785021570148
 20
3732.452070235967
 10
-1149.847840589876
 20
3724.916913704689
 10
-1147.117143983023
 20
3717.650698540313
 10
-1142.770549369129
 20
3710.581032766969
 10
-1128.060225117275
 20
3695.452354171614
 10
-1090.842327681202
 20
3661.549664791127
 10
-1079.819355218978
 20
3649.941523857285
 10
-1075.817687663929
 20
3643.834934172169
 10
-1072.750346468517
 20
3634.483925669695
 10
-1065.604734822797
 20
3620.804111945638
 10
-1057.465495524776
 20
3608.117268850998
 10
-1051.417231552892
 20
3601.745202101455
 10
-1021.383749932222
 20
3578.609027251075
 10
-993.6119103090744
 20
3554.77047502865
 10
-992.3941681693191
 20
3551.539993060334
 10
-994.2896990974546
 20
3547.437701455216
 10
-996.3182373398918
 20
3542.655849090913
 10
-994.7778471899699
 20
3537.629056604733
 10
-991.1149645252974
 20
3534.566264795043
 10
-986.4301424949886
 20
3538.981120104557
 10
-983.3606609977593
 20
3542.412382293078
 10
-980.3063208915231
 20
3543.163319629133
 10
-968.2772970715678
 20
3535.469253154124
 10
-955.0972587540815
 20
3525.456921254922
 10
-967.1710596790239
 20
3524.441990133374
 10
-979.5123684663952
 20
3522.952797993889
 10
-985.4305717720608
 20
3520.925295060238
 10
-985.2585512353396
 20
3518.076682755615
 10
-979.3291387210889
 20
3514.124122683649
 10
-951.9120018608996
 20
3504.1258371373
 10
-936.1200088903807
 20
3498.111330204768
 10
-921.9768447102065
 20
3489.934391730095
 10
-887.2484268887816
 20
3457.972448397987
 10
-869.5238707912498
 20
3440.18675930763
 10
-863.026641182436
 20
3432.392447068455
 10
-876.5025588050397
 20
3438.780969254757
 10
-889.9415935521481
 20
3448.501383895926
 10
-896.4942420456802
 20
3454.297331170835
 10
-904.8823934675539
 20
3459.195456675701
 10
-912.8589996921709
 20
3462.121448357172
 10
-918.1770026390402
 20
3462.000994161897
 10
-918.7403798516946
 20
3460.55383157716
 10
-917.4425804690974
 20
3458.333293329415
 10
-910.1734584762073
 20
3452.634844268431
 10
-896.336705877068
 20
3442.215138271792
 10
-877.0214376496882
 20
3430.640027670176
 10
-864.6368350362635
 20
3423.862557891845
 10
-864.9110923155848
 20
3422.582756954294
 10
-868.9511658446305
 20
3422.134279107081
 10
-875.6967998777964
 20
3420.435476758036
 10
-882.435853727237
 20
3416.495539489343
 10
-887.6169569969658
 20
3411.480324542758
 10
-889.6887392909954
 20
3406.55563938558
 10
-883.2405076614492
 20
3405.427013440542
 10
-867.7395758282372
 20
3406.155293442015
 10
-845.7904024105866
 20
3408.209734313882
 10
-822.9632672327737
 20
3385.653013827012
 10
-798.3529819045485
 20
3359.658610246171
 10
-792.4676396979403
 20
3351.255426937119
 10
-789.0877945274843
 20
3343.717801592583
 10
-786.6988493688746
 20
3339.376702079167
 10
-783.8516008844796
 20
3337.572039406772
 10
-780.8603747946095
 20
3335.481601644813
 10
-778.1167268730418
 20
3330.456999234911
 10
-778.7470009610879
 20
3329.202871964269
 10
-782.5030514615922
 20
3331.320476626963
 10
-797.3722956120699
 20
3344.223520069781
 10
-815.0927303842427
 20
3359.71040555014
 10
-827.0581026236545
 20
3367.609035104378
 10
-839.6376120709025
 20
3374.815391502127
 10
-847.2186905197665
 20
3379.486505645917
 10
-858.2149440514028
 20
3383.590668770761
 10
-868.6837674860154
 20
3385.941974482071
 10
-874.6825357340238
 20
3385.35449647547
 10
-875.1470310027404
 20
3382.723508068606
 10
-871.5661866044522
 20
3379.469930750452
 10
-851.0582028362358
 20
3370.327218411772
 10
-836.4937177546922
 20
3363.410708654484
 10
-822.8939114990158
 20
3354.611619283775
 10
-812.840635128313
 20
3345.846764787245
 10
-808.9157994310431
 20
3339.032979562274
 10
-807.9715480439118
 20
3335.520674596586
 10
-805.7024398772613
 20
3334.060172456339
 10
-790.054494196462
 20
3320.95558226662
 10
-759.9810038641557
 20
3291.791779935825
 10
-730.7444412264809
 20
3261.793687956826
 10
-717.6072587197926
 20
3246.186238777379
 10
-720.5484515216093
 20
3245.118626366461
 10
-727.9672652280797
 20
3247.928125899743
 10
-737.8550415164337
 20
3251.515221970314
 10
-748.2333749812085
 20
3253.122618499441
 10
-756.4242503049223
 20
3252.594571199103
 10
-758.862521954241
 20
3251.48109659995
 10
-759.7496621249852
 20
3249.775365645954
 10
-756.6039062439391
 20
3247.295114216348
 10
-749.0384669306762
 20
3246.263498695522
 10
-738.1013056389691
 20
3244.672458054232
 10
-726.6064215133609
 20
3239.95136039685
 10
-714.7006392584873
 20
3232.178222213324
 10
-702.5308134436599
 20
3221.431089858276
 10
-692.2098798871453
 20
3209.836656810954
 10
-693.0314870027252
 20
3207.867818056869
 10
-697.2630130180108
 20
3206.849820828532
 10
-701.1126793244947
 20
3205.972287128733
 10
-701.752938169389
 20
3204.786589786877
 10
-692.1462283066017
 20
3199.741798855651
 10
-682.8446060241902
 20
3194.574084915893
 10
-678.9767222650328
 20
3190.29136089017
 10
-674.5917216771411
 20
3181.76059568305
 10
-664.0512927031399
 20
3166.379062826541
 10
-645.4783408751949
 20
3140.018548176313
 10
-635.5735616310124
 20
3121.34639584788
 10
-621.2205582787577
 20
3095.555241300502
 10
-614.9782137290998
 20
3084.502513665578
 10
-613.2767136042765
 20
3079.00732359295
 10
-620.4308267279105
 20
3084.250545389828
 10
-635.47874128308
 20
3099.007408762583
 10
-696.1673079013843
 20
3161.276314513093
 10
-767.2510118424487
 20
3237.845552281378
 10
-837.3057283542189
 20
3313.526286058693
 10
-866.8291213000276
 20
3345.537834618492
 10
-883.0618472116496
 20
3366.544946725288
 10
-889.3695954028734
 20
3375.973862213895
 10
-895.0267814358056
 20
3380.153423692045
 10
-902.8472650864992
 20
3381.393116369038
 10
-911.6660054143537
 20
3384.792602541749
 10
-919.5352182622258
 20
3386.052921755322
 10
-929.7907481771746
 20
3385.266704281411
 10
-936.8646348247995
 20
3384.597695707925
 10
-943.2280308632611
 20
3386.483570390655
 10
-951.2073149538725
 20
3392.149088668335
 10
-963.1289055775143
 20
3402.819010879702
 10
-976.3212879612927
 20
3413.96771363005
 10
-983.3480381944863
 20
3417.371749188482
 10
-984.5070166057539
 20
3416.174573855953
 10
-984.0738394278089
 20
3413.047274344992
 10
-978.3633748119752
 20
3401.010406070006
 10
-969.6113720812377
 20
3391.156984114536
 10
-957.1271209971778
 20
3382.773282529462
 10
-944.9084564813576
 20
3374.803097210296
 10
-941.7355934289288
 20
3370.429833440274
 10
-940.0067671250949
 20
3365.27364726565
 10
-937.9485433942031
 20
3359.213039227473
 10
-935.2249247156839
 20
3355.475534691084
 10
-932.8483236233667
 20
3354.914516787874
 10
-931.831142696188
 20
3358.383358694343
 10
-925.8987238045014
 20
3354.350422822983
 10
-911.6379027537538
 20
3340.090049742383
 10
-885.7975909488333
 20
3313.13295831411
 10
-810.6717329062593
 20
3230.579496395278
 10
-755.0718582936569
 20
3167.344826735654
 10
-745.0103591820203
 20
3153.199024509055
 10
-745.0954038258404
 20
3151.91370856124
 10
-748.5280995188341
 20
3154.394378096317
 10
-764.2259789387647
 20
3169.433502481699
 10
-822.4786332171948
 20
3231.281873767321
 10
-878.4753496513173
 20
3289.894934961924
 10
-954.5011199912911
 20
3364.45230893216
 10
-991.8981158924195
 20
3404.297511464994
 10
-999.8244001371103
 20
3422.734817932211
 10
-1003.032543327394
 20
3429.636733817576
 10
-1007.070695562251
 20
3432.436348142931
 10
-1010.094135683187
 20
3430.824183220454
 10
-1010.258152486603
 20
3424.490751407428
 10
-1010.433308814358
 20
3421.287486114307
 10
-1014.514535867641
 20
3427.953451145426
 10
-1019.621674288536
 20
3435.417917987395
 10
-1023.554085658748
 20
3437.403879156015
 10
-1026.594807472494
 20
3432.007352019698
 10
-1026.24769033737
 20
3423.199253471575
 10
-1022.911079263615
 20
3413.028121132454
 10
-1016.983378990818
 20
3403.542462758472
 10
-996.1228924908128
 20
3377.551135239311
 10
-953.2921580664307
 20
3330.14093140847
 10
-921.3376809034512
 20
3295.42963600158
 10
-948.37906040374
 20
3319.377054924789
 10
-973.177234366808
 20
3340.68662652043
 10
-994.3880335223234
 20
3355.830237454043
 10
-1009.165961446913
 20
3365.871538089463
 10
-1018.496990480798
 20
3374.906697773124
 10
-1023.314122982957
 20
3380.952701984485
 10
-1026.991758797828
 20
3382.847028370668
 10
-1029.338624627229
 20
3380.60085627558
 10
-1030.163417308304
 20
3374.225394907807
 10
-1030.556366766984
 20
3369.489802927424
 10
-1032.830243326985
 20
3368.782438154402
 10
-1049.591066313406
 20
3382.127090568834
 10
-1066.022213135788
 20
3398.963859427631
 10
-1078.244391728545
 20
3415.711084031346
 10
-1085.627208544923
 20
3427.491633742704
 10
-1090.423545277336
 20
3432.392447068455
 10
-1092.983963453598
 20
3429.735605806622
 10
-1093.083343142145
 20
3422.808563773416
 10
-1090.916899778457
 20
3413.176498800269
 10
-1086.679888617585
 20
3402.404618583284
 10
-1079.986268896015
 20
3388.494110188047
 10
-1089.025818687123
 20
3395.517844088912
 10
-1098.068872600275
 20
3402.541577989777
 10
-1095.480630500394
 20
3392.005977138479
 10
-1090.814294704847
 20
3381.445956936685
 10
-1081.976182156827
 20
3370.510278923911
 10
-1069.090430361711
 20
3359.325041719293
 10
-1052.281156915092
 20
3348.016333987074
 10
-1034.396536106337
 20
3335.349032345767
 10
-1019.722636804938
 20
3322.02852054485
 10
-973.6890850575836
 20
3272.862383238793
 10
-940.0418879846757
 20
3237.48383131944
 10
-978.9568854832324
 20
3273.192497418088
 10
-1028.407483833087
 20
3317.740530381168
 10
-1063.156966206347
 20
3346.217375467893
 10
-1084.597355040011
 20
3361.656427691368
 10
-1110.181308461734
 20
3380.47651967236
 10
-1118.990492093104
 20
3386.895274866186
 10
-1125.893403467685
 20
3389.823795090268
 10
-1130.396817497955
 20
3389.162959483257
 10
-1132.007558870852
 20
3384.813677048476
 10
-1129.354181911494
 20
3378.284561920037
 10
-1122.13790048625
 20
3370.487890371418
 10
-1111.474498729256
 20
3362.413337962726
 10
-1098.479760774648
 20
3355.050600163857
 10
-1084.302690231738
 20
3346.490975724331
 10
-1065.094198177788
 20
3331.481586601865
 10
-1001.134324578373
 20
3273.339989100499
 10
-958.113959413018
 20
3234.783208441836
 10
-954.4335163185554
 20
3231.683105696288
 10
-952.902344398784
 20
3228.324882551628
 10
-959.013871710418
 20
3230.524625029629
 10
-973.7066454873739
 20
3240.792011221154
 10
-996.8884734732524
 20
3256.79909954682
 10
-1034.029987021695
 20
3274.365462452856
 10
-1059.632366948827
 20
3286.098606967694
 10
-1066.44473857911
 20
3288.103552115685
 10
-1068.793953763063
 20
3287.359364196522
 10
-1064.408953175172
 20
3281.852755862574
 10
-1053.868514246278
 20
3275.0397371643
 10
-1007.798975563724
 20
3249.113813286706
 10
-955.6029672763873
 20
3214.287947025815
 10
-908.470206290362
 20
3183.049893587733
 10
-900.5017730322176
 20
3178.298333960307
 10
-878.5267069400294
 20
3167.473005927253
 10
-815.9395333319086
 20
3142.614256445322
 10
-782.5767973027977
 20
3130.512362814672
 10
-754.481861699336
 20
3120.106703170887
 10
-717.6072587197926
 20
3105.795848832086
 10
-646.8396325600614
 20
3076.405025185324
 10
-631.9914529614183
 20
3070.670151173886
 10
-570.1088468016187
 20
3042.954496962154
 10
-566.3884646797645
 20
3039.657297306504
 10
-564.8410463759697
 20
3035.804335930712
 10
-558.8537561186345
 20
3029.488245539849
 10
-544.4616798146074
 20
3020.274863421645
 10
-527.4686390585046
 20
3008.986403940102
 10
-515.2324141128941
 20
2997.690040274175
 10
-506.3860190945876
 20
2986.385344363501
 10
-516.3000165689212
 20
2985.942849406484
 10
-535.5274926022415
 20
2985.675948792477
 10
-543.241747598574
 20
2984.000789312339
 10
-547.3870642476557
 20
2978.216738133574
 10
-549.9296631669307
 20
2970.581943086554
 10
-551.4854137154726
 20
2978.483638747582
 10
-553.8662456369628
 20
2985.278997467143
 10
-556.5223104172067
 20
2985.90510045537
 10
-558.6818948601879
 20
2981.040831538779
 10
-559.5732459503206
 20
2971.365084498784
 10
-557.9665661734297
 20
2958.462051010858
 10
-554.1052725528894
 20
2948.537949320971
 10
-550.5473044968115
 20
2942.141522950285
 10
-551.3055984981812
 20
2941.016032796281
 10
-553.7294952832045
 20
2940.731074007876
 10
-557.9204750226764
 20
2942.27849231167
 10
-560.8445454099579
 20
2945.998874433525
 10
-563.9609940884517
 20
2950.019744975572
 10
-568.3713497867039
 20
2951.041913303729
 10
-573.0595863450279
 20
2949.161533721478
 10
-577.0096676488443
 20
2944.474720712734
 10
-579.7120425874694
 20
2935.739830441639
 10
-581.1080171166612
 20
2924.281490725192
 10
-581.5680725034691
 20
2910.880204929197
 10
-583.7419123520398
 20
2923.171739255712
 10
-587.1607209704547
 20
2933.030865364396
 10
-589.9615398377626
 20
2935.434683131911
 10
-593.8139536944856
 20
2936.587071404561
 10
-599.3938698543837
 20
2936.307000468211
 10
-601.7156493555134
 20
2934.062042869968
 10
-603.2196046000877
 20
2932.064663440028
 10
-606.8359481438589
 20
2932.379855235958
 10
-611.0695049571476
 20
2931.781078426741
 10
-613.5541564490928
 20
2926.125216394468
 10
-619.2504054789054
 20
2883.196595515365
 10
-622.7868510581093
 20
2843.04146732456
 10
-622.7868510581093
 20
2832.18979864682
 10
-633.0836440011085
 20
2838.10027695616
 10
-640.6788285321796
 20
2844.56896588912
 10
-645.4340017854634
 20
2855.22194487401
 10
-648.0860149245939
 20
2872.875164214242
 10
-649.3716792936346
 20
2900.3446040779
 10
-650.5305979755493
 20
2935.494880364871
 10
-652.9362275334382
 20
2939.348279755919
 10
-658.2286165427507
 20
2943.628365735216
 10
-665.1267993435507
 20
2946.267975078701
 10
-670.4077700915425
 20
2941.840825477356
 10
-673.0150559001466
 20
2938.784783084558
 10
-674.4854830678884
 20
2938.592783079249
 10
-675.3524745368773
 20
2948.632769668903
 10
-676.8911126257773
 20
2959.537119636013
 10
-679.4509932378615
 20
2961.36438986853
 10
-683.868755375889
 20
2961.802275710472
 10
-689.9904864519986
 20
2960.640559703857
 10
-694.0373591723973
 20
2955.948430782694
 10
-696.8542054161012
 20
2945.91541261756
 10
-699.2858471072339
 20
2928.731028879031
 10
-701.8038574428454
 20
2907.368337978765
 10
-703.5597909180618
 20
2933.707340107011
 10
-706.2784122407107
 20
2956.002864133088
 10
-708.847511082946
 20
2959.796285298803
 10
-713.0769465708753
 20
2961.149065550863
 10
-717.11137567606
 20
2961.085473699672
 10
-720.3697811169173
 20
2959.325966418166
 10
-726.3272266075226
 20
2949.113899562438
 10
-729.6538429695382
 20
2938.413246598938
 10
-729.3753050865833
 20
2935.3669201809
 10
-727.8338198985224
 20
2933.517699411145
 10
-726.2537595032978
 20
2930.89697449811
 10
-725.5340904835528
 20
2926.087517217816
 10
-726.2403104439743
 20
2913.031666180167
 10
-729.081297301194
 20
2900.608597863392
 10
-731.0300968573384
 20
2896.59013640525
 10
-733.1858984412946
 20
2895.07680365225
 10
-737.1639131725438
 20
2898.738581323892
 10
-741.2416858782427
 20
2907.822251197103
 10
-744.4206413246805
 20
2919.475278739745
 10
-745.7021943232542
 20
2930.84516923925
 10
-747.272439194798
 20
2942.151567436486
 10
-750.9945733776746
 20
2957.052916114216
 10
-755.3857260889279
 20
2970.387743050075
 10
-758.9630066358191
 20
2976.994615841264
 10
-774.67510164177
 20
2980.815522464265
 10
-785.4793551680974
 20
2981.616224306284
 10
-787.4264623925727
 20
2980.04313233558
 10
-787.9815571349405
 20
2976.885749140477
 10
-788.3911312635474
 20
2975.101274989406
 10
-789.4354691365696
 20
2975.41602877008
 10
-793.0807913714519
 20
2981.995515652906
 10
-798.6541273476246
 20
2990.60221677751
 10
-805.4917246746695
 20
2993.409078264367
 10
-809.6266782810008
 20
2992.74336476019
 10
-811.7187088257072
 20
2989.142162607412
 10
-811.8060630045109
 20
2963.509041973254
 10
-811.8508401094979
 20
2940.357058754105
 10
-813.0160104636962
 20
2935.95384071354
 10
-815.0615715717464
 20
2935.305239669006
 10
-818.3758936419305
 20
2935.690284943302
 10
-819.3012705535048
 20
2933.871078173444
 10
-817.9101341019086
 20
2930.632861253912
 10
-814.2749061276878
 20
2926.760866124287
 10
-810.0189607619059
 20
2919.962769809378
 10
-807.0509992550407
 20
2909.651054483014
 10
-803.4021728981141
 20
2889.025861814371
 10
-803.274421766879
 20
2881.752777774398
 10
-804.7220024570869
 20
2881.670361222111
 10
-806.9026215872263
 20
2883.635138380191
 10
-812.6392576145784
 20
2892.739653797609
 10
-818.8368250592493
 20
2907.133044147402
 10
-827.3001458719091
 20
2924.990229273333
 10
-831.5243052669879
 20
2930.347494314927
 10
-835.4589266232622
 20
2933.203383645727
 10
-838.8906467368235
 20
2933.46751679971
 10
-841.6060725390854
 20
2931.049513310852
 10
-843.3918010065706
 20
2925.859002668021
 10
-844.0344689353702
 20
2917.805604405194
 10
-845.1547526807678
 20
2909.788780416205
 10
-848.1925178915387
 20
2907.613288055534
 10
-852.6631305521044
 20
2911.188916090324
 10
-858.081936737101
 20
2920.425463242611
 10
-863.34973716275
 20
2928.935153943005
 10
-868.6175375883991
 20
2933.854841744313
 10
-885.6149784068417
 20
2942.374626705369
 10
-895.3946445662143
 20
2946.163936500618
 10
-900.9864170026887
 20
2944.885608887108
 10
-903.1313976188545
 20
2943.87233027766
 10
-905.8538615298818
 20
2944.628364518507
 10
-913.3552112473452
 20
2951.624881744176
 10
-921.1339938547327
 20
2958.870749108954
 10
-923.9958362110513
 20
2959.499918203969
 10
-926.5317354878947
 20
2958.314987388811
 10
-932.170037090378
 20
2956.388735663434
 10
-940.3263490284727
 20
2958.181542059253
 10
-954.1069162161969
 20
2960.884802983282
 10
-974.1140195848107
 20
2962.392272304793
 10
-991.3765990013455
 20
2963.704824837588
 10
-998.5566147544094
 20
2965.939250159913
 10
-999.9117543159142
 20
2967.977892617905
 10
-1003.171205020449
 20
2968.826009611337
 10
-1022.775762414329
 20
2977.129375216588
 10
-1063.427818912545
 20
2997.093025480874
 10
-1105.499990553469
 20
3017.044381453328
 10
-1119.335319603028
 20
3022.474775132812
 10
-1126.416662464889
 20
3024.039584633229
 10
-1131.421076353468
 20
3022.347302738558
 10
-1124.983824969987
 20
3018.82445554206
 10
-1119.569408892438
 20
3015.463166290611
 10
-1130.427219738647
 20
3014.701527445472
 10
-1141.811375598632
 20
3015.834981513212
 10
-1149.205172661077
 20
3018.87011863245
 10
-1152.615191109704
 20
3021.015427760057
 10
-1152.495792133001
 20
3016.236213442179
 10
-1151.081829113655
 20
3012.702784195303
 10
-1147.91104663369
 20
3010.204146079857
 10
-1133.717839210571
 20
3007.045657891724
 10
-1117.538232603575
 20
3003.573739923574
 10
-1103.231320402074
 20
2998.265990515642
 10
-1067.124060420884
 20
2977.878719769896
 10
-1055.568262310079
 20
2969.919624200608
 10
-1051.2346190109
 20
2965.28253587826
 10
-1052.753496638839
 20
2962.775177277272
 10
-1056.297856357319
 20
2961.890953889935
 10
-1060.34922868898
 20
2962.654235292283
 10
-1063.389193930921
 20
2965.089381105459
 10
-1074.595336409098
 20
2972.118221866009
 10
-1097.484152098805
 20
2983.873924166507
 10
-1121.358044188437
 20
2995.099548368663
 10
-1135.519425821285
 20
3000.538164789082
 10
-1148.202973846616
 20
3000.562753372745
 10
-1151.241336350917
 20
2999.135620031056
 10
-1151.322827098232
 20
2996.920945214799
 10
-1147.529575165683
 20
2994.379232280927
 10
-1141.457996836334
 20
2993.201877138711
 10
-1131.38156538644
 20
2990.616701145619
 10
-1117.960091069121
 20
2984.689110376637
 10
-1085.197883910249
 20
2968.54154856754
 10
-1068.239078028323
 20
2960.699552394864
 10
-1078.83789244491
 20
2956.242986087153
 10
-1088.226868906124
 20
2953.56212367051
 10
-1091.06774625953
 20
2954.42608885228
 10
-1093.591241740728
 20
2956.794357699849
 10
-1098.402938871761
 20
2960.330803279052
 10
-1104.133870745899
 20
2961.802275710472
 10
-1109.338895621516
 20
2962.923435486381
 10
-1112.881931339337
 20
2965.619678211428
 10
-1116.322242524842
 20
2967.85234151784
 10
-1121.282317323689
 20
2967.856731625287
 10
-1124.973730709325
 20
2968.275912224839
 10
-1130.263919687467
 20
2970.844015577858
 10
-1144.249925984932
 20
2981.598673831387
 10
-1155.270608821957
 20
2992.542086795377
 10
-1158.002400466949
 20
2997.335347466109
 10
-1157.395828977163
 20
2997.757096427842
 10
-1158.772540790003
 20
2998.492942147365
 10
-1165.699095033491
 20
3000.480227316644
 10
-1183.807591412288
 20
3003.530276864355
 10
-1189.115400549574
 20
3002.176998867686
 10
-1191.673738153372
 20
2998.20629102729
 10
-1191.220870198712
 20
2992.786927368332
 10
-1187.495052705732
 20
2987.087721735545
 10
-1183.113615969238
 20
2983.709190610856
 10
-1179.904596748442
 20
2983.140378027075
 10
-1178.287105958654
 20
2985.247609692127
 10
-1178.680274424962
 20
2989.897211313933
 10
-1179.194205688201
 20
2995.376433739519
 10
-1176.32556414053
 20
2996.15316420119
 10
-1169.550841912439
 20
2992.045984744017
 10
-1158.346560999098
 20
2982.873477413068
 10
-1142.114711117987
 20
2968.826009611337
 10
-1156.376408199246
 20
2968.826009611337
 10
-1166.44931561731
 20
2967.91336500685
 10
-1170.638095325612
 20
2965.718002681405
 10
-1176.215821409232
 20
2966.419066007682
 10
-1189.626763450634
 20
2972.464303692347
 10
-1208.130289860575
 20
2979.789561322191
 10
-1226.422782511376
 20
2983.500784943247
 10
-1240.717679158027
 20
2983.201232282918
 10
-1245.182717078976
 20
2981.423437864494
 10
-1247.228397645732
 20
2978.494180978391
 10
-1248.161459734063
 20
2975.758108729765
 10
-1249.867568973962
 20
2974.497670057487
 10
-1257.131862844149
 20
2976.021823778277
 10
-1270.821999791388
 20
2979.213670810077
 10
-1274.64401140742
 20
2978.349367161974
 10
-1275.994103838594
 20
2975.849743512203
 10
-1272.995849594851
 20
2973.369492082597
 10
-1265.78861716659
 20
2972.33787656177
 10
-1257.908424072653
 20
2971.034532304233
 10
-1256.882910900726
 20
2968.988045391211
 10
-1257.332045770823
 20
2965.640742763263
 10
-1257.811851663698
 20
2962.251410580568
 10
-1256.748191344971
 20
2960.324223095327
 10
-1248.215236061573
 20
2959.698667626171
 10
-1239.252956143499
 20
2959.412006551204
 10
-1232.966710519366
 20
2957.668805383074
 10
-1231.98525770019
 20
2956.516257832149
 10
-1232.958806334982
 20
2955.628410864061
 10
-1240.288951816882
 20
2954.831223098977
 10
-1248.789922031734
 20
2953.493743516185
 10
-1250.460104065786
 20
2952.072165004328
 10
-1250.487848350268
 20
2950.334269793726
 10
-1245.849276748987
 20
2946.466286485648
 10
-1235.340733294611
 20
2943.003248281316
 10
-1212.239669348919
 20
2935.101552620288
 10
-1203.751929185762
 20
2931.62831065148
 10
-1196.436268071971
 20
2930.16738045087
 10
-1174.320728496353
 20
2923.556724800655
 10
-1130.251625395636
 20
2907.708984433978
 10
-1057.300931202291
 20
2880.031089128251
 10
-1046.966220075012
 20
2875.549068161257
 10
-1044.137139268829
 20
2873.345373591064
 10
-1032.623151705144
 20
2868.935346404254
 10
-1008.791070162631
 20
2862.054714078352
 10
-968.7092597526678
 20
2852.934400247058
 10
-951.6766980746448
 20
2847.940528589289
 10
-928.3192757457554
 20
2841.246908867718
 10
-899.7634087249748
 20
2834.016849871709
 10
-872.1294045388319
 20
2823.220490574874
 10
-846.0480350199818
 20
2813.045684880542
 10
-804.0839137786862
 20
2800.015398005991
 10
-755.3170871074063
 20
2786.760568583621
 10
-708.8275913437108
 20
2775.912135245838
 10
-671.7504560829407
 20
2767.238587020303
 10
-636.8031500924516
 20
2756.854987417569
 10
-601.9486933812453
 20
2744.085070747759
 10
-565.1500860485379
 20
2728.252591230779
 10
-544.0086525816724
 20
2719.483456130615
 10
-472.6756084563918
 20
2685.569358443701
 10
-413.9277779315733
 20
2654.901979154234
 10
-374.5997021823651
 20
2630.176675001861
 10
-353.6236493391431
 20
2612.900925262983
 10
-335.8023515994897
 20
2595.174776382703
 10
-322.6272509085208
 20
2578.645743105601
 10
-315.5897991662431
 20
2564.961310311576
 10
-309.479595855268
 20
2554.269865623334
 10
-298.441352588453
 20
2540.89448245677
 10
-283.8916903413529
 20
2525.607331932938
 10
-294.8627579957955
 20
2527.90409479004
 10
-304.1696464161654
 20
2528.404975189643
 10
-306.1221890117662
 20
2526.277823785357
 10
-307.2210199645348
 20
2522.123557688213
 10
-308.0140963591515
 20
2512.640806142743
 10
-307.0072386551546
 20
2505.06335127463
 10
-304.3838159663402
 20
2500.030894454804
 10
-300.3272272711821
 20
2498.183156963984
 10
-291.9896168368624
 20
2497.031654676737
 10
-288.7933796976155
 20
2493.646264631341
 10
-290.7108611629886
 20
2487.830447391658
 10
-297.7143965876384
 20
2479.387643611763
 10
-306.5537634520721
 20
2469.274349196159
 10
-310.2306924695982
 20
2463.053955183739
 10
-308.1698804667416
 20
2460.939147845745
 10
-302.6494447875674
 20
2459.518385635047
 10
-285.2016147826154
 20
2459.348933460506
 10
-280.5123926899666
 20
2458.032428835517
 10
-277.2612841850706
 20
2454.09517938771
 10
-276.7270449418019
 20
2450.139065419238
 10
-279.7933408735358
 20
2450.112724774552
 10
-281.7237338340559
 20
2450.22146206174
 10
-282.8723193378963
 20
2448.967693167216
 10
-283.051039517049
 20
2443.686443682244
 10
-280.7835241331458
 20
2436.896639792514
 10
-276.5237959083389
 20
2431.225905151335
 10
-270.9844857536076
 20
2428.671788421818
 10
-265.9311236602224
 20
2429.588494622312
 10
-262.4725950220437
 20
2433.364305583777
 10
-261.7177653231494
 20
2439.387483227389
 10
-261.889407573968
 20
2444.629381023608
 10
-259.3507607468854
 20
2442.045967046431
 10
-256.7173035267623
 20
2425.946248449111
 10
-255.2559253560049
 20
2394.635763215589
 10
-253.25284177285
 20
2355.588196417986
 10
-249.3138502189121
 20
2320.886557256502
 10
-241.756753105289
 20
2266.492568507079
 10
-238.1952809271662
 20
2220.79834916917
 10
-236.4464253802836
 20
2201.224134286628
 10
-232.3668906586705
 20
2182.01899703134
 10
-226.1822247542538
 20
2164.002404217069
 10
-218.1179358393912
 20
2147.993832612469
 10
-209.4664476549082
 20
2134.925299042195
 10
-204.4181426467456
 20
2129.48980845792
 10
-200.4593906318479
 20
2125.922632126583
 10
-194.4303893763145
 20
2117.345775768709
 10
-190.8271066510723
 20
2110.136681775612
 10
-188.2345839475582
 20
2101.43086974455
 10
-185.3206078209379
 20
2076.081334123678
 10
-181.7718679499027
 20
2039.576794305713
 10
-172.7762192332706
 20
1992.344384849052
 10
-167.9579419185121
 20
1953.713848394292
 10
-155.4662246653237
 20
1785.326847315514
 10
-153.1993165298428
 20
1737.400840701704
 10
-153.3239915993971
 20
1688.750506178615
 10
-153.6036245204908
 20
1645.936894168767
 10
-150.2089664704837
 20
1618.154960284958
 10
-145.680406382589
 20
1584.041117686624
 10
-141.7418528439067
 20
1532.114219999356
 10
-134.0649087834323
 20
1390.241815391834
 10
-130.8827179970391
 20
1306.27527643906
 10
-129.0780553246437
 20
1212.892534394982
 10
-123.1684630007063
 20
954.0569658749614
 10
-113.8611365650807
 20
705.427760057455
 10
-111.8440066290717
 20
655.2080666482244
 10
-112.1157453206741
 20
628.1666871479357
 10
-117.0042643545936
 20
529.8344125358197
 10
-120.1285077136575
 20
462.6699595975172
 10
-123.4450298150112
 20
424.4784040228385
 10
-131.1044034908033
 20
361.2647989150496
 10
-141.4986548281598
 20
276.1538256484702
 10
-154.1738606538514
 20
204.986719620794
 10
-162.6093674977845
 20
155.8205823147361
 10
-171.3657702908618
 20
96.88443509471165
 10
-176.5701879180557
 20
74.28984619802236
 10
-182.9114641861128
 20
53.31972647053419
 10
-192.2389890979535
 20
25.6813321769439
 10
-232.7975392940044
 20
13.26687484189728
  0
ENDBLK
  5
C81
330
C7F
100
AcDbEntity
  8
0
100
AcDbBlockEnd
  0
ENDSEC
  0
SECTION
  2
ENTITIES
  0
INSERT
  5
CAB
330
6F
100
AcDbEntity
  8
0
  6
Continuous
100
AcDbBlockReference
  2
Palmier
 10
198.7331916677332
 20
35.85216800000001
 30
0.0
  0
ENDSEC
  0
SECTION
  2
OBJECTS
  0
DICTIONARY
  5
C
330
0
100
AcDbDictionary
281
     1
  3
ACAD_CIP_PREVIOUS_PRODUCT_INFO
350
C3C
  3
ACAD_COLOR
350
62
  3
ACAD_DETAILVIEWSTYLE
350
69
  3
ACAD_GROUP
350
D
  3
ACAD_LAYOUT
350
61
  3
ACAD_MATERIAL
350
10
  3
ACAD_MLEADERSTYLE
350
65
  3
ACAD_MLINESTYLE
350
5E
  3
ACAD_PLOTSETTINGS
350
60
  3
ACAD_PLOTSTYLENAME
350
E
  3
ACAD_RENDER_ACTIVE_RAPIDRT_SETTINGS
350
C44
  3
ACAD_RENDER_ACTIVE_SETTINGS
350
D00
  3
ACAD_RENDER_RAPIDRT_SETTINGS
350
C3D
  3
ACAD_SCALELIST
350
42
  3
ACAD_SECTIONVIEWSTYLE
350
67
  3
ACAD_TABLESTYLE
350
63
  3
ACAD_VISUALSTYLE
350
29
  3
ACDB_RECOMPOSE_DATA
350
CF3
  3
AcDbVariableDictionary
350
C63
  3
AcDsDecomposeData
350
CF9
  0
DICTIONARY
  5
C5D
330
2
100
AcDbDictionary
280
     1
281
     1
  3
ACAD_LAYERSTATES
360
C5E
  0
DICTIONARY
  5
C48
330
54
100
AcDbDictionary
280
     1
281
     1
  3
ADSK_XREC_LAYER_RECONCILED
360
C49
  0
DICTIONARY
  5
C58
330
6F
100
AcDbDictionary
280
     1
281
     1
  3
ACAD_SORTENTS
360
C59
  0
DICTIONARY
  5
CD9
330
C7F
100
AcDbDictionary
280
     1
281
     1
  0
XRECORD
  5
C3C
102
{ACAD_REACTORS
330
C
102
}
330
C
100
AcDbXrecord
280
     1
300
AOEM
300
2019
300

  0
DICTIONARY
  5
62
102
{ACAD_REACTORS
330
C
102
}
330
C
100
AcDbDictionary
281
     1
  0
DICTIONARY
  5
69
102
{ACAD_REACTORS
330
C
102
}
330
C
100
AcDbDictionary
281
     1
  3
Imperial24
350
6A
  0
DICTIONARY
  5
D
102
{ACAD_REACTORS
330
C
102
}
330
C
100
AcDbDictionary
281
     1
  0
DICTIONARY
  5
61
102
{ACAD_REACTORS
330
C
102
}
330
C
100
AcDbDictionary
281
     1
  3
Model
350
72
  3
Présentation1
350
6E
  0
DICTIONARY
  5
10
102
{ACAD_REACTORS
330
C
102
}
330
C
100
AcDbDictionary
281
     1
  3
ByBlock
350
19
  3
ByLayer
350
11
  3
Global
350
21
  0
DICTIONARY
  5
65
102
{ACAD_REACTORS
330
C
102
}
330
C
100
AcDbDictionary
281
     1
  3
Standard
350
66
  0
DICTIONARY
  5
5E
102
{ACAD_REACTORS
330
C
102
}
330
C
100
AcDbDictionary
281
     1
  3
Standard
350
5F
  0
DICTIONARY
  5
60
102
{ACAD_REACTORS
330
C
102
}
330
C
100
AcDbDictionary
281
     1
  0
ACDBDICTIONARYWDFLT
  5
E
102
{ACAD_REACTORS
330
C
102
}
330
C
100
AcDbDictionary
281
     1
  3
Normal
350
F
100
AcDbDictionaryWithDefault
340
F
  0
RAPIDRTRENDERSETTINGS
  5
C44
102
{ACAD_REACTORS
330
C
102
}
330
C
100
AcDbRenderSettings
 90
        2
  1
Moyenne
290
     1
290
     0
290
     1
290
     1
  1

  1
Applique 5 niveaux de rendu
 90
        0
100
AcDbRapidRTRenderSettings
 90
        3
 70
     0
 90
        5
 90
        1
 70
     1
 70
     2
 40
3.0
 40
3.0
290
     1
  0
MENTALRAYRENDERSETTINGS
  5
D00
102
{ACAD_XDICTIONARY
360
D01
102
}
102
{ACAD_REACTORS
330
C
102
}
330
C
100
AcDbRenderSettings
 90
        2
  1
Moyen
290
     1
290
     1
290
     1
290
     1
  1

  1

 90
        0
100
AcDbMentalRayRenderSettings
 90
        2
 90
        0
 90
        1
 70
     2
 40
3.0
 40
3.0
 40
0.0500000007450581
 40
0.0500000007450581
 40
0.0500000007450581
 40
0.0500000007450581
 70
     0
290
     0
290
     1
 90
        5
 90
        5
 90
        5
290
     0
 90
      500
290
     0
 40
1.0
 90
    10000
 90
        5
 90
        5
 90
        5
290
     0
 90
      200
290
     0
290
     0
290
     0
 40
1.0
 40
1.0
 40
1500.0
 70
     0
 70
     0
 40
10.0
 70
     0
 70
     0
290
     0
  1

 90
       32
 70
     0
 90
     1048
290
     0
 40
1.0
  0
DICTIONARY
  5
C3D
102
{ACAD_REACTORS
330
C
102
}
330
C
100
AcDbDictionary
281
     1
  3
Bas
350
C3E
  3
Elevé
350
C40
  3
Moyenne
350
C3F
  3
Temps d'un déjeuner
350
C42
  3
Temps d'une nuit
350
C43
  3
Temps d'une pause café
350
C41
  0
DICTIONARY
  5
42
102
{ACAD_REACTORS
330
C
102
}
330
C
100
AcDbDictionary
281
     1
  3
A0
350
43
  3
A1
350
44
  3
A2
350
45
  3
A3
350
46
  3
A4
350
47
  3
A5
350
48
  3
A6
350
49
  3
A7
350
4A
  3
A8
350
4B
  3
A9
350
4C
  3
B0
350
4D
  3
B1
350
4E
  3
B2
350
4F
  3
B3
350
50
  3
B4
350
51
  3
B5
350
52
  3
B6
350
53
  0
DICTIONARY
  5
67
102
{ACAD_REACTORS
330
C
102
}
330
C
100
AcDbDictionary
281
     1
  3
Imperial24
350
68
  0
DICTIONARY
  5
63
102
{ACAD_REACTORS
330
C
102
}
330
C
100
AcDbDictionary
281
     1
  3
Standard
350
64
  0
DICTIONARY
  5
29
102
{ACAD_REACTORS
330
C
102
}
330
C
100
AcDbDictionary
281
     1
  3
2dWireframe
350
2F
  3
Basic
350
2E
  3
Brighten
350
35
  3
ColorChange
350
39
  3
Conceptual
350
32
  3
Dim
350
34
  3
EdgeColorOff
350
41
  3
Facepattern
350
38
  3
Flat
350
2A
  3
FlatWithEdges
350
2B
  3
Gouraud
350
2C
  3
GouraudWithEdges
350
2D
  3
Hidden
350
31
  3
JitterOff
350
3F
  3
Linepattern
350
37
  3
OverhangOff
350
40
  3
Realistic
350
33
  3
Shaded
350
3E
  3
Shaded with edges
350
3D
  3
Shades of Gray
350
3A
  3
Sketchy
350
3B
  3
Thicken
350
36
  3
Wireframe
350
30
  3
X-Ray
350
3C
  0
XRECORD
  5
CF3
102
{ACAD_REACTORS
330
C
102
}
330
C
100
AcDbXrecord
280
     1
 90
        1
330
64
  0
DICTIONARY
  5
C63
102
{ACAD_REACTORS
330
C
102
}
330
C
100
AcDbDictionary
281
     1
  3
CANNOSCALE
350
C69
  3
CMLEADERSTYLE
350
C65
  3
CTABLESTYLE
350
C64
  3
CVIEWDETAILSTYLE
350
C66
  3
CVIEWSECTIONSTYLE
350
C67
  3
LAYEREVAL
350
C6B
  3
LAYERNOTIFY
350
C6C
  3
LIGHTINGUNITS
350
C6A
  3
MSLTSCALE
350
C68
  0
DICTIONARY
  5
CF9
102
{ACAD_REACTORS
330
C
102
}
330
C
100
AcDbDictionary
281
     1
  3
AcDsRecords
350
CFB
  3
AcDsSchemas
350
CFA
1001
ACAD
1070
     2
  0
DICTIONARY
  5
C5E
102
{ACAD_REACTORS
330
C5D
102
}
330
C5D
100
AcDbDictionary
281
     1
  0
XRECORD
  5
C49
102
{ACAD_REACTORS
330
C48
102
}
330
C48
100
AcDbXrecord
280
     1
290
     1
  0
SORTENTSTABLE
  5
C59
102
{ACAD_REACTORS
330
C58
102
}
330
C58
100
AcDbSortentsTable
330
6F
  0
ACDBDETAILVIEWSTYLE
  5
6A
102
{ACAD_XDICTIONARY
360
CFE
102
}
102
{ACAD_REACTORS
330
69
102
}
330
69
100
AcDbModelDocViewStyle
 70
     0
  3
Imperial24
290
     0
100
AcDbDetailViewStyle
 70
     0
 71
     0
 90
        3
 71
     1
340
55
 62
   256
 40
0.24
340
0
 62
   256
 40
0.24
300

 40
0.36
280
     3
 71
     2
340
5C
 90
       25
 62
   256
 71
     3
340
55
 62
   256
 40
0.24
 90
        1
 40
0.75
 90
        1
300
%<\AcVar ViewType \f "%tc1">% %<\AcVar ViewDetailId>%\PECHELLE %<\AcVar ViewScale \f "%sn">%
 71
     4
340
5C
 90
       25
 62
   256
340
5C
 90
       25
 62
   256
280
     0
  0
LAYOUT
  5
72
102
{ACAD_REACTORS
330
61
102
}
330
61
100
AcDbPlotSettings
  1

  2
AutoCAD PDF (General Documentation).pc3
  4

  6

 40
0.0
 41
0.0
 42
0.0
 43
0.0
 44
0.0
 45
0.0
 46
0.0
 47
0.0
 48
0.0
 49
0.0
140
0.0
141
0.0
142
1.0
143
1.0
 70
  1712
 72
     0
 73
     0
 74
     0
  7

 75
     0
147
1.0
 76
     0
 77
     2
 78
   300
148
0.0
149
0.0
100
AcDbLayout
  1
Model
 70
     1
 71
     0
 10
0.0
 20
0.0
 11
12.0
 21
9.0
 12
0.0
 22
0.0
 32
0.0
 14
0.0
 24
0.0
 34
0.0
 15
0.0
 25
0.0
 35
0.0
146
0.0
 13
0.0
 23
0.0
 33
0.0
 16
1.0
 26
0.0
 36
0.0
 17
0.0
 27
1.0
 37
0.0
 76
     0
330
6F
331
C3B
  0
LAYOUT
  5
6E
102
{ACAD_REACTORS
330
61
102
}
330
61
100
AcDbPlotSettings
  1

  2
AutoCAD PDF (General Documentation).pc3
  4

  6

 40
0.0
 41
0.0
 42
0.0
 43
0.0
 44
0.0
 45
0.0
 46
0.0
 47
0.0
 48
0.0
 49
0.0
140
0.0
141
0.0
142
1.0
143
1.0
 70
   688
 72
     0
 73
     0
 74
     5
  7

 75
    16
147
1.0
 76
     0
 77
     2
 78
   300
148
0.0
149
0.0
100
AcDbLayout
  1
Présentation1
 70
     1
 71
     1
 10
0.0
 20
0.0
 11
12.0
 21
9.0
 12
0.0
 22
0.0
 32
0.0
 14
1.000000000000000E+20
 24
1.000000000000000E+20
 34
1.000000000000000E+20
 15
-1.000000000000000E+20
 25
-1.000000000000000E+20
 35
-1.000000000000000E+20
146
0.0
 13
0.0
 23
0.0
 33
0.0
 16
1.0
 26
0.0
 36
0.0
 17
0.0
 27
1.0
 37
0.0
 76
     0
330
6B
  0
MATERIAL
  5
19
102
{ACAD_XDICTIONARY
360
1A
102
}
102
{ACAD_REACTORS
330
10
102
}
330
10
100
AcDbMaterial
  1
ByBlock
 72
     0
 43
0.0208333333333333
 43
0.0
 43
0.0
 43
0.0
 43
0.0
 43
0.0208333333333333
 43
0.0
 43
0.0
 43
0.0
 43
0.0
 43
1.0
 43
0.0
 43
0.0
 43
0.0
 43
0.0
 43
1.0
 77
     0
 47
0.0208333333333333
 47
0.0
 47
0.0
 47
0.0
 47
0.0
 47
0.0208333333333333
 47
0.0
 47
0.0
 47
0.0
 47
0.0
 47
1.0
 47
0.0
 47
0.0
 47
0.0
 47
0.0
 47
1.0
171
     0
 49
0.0208333333333333
 49
0.0
 49
0.0
 49
0.0
 49
0.0
 49
0.0208333333333333
 49
0.0
 49
0.0
 49
0.0
 49
0.0
 49
1.0
 49
0.0
 49
0.0
 49
0.0
 49
0.0
 49
1.0
175
     0
142
0.0208333333333333
142
0.0
142
0.0
142
0.0
142
0.0
142
0.0208333333333333
142
0.0
142
0.0
142
0.0
142
0.0
142
1.0
142
0.0
142
0.0
142
0.0
142
0.0
142
1.0
179
     0
144
0.0208333333333333
144
0.0
144
0.0
144
0.0
144
0.0
144
0.0208333333333333
144
0.0
144
0.0
144
0.0
144
0.0
144
1.0
144
0.0
144
0.0
144
0.0
144
0.0
144
1.0
147
0.0208333333333333
147
0.0
147
0.0
147
0.0
147
0.0
147
0.0208333333333333
147
0.0
147
0.0
147
0.0
147
0.0
147
1.0
147
0.0
147
0.0
147
0.0
147
0.0
147
1.0
  0
MATERIAL
  5
11
102
{ACAD_XDICTIONARY
360
12
102
}
102
{ACAD_REACTORS
330
10
102
}
330
10
100
AcDbMaterial
  1
ByLayer
 72
     0
 43
0.0208333333333333
 43
0.0
 43
0.0
 43
0.0
 43
0.0
 43
0.0208333333333333
 43
0.0
 43
0.0
 43
0.0
 43
0.0
 43
1.0
 43
0.0
 43
0.0
 43
0.0
 43
0.0
 43
1.0
 77
     0
 47
0.0208333333333333
 47
0.0
 47
0.0
 47
0.0
 47
0.0
 47
0.0208333333333333
 47
0.0
 47
0.0
 47
0.0
 47
0.0
 47
1.0
 47
0.0
 47
0.0
 47
0.0
 47
0.0
 47
1.0
171
     0
 49
0.0208333333333333
 49
0.0
 49
0.0
 49
0.0
 49
0.0
 49
0.0208333333333333
 49
0.0
 49
0.0
 49
0.0
 49
0.0
 49
1.0
 49
0.0
 49
0.0
 49
0.0
 49
0.0
 49
1.0
175
     0
142
0.0208333333333333
142
0.0
142
0.0
142
0.0
142
0.0
142
0.0208333333333333
142
0.0
142
0.0
142
0.0
142
0.0
142
1.0
142
0.0
142
0.0
142
0.0
142
0.0
142
1.0
179
     0
144
0.0208333333333333
144
0.0
144
0.0
144
0.0
144
0.0
144
0.0208333333333333
144
0.0
144
0.0
144
0.0
144
0.0
144
1.0
144
0.0
144
0.0
144
0.0
144
0.0
144
1.0
147
0.0208333333333333
147
0.0
147
0.0
147
0.0
147
0.0
147
0.0208333333333333
147
0.0
147
0.0
147
0.0
147
0.0
147
1.0
147
0.0
147
0.0
147
0.0
147
0.0
147
1.0
  0
MATERIAL
  5
21
102
{ACAD_XDICTIONARY
360
22
102
}
102
{ACAD_REACTORS
330
10
102
}
330
10
100
AcDbMaterial
  1
Global
 72
     0
 43
0.0208333333333333
 43
0.0
 43
0.0
 43
0.0
 43
0.0
 43
0.0208333333333333
 43
0.0
 43
0.0
 43
0.0
 43
0.0
 43
1.0
 43
0.0
 43
0.0
 43
0.0
 43
0.0
 43
1.0
 77
     0
 47
0.0208333333333333
 47
0.0
 47
0.0
 47
0.0
 47
0.0
 47
0.0208333333333333
 47
0.0
 47
0.0
 47
0.0
 47
0.0
 47
1.0
 47
0.0
 47
0.0
 47
0.0
 47
0.0
 47
1.0
171
     0
 49
0.0208333333333333
 49
0.0
 49
0.0
 49
0.0
 49
0.0
 49
0.0208333333333333
 49
0.0
 49
0.0
 49
0.0
 49
0.0
 49
1.0
 49
0.0
 49
0.0
 49
0.0
 49
0.0
 49
1.0
175
     0
142
0.0208333333333333
142
0.0
142
0.0
142
0.0
142
0.0
142
0.0208333333333333
142
0.0
142
0.0
142
0.0
142
0.0
142
1.0
142
0.0
142
0.0
142
0.0
142
0.0
142
1.0
179
     0
144
0.0208333333333333
144
0.0
144
0.0
144
0.0
144
0.0
144
0.0208333333333333
144
0.0
144
0.0
144
0.0
144
0.0
144
1.0
144
0.0
144
0.0
144
0.0
144
0.0
144
1.0
147
0.0208333333333333
147
0.0
147
0.0
147
0.0
147
0.0
147
0.0208333333333333
147
0.0
147
0.0
147
0.0
147
0.0
147
1.0
147
0.0
147
0.0
147
0.0
147
0.0
147
1.0
  0
MLEADERSTYLE
  5
66
102
{ACAD_REACTORS
330
65
102
}
330
65
100
AcDbMLeaderStyle
179
     2
170
     2
171
     1
172
     0
 90
        2
 40
0.0
 41
0.0
173
     1
 91
-1056964608
340
5A
 92
       -2
290
     1
 42
0.09
291
     1
 43
0.36
  3
Standard
 44
0.18
300

342
55
174
     1
178
     6
175
     1
176
     0
 93
-1056964608
 45
0.18
292
     0
297
     0
 46
0.18
 94
-1056964608
 47
1.0
 49
1.0
140
1.0
293
     1
141
0.0
294
     1
177
     0
142
1.0
295
     0
296
     0
143
0.125
271
     0
272
     9
273
     9
298
     0
  0
MLINESTYLE
  5
5F
102
{ACAD_REACTORS
330
5E
102
}
330
5E
100
AcDbMlineStyle
  2
STANDARD
 70
     0
  3

 62
   256
 51
90.0
 52
90.0
 71
     2
 49
0.5
 62
   256
  6
BYLAYER
 49
-0.5
 62
   256
  6
BYLAYER
  0
ACDBPLACEHOLDER
  5
F
102
{ACAD_REACTORS
330
E
102
}
330
E
  0
DICTIONARY
  5
D01
330
D00
100
AcDbDictionary
280
     1
281
     1
  3
ACAD_XREC_ROUNDTRIP
360
D03
  3
ADSK_XREC_MENTALRAYSETTINGSINFO
360
D02
  0
RAPIDRTRENDERSETTINGS
  5
C3E
102
{ACAD_REACTORS
330
C3D
102
}
330
C3D
100
AcDbRenderSettings
 90
        2
  1
Bas
290
     1
290
     0
290
     1
290
     1
  1

  1
Applique 1 niveau de rendu
 90
        0
100
AcDbRapidRTRenderSettings
 90
        3
 70
     0
 90
        1
 90
        1
 70
     0
 70
     2
 40
3.0
 40
3.0
290
     1
  0
RAPIDRTRENDERSETTINGS
  5
C40
102
{ACAD_REACTORS
330
C3D
102
}
330
C3D
100
AcDbRenderSettings
 90
        2
  1
Elevé
290
     1
290
     0
290
     1
290
     1
  1

  1
Applique 10 niveaux de rendu
 90
        2
100
AcDbRapidRTRenderSettings
 90
        3
 70
     0
 90
       10
 90
        1
 70
     2
 70
     2
 40
3.0
 40
3.0
290
     1
  0
RAPIDRTRENDERSETTINGS
  5
C3F
102
{ACAD_REACTORS
330
C3D
102
}
330
C3D
100
AcDbRenderSettings
 90
        2
  1
Moyenne
290
     1
290
     0
290
     1
290
     1
  1

  1
Applique 5 niveaux de rendu
 90
        1
100
AcDbRapidRTRenderSettings
 90
        3
 70
     0
 90
        5
 90
        1
 70
     1
 70
     2
 40
3.0
 40
3.0
290
     1
  0
RAPIDRTRENDERSETTINGS
  5
C42
102
{ACAD_REACTORS
330
C3D
102
}
330
C3D
100
AcDbRenderSettings
 90
        2
  1
Temps d'un déjeuner
290
     1
290
     0
290
     1
290
     1
  1

  1
Effectue un rendu pendant 60 minutes
 90
        4
100
AcDbRapidRTRenderSettings
 90
        3
 70
     1
 90
        1
 90
       60
 70
     2
 70
     2
 40
3.0
 40
3.0
290
     1
  0
RAPIDRTRENDERSETTINGS
  5
C43
102
{ACAD_REACTORS
330
C3D
102
}
330
C3D
100
AcDbRenderSettings
 90
        2
  1
Temps d'une nuit
290
     1
290
     0
290
     1
290
     1
  1

  1
Effectue un rendu pendant 12 heures
 90
        5
100
AcDbRapidRTRenderSettings
 90
        3
 70
     1
 90
        1
 90
      720
 70
     2
 70
     2
 40
3.0
 40
3.0
290
     1
  0
RAPIDRTRENDERSETTINGS
  5
C41
102
{ACAD_REACTORS
330
C3D
102
}
330
C3D
100
AcDbRenderSettings
 90
        2
  1
Temps d'une pause café
290
     1
290
     0
290
     1
290
     1
  1

  1
Effectue un rendu pendant 10 minutes
 90
        3
100
AcDbRapidRTRenderSettings
 90
        3
 70
     1
 90
        1
 90
       10
 70
     1
 70
     2
 40
3.0
 40
3.0
290
     1
  0
SCALE
  5
43
102
{ACAD_REACTORS
330
42
102
}
330
42
100
AcDbScale
 70
     0
300
1:1
140
1.0
141
1.0
290
     1
  0
SCALE
  5
44
102
{ACAD_REACTORS
330
42
102
}
330
42
100
AcDbScale
 70
     0
300
1/128" = 1'-0"
140
0.0078125
141
12.0
290
     0
  0
SCALE
  5
45
102
{ACAD_REACTORS
330
42
102
}
330
42
100
AcDbScale
 70
     0
300
1/64" = 1'-0"
140
0.015625
141
12.0
290
     0
  0
SCALE
  5
46
102
{ACAD_REACTORS
330
42
102
}
330
42
100
AcDbScale
 70
     0
300
1/32" = 1'-0"
140
0.03125
141
12.0
290
     0
  0
SCALE
  5
47
102
{ACAD_REACTORS
330
42
102
}
330
42
100
AcDbScale
 70
     0
300
1/16" = 1'-0"
140
0.0625
141
12.0
290
     0
  0
SCALE
  5
48
102
{ACAD_REACTORS
330
42
102
}
330
42
100
AcDbScale
 70
     0
300
3/32" = 1'-0"
140
0.09375
141
12.0
290
     0
  0
SCALE
  5
49
102
{ACAD_REACTORS
330
42
102
}
330
42
100
AcDbScale
 70
     0
300
1/8" = 1'-0"
140
0.125
141
12.0
290
     0
  0
SCALE
  5
4A
102
{ACAD_REACTORS
330
42
102
}
330
42
100
AcDbScale
 70
     0
300
3/16" = 1'-0"
140
0.1875
141
12.0
290
     0
  0
SCALE
  5
4B
102
{ACAD_REACTORS
330
42
102
}
330
42
100
AcDbScale
 70
     0
300
1/4" = 1'-0"
140
0.25
141
12.0
290
     0
  0
SCALE
  5
4C
102
{ACAD_REACTORS
330
42
102
}
330
42
100
AcDbScale
 70
     0
300
3/8" = 1'-0"
140
0.375
141
12.0
290
     0
  0
SCALE
  5
4D
102
{ACAD_REACTORS
330
42
102
}
330
42
100
AcDbScale
 70
     0
300
1/2" = 1'-0"
140
0.5
141
12.0
290
     0
  0
SCALE
  5
4E
102
{ACAD_REACTORS
330
42
102
}
330
42
100
AcDbScale
 70
     0
300
3/4" = 1'-0"
140
0.75
141
12.0
290
     0
  0
SCALE
  5
4F
102
{ACAD_REACTORS
330
42
102
}
330
42
100
AcDbScale
 70
     0
300
1" = 1'-0"
140
1.0
141
12.0
290
     0
  0
SCALE
  5
50
102
{ACAD_REACTORS
330
42
102
}
330
42
100
AcDbScale
 70
     0
300
1-1/2" = 1'-0"
140
1.5
141
12.0
290
     0
  0
SCALE
  5
51
102
{ACAD_REACTORS
330
42
102
}
330
42
100
AcDbScale
 70
     0
300
3" = 1'-0"
140
3.0
141
12.0
290
     0
  0
SCALE
  5
52
102
{ACAD_REACTORS
330
42
102
}
330
42
100
AcDbScale
 70
     0
300
6" = 1'-0"
140
6.0
141
12.0
290
     0
  0
SCALE
  5
53
102
{ACAD_REACTORS
330
42
102
}
330
42
100
AcDbScale
 70
     0
300
1'-0" = 1'-0"
140
12.0
141
12.0
290
     0
  0
ACDBSECTIONVIEWSTYLE
  5
68
102
{ACAD_XDICTIONARY
360
CFC
102
}
102
{ACAD_REACTORS
330
67
102
}
330
67
100
AcDbModelDocViewStyle
 70
     0
  3
Imperial24
290
     0
100
AcDbSectionViewStyle
 70
     0
 71
     0
 90
       78
 71
     1
340
55
 62
   256
 40
0.24
340
0
340
0
 62
   256
 40
0.24
300
I, O, Q, S, X, Z
 40
0.48
 90
        3
 40
0.18
 90
        1
 71
     2
340
5C
 90
       25
 62
   256
340
5C
 90
       50
 62
   256
 40
0.24
 40
0.0
 40
0.24
 71
     3
340
55
 62
   256
 40
0.24
 90
        1
 40
0.75
 90
        1
300
%<\AcVar ViewType \f "%tc1">% %<\AcVar ViewSectionStartId>%-%<\AcVar ViewSectionEndId>%\PECHELLE %<\AcVar ViewScale \f "%sn">%
 71
     4
 62
   256
 62
   257
300
ANSI31
 40
1.0
 90
        0
290
     0
290
     0
 90
        6
 40
0.0
 40
1.570796326794896
 40
0.2617993877991494
 40
1.308996938995747
 40
-0.2617993877991494
 40
1.832595714594046
  0
TABLESTYLE
  5
64
102
{ACAD_XDICTIONARY
360
CF1
102
}
102
{ACAD_REACTORS
330
63
102
}
330
63
100
AcDbTableStyle
280
     0
  3
Standard
 70
     0
 71
     0
 40
0.06
 41
0.06
280
     0
281
     0
  7
Standard
140
0.18
170
     2
 62
     0
 63
     7
283
     0
 90
      512
 91
        0
  1

274
    -2
284
     1
 64
     0
275
    -2
285
     1
 65
     0
276
    -2
286
     1
 66
     0
277
    -2
287
     1
 67
     0
278
    -2
288
     1
 68
     0
279
    -2
289
     1
 69
     0
  7
Standard
140
0.25
170
     5
 62
     0
 63
     7
283
     0
 90
      512
 91
        0
  1

274
    -2
284
     1
 64
     0
275
    -2
285
     1
 65
     0
276
    -2
286
     1
 66
     0
277
    -2
287
     1
 67
     0
278
    -2
288
     1
 68
     0
279
    -2
289
     1
 69
     0
  7
Standard
140
0.18
170
     5
 62
     0
 63
     7
283
     0
 90
      512
 91
        0
  1

274
    -2
284
     1
 64
     0
275
    -2
285
     1
 65
     0
276
    -2
286
     1
 66
     0
277
    -2
287
     1
 67
     0
278
    -2
288
     1
 68
     0
279
    -2
289
     1
 69
     0
  0
VISUALSTYLE
  5
2F
102
{ACAD_REACTORS
330
29
102
}
330
29
100
AcDbVisualStyle
  2
2dWireframe
 70
     4
177
     3
291
     0
 70
    58
 90
        0
176
     1
 90
        2
176
     1
 90
        0
176
     1
 90
        0
176
     1
 40
0.6
176
     1
 40
30.0
176
     1
 62
     7
420
 16777215
176
     1
 90
        1
176
     1
 90
        4
176
     1
 62
     7
176
     1
 62
   257
176
     1
 90
        1
176
     1
 90
        1
176
     1
 40
1.0
176
     1
 90
        0
176
     1
 62
   257
176
     1
 40
1.0
176
     1
 90
        1
176
     1
 90
        6
176
     1
 90
        2
176
     1
 62
     7
176
     1
 90
        5
176
     1
 90
        0
176
     1
 90
        0
176
     1
290
     0
176
     1
 90
        1
176
     1
 40
0.0
176
     1
 90
        0
176
     1
290
     1
176
     1
290
     1
176
     1
290
     0
176
     1
290
     0
176
     1
290
     0
176
     1
290
     0
176
     1
290
     0
176
     1
290
     0
176
     1
290
     0
176
     1
 90
       50
176
     1
 40
0.0
176
     1
 40
1.0
176
     1
 90
        0
176
     1
 62
    18
420
        0
176
     1
 90
       50
176
     1
 90
        3
176
     1
 62
     5
420
      255
176
     1
290
     0
176
     1
 90
       50
176
     1
 90
       50
176
     1
 90
       50
176
     1
290
     0
176
     1
 90
       50
176
     1
 62
   256
176
     0
 40
1.0
176
     0
 90
        2
176
     1
  1
strokes_ogs.tif
176
     1
290
     0
176
     1
 40
1.0
176
     1
 40
1.0
176
     1
1001
ACAD
1000
AcDbSavedByObjectVersion
1070
     0
  0
VISUALSTYLE
  5
2E
102
{ACAD_REACTORS
330
29
102
}
330
29
100
AcDbVisualStyle
  2
Basic
 70
     7
177
     3
291
     1
 70
    58
 90
        1
176
     1
 90
        0
176
     1
 90
        1
176
     1
 90
        0
176
     1
 40
0.6
176
     1
 40
30.0
176
     1
 62
     7
420
 16777215
176
     1
 90
        0
176
     1
 90
        4
176
     1
 62
     7
176
     1
 62
   257
176
     1
 90
        1
176
     1
 90
        1
176
     1
 40
1.0
176
     1
 90
        8
176
     1
 62
     7
176
     1
 40
1.0
176
     1
 90
        1
176
     1
 90
        6
176
     1
 90
        2
176
     1
 62
     7
176
     1
 90
        5
176
     1
 90
        0
176
     1
 90
        0
176
     1
290
     0
176
     1
 90
        1
176
     1
 40
0.0
176
     1
 90
        0
176
     1
290
     0
176
     1
290
     1
176
     1
290
     1
176
     1
290
     0
176
     1
290
     0
176
     1
290
     0
176
     1
290
     0
176
     1
290
     0
176
     1
290
     0
176
     1
 90
       50
176
     1
 40
0.0
176
     1
 40
1.0
176
     1
 90
        0
176
     1
 62
    18
420
        0
176
     1
 90
       50
176
     1
 90
        3
176
     1
 62
     5
420
      255
176
     1
290
     0
176
     1
 90
       50
176
     1
 90
       50
176
     1
 90
       50
176
     1
290
     0
176
     1
 90
       50
176
     1
 62
   256
176
     0
 40
1.0
176
     0
 90
        2
176
     1
  1
strokes_ogs.tif
176
     1
290
     0
176
     1
 40
1.0
176
     1
 40
1.0
176
     1
1001
ACAD
1000
AcDbSavedByObjectVersion
1070
     0
  0
VISUALSTYLE
  5
35
102
{ACAD_REACTORS
330
29
102
}
330
29
100
AcDbVisualStyle
  2
Brighten
 70
    12
177
     3
291
     1
 70
    58
 90
        2
176
     1
 90
        2
176
     1
 90
        0
176
     1
 90
        0
176
     1
 40
0.6
176
     1
 40
30.0
176
     1
 62
     7
420
 16777215
176
     1
 90
        1
176
     1
 90
        4
176
     1
 62
     7
176
     1
 62
   257
176
     1
 90
        1
176
     1
 90
        1
176
     1
 40
1.0
176
     1
 90
        8
176
     1
 62
     7
176
     1
 40
1.0
176
     1
 90
        1
176
     1
 90
        6
176
     1
 90
        2
176
     1
 62
     7
176
     1
 90
        5
176
     1
 90
        0
176
     1
 90
        0
176
     1
290
     0
176
     1
 90
        1
176
     1
 40
50.0
176
     1
 90
        0
176
     1
290
     0
176
     1
290
     1
176
     1
290
     1
176
     1
290
     0
176
     1
290
     0
176
     1
290
     0
176
     1
290
     0
176
     1
290
     0
176
     1
290
     0
176
     1
 90
       50
176
     1
 40
0.0
176
     1
 40
1.0
176
     1
 90
        0
176
     1
 62
    18
420
        0
176
     1
 90
       50
176
     1
 90
        3
176
     1
 62
     5
420
      255
176
     1
290
     0
176
     1
 90
       50
176
     1
 90
       50
176
     1
 90
       50
176
     1
290
     0
176
     1
 90
       50
176
     1
 62
   256
176
     0
 40
1.0
176
     0
 90
        2
176
     1
  1
strokes_ogs.tif
176
     1
290
     0
176
     1
 40
1.0
176
     1
 40
1.0
176
     1
1001
ACAD
1000
AcDbSavedByObjectVersion
1070
     0
  0
VISUALSTYLE
  5
39
102
{ACAD_REACTORS
330
29
102
}
330
29
100
AcDbVisualStyle
  2
ColorChange
 70
    16
177
     3
291
     1
 70
    58
 90
        2
176
     1
 90
        2
176
     1
 90
        3
176
     1
 90
        0
176
     1
 40
0.6
176
     1
 40
30.0
176
     1
 62
     8
420
  8421504
176
     1
 90
        1
176
     1
 90
        4
176
     1
 62
     7
176
     1
 62
   257
176
     1
 90
        1
176
     1
 90
        1
176
     1
 40
1.0
176
     1
 90
        8
176
     1
 62
     8
420
  8421504
176
     1
 40
1.0
176
     1
 90
        1
176
     1
 90
        6
176
     1
 90
        2
176
     1
 62
     7
176
     1
 90
        5
176
     1
 90
        0
176
     1
 90
        0
176
     1
290
     0
176
     1
 90
        1
176
     1
 40
0.0
176
     1
 90
        0
176
     1
290
     0
176
     1
290
     1
176
     1
290
     1
176
     1
290
     0
176
     1
290
     0
176
     1
290
     0
176
     1
290
     0
176
     1
290
     0
176
     1
290
     0
176
     1
 90
       50
176
     1
 40
0.0
176
     1
 40
1.0
176
     1
 90
        0
176
     1
 62
    18
420
        0
176
     1
 90
       50
176
     1
 90
        3
176
     1
 62
     5
420
      255
176
     1
290
     0
176
     1
 90
       50
176
     1
 90
       50
176
     1
 90
       50
176
     1
290
     0
176
     1
 90
       50
176
     1
 62
   256
176
     0
 40
1.0
176
     0
 90
        2
176
     1
  1
strokes_ogs.tif
176
     1
290
     0
176
     1
 40
1.0
176
     1
 40
1.0
176
     1
1001
ACAD
1000
AcDbSavedByObjectVersion
1070
     0
  0
VISUALSTYLE
  5
32
102
{ACAD_REACTORS
330
29
102
}
330
29
100
AcDbVisualStyle
  2
Conceptual
 70
     9
177
     3
291
     0
 70
    58
 90
        3
176
     1
 90
        2
176
     1
 90
        0
176
     1
 90
        0
176
     1
 40
0.6
176
     1
 40
30.0
176
     1
 62
     7
420
 16777215
176
     1
 90
        2
176
     1
 90
        2
176
     1
 62
     7
176
     1
 62
   257
176
     1
 90
        1
176
     1
 90
        1
176
     1
 40
179.0
176
     1
 90
        8
176
     1
 62
     7
176
     1
 40
1.0
176
     1
 90
        1
176
     1
 90
        6
176
     1
 90
        2
176
     1
 62
     7
176
     1
 90
        3
176
     1
 90
        0
176
     1
 90
        0
176
     1
290
     0
176
     1
 90
        1
176
     1
 40
0.0
176
     1
 90
        0
176
     1
290
     0
176
     1
290
     1
176
     1
290
     1
176
     1
290
     0
176
     1
290
     0
176
     1
290
     0
176
     1
290
     0
176
     1
290
     0
176
     1
290
     0
176
     1
 90
       50
176
     1
 40
0.0
176
     1
 40
1.0
176
     1
 90
        0
176
     1
 62
    18
420
        0
176
     1
 90
       50
176
     1
 90
        3
176
     1
 62
     5
420
      255
176
     1
290
     0
176
     1
 90
       50
176
     1
 90
       50
176
     1
 90
       50
176
     1
290
     0
176
     1
 90
       50
176
     1
 62
   256
176
     0
 40
1.0
176
     0
 90
        2
176
     1
  1
strokes_ogs.tif
176
     1
290
     0
176
     1
 40
1.0
176
     1
 40
1.0
176
     1
1001
ACAD
1000
AcDbSavedByObjectVersion
1070
     0
  0
VISUALSTYLE
  5
34
102
{ACAD_REACTORS
330
29
102
}
330
29
100
AcDbVisualStyle
  2
Dim
 70
    11
177
     3
291
     1
 70
    58
 90
        2
176
     1
 90
        2
176
     1
 90
        0
176
     1
 90
        0
176
     1
 40
0.6
176
     1
 40
30.0
176
     1
 62
     7
420
 16777215
176
     1
 90
        1
176
     1
 90
        4
176
     1
 62
     7
176
     1
 62
   257
176
     1
 90
        1
176
     1
 90
        1
176
     1
 40
1.0
176
     1
 90
        8
176
     1
 62
     7
176
     1
 40
1.0
176
     1
 90
        1
176
     1
 90
        6
176
     1
 90
        2
176
     1
 62
     7
176
     1
 90
        5
176
     1
 90
        0
176
     1
 90
        0
176
     1
290
     0
176
     1
 90
        1
176
     1
 40
-50.0
176
     1
 90
        0
176
     1
290
     0
176
     1
290
     1
176
     1
290
     1
176
     1
290
     0
176
     1
290
     0
176
     1
290
     0
176
     1
290
     0
176
     1
290
     0
176
     1
290
     0
176
     1
 90
       50
176
     1
 40
0.0
176
     1
 40
1.0
176
     1
 90
        0
176
     1
 62
    18
420
        0
176
     1
 90
       50
176
     1
 90
        3
176
     1
 62
     5
420
      255
176
     1
290
     0
176
     1
 90
       50
176
     1
 90
       50
176
     1
 90
       50
176
     1
290
     0
176
     1
 90
       50
176
     1
 62
   256
176
     0
 40
1.0
176
     0
 90
        2
176
     1
  1
strokes_ogs.tif
176
     1
290
     0
176
     1
 40
1.0
176
     1
 40
1.0
176
     1
1001
ACAD
1000
AcDbSavedByObjectVersion
1070
     0
  0
VISUALSTYLE
  5
41
102
{ACAD_REACTORS
330
29
102
}
330
29
100
AcDbVisualStyle
  2
EdgeColorOff
 70
    22
177
     3
291
     1
 70
    58
 90
        2
176
     0
 90
        2
176
     0
 90
        0
176
     0
 90
        0
176
     0
 40
0.6
176
     0
 40
30.0
176
     0
 62
     7
420
 16777215
176
     0
 90
        1
176
     0
 90
        4
176
     0
 62
     7
176
     0
 62
   257
176
     0
 90
        1
176
     0
 90
        1
176
     0
 40
1.0
176
     0
 90
        8
176
     2
 62
     7
176
     0
 40
1.0
176
     0
 90
        1
176
     0
 90
        6
176
     0
 90
        2
176
     0
 62
     7
176
     0
 90
        5
176
     0
 90
        0
176
     0
 90
        0
176
     0
290
     0
176
     0
 90
        1
176
     0
 40
0.0
176
     0
 90
        0
176
     0
290
     0
176
     1
290
     1
176
     1
290
     1
176
     1
290
     0
176
     1
290
     0
176
     1
290
     0
176
     1
290
     0
176
     1
290
     0
176
     1
290
     0
176
     1
 90
       50
176
     0
 40
0.0
176
     0
 40
1.0
176
     0
 90
        0
176
     0
 62
    18
420
        0
176
     0
 90
       50
176
     0
 90
        3
176
     0
 62
     5
420
      255
176
     0
290
     0
176
     1
 90
       50
176
     0
 90
       50
176
     0
 90
       50
176
     0
290
     0
176
     1
 90
       50
176
     0
 62
   256
176
     0
 40
1.0
176
     0
 90
        2
176
     0
  1
strokes_ogs.tif
176
     0
290
     0
176
     1
 40
1.0
176
     0
 40
1.0
176
     0
1001
ACAD
1000
AcDbSavedByObjectVersion
1070
     0
  0
VISUALSTYLE
  5
38
102
{ACAD_REACTORS
330
29
102
}
330
29
100
AcDbVisualStyle
  2
Facepattern
 70
    15
177
     3
291
     1
 70
    58
 90
        2
176
     1
 90
        2
176
     1
 90
        0
176
     1
 90
        0
176
     1
 40
0.6
176
     1
 40
30.0
176
     1
 62
     7
420
 16777215
176
     1
 90
        1
176
     1
 90
        4
176
     1
 62
     7
176
     1
 62
   257
176
     1
 90
        1
176
     1
 90
        1
176
     1
 40
1.0
176
     1
 90
        8
176
     1
 62
     7
176
     1
 40
1.0
176
     1
 90
        1
176
     1
 90
        6
176
     1
 90
        2
176
     1
 62
     7
176
     1
 90
        5
176
     1
 90
        0
176
     1
 90
        0
176
     1
290
     0
176
     1
 90
        1
176
     1
 40
0.0
176
     1
 90
        0
176
     1
290
     0
176
     1
290
     1
176
     1
290
     1
176
     1
290
     0
176
     1
290
     0
176
     1
290
     0
176
     1
290
     0
176
     1
290
     0
176
     1
290
     0
176
     1
 90
       50
176
     1
 40
0.0
176
     1
 40
1.0
176
     1
 90
        0
176
     1
 62
    18
420
        0
176
     1
 90
       50
176
     1
 90
        3
176
     1
 62
     5
420
      255
176
     1
290
     0
176
     1
 90
       50
176
     1
 90
       50
176
     1
 90
       50
176
     1
290
     0
176
     1
 90
       50
176
     1
 62
   256
176
     0
 40
1.0
176
     0
 90
        2
176
     1
  1
strokes_ogs.tif
176
     1
290
     0
176
     1
 40
1.0
176
     1
 40
1.0
176
     1
1001
ACAD
1000
AcDbSavedByObjectVersion
1070
     0
  0
VISUALSTYLE
  5
2A
102
{ACAD_REACTORS
330
29
102
}
330
29
100
AcDbVisualStyle
  2
Flat
 70
     0
177
     3
291
     1
 70
    58
 90
        2
176
     1
 90
        1
176
     1
 90
        1
176
     1
 90
        2
176
     1
 40
0.6
176
     1
 40
30.0
176
     1
 62
     7
420
 16777215
176
     1
 90
        0
176
     1
 90
        0
176
     1
 62
     7
176
     1
 62
   257
176
     1
 90
        1
176
     1
 90
        1
176
     1
 40
1.0
176
     1
 90
        8
176
     1
 62
     7
176
     1
 40
1.0
176
     1
 90
        1
176
     1
 90
        6
176
     1
 90
        2
176
     1
 62
     7
176
     1
 90
        5
176
     1
 90
        0
176
     1
 90
        0
176
     1
290
     0
176
     1
 90
       13
176
     1
 40
0.0
176
     1
 90
        0
176
     1
290
     0
176
     1
290
     1
176
     1
290
     1
176
     1
290
     0
176
     1
290
     0
176
     1
290
     0
176
     1
290
     0
176
     1
290
     0
176
     1
290
     0
176
     1
 90
       50
176
     1
 40
0.0
176
     1
 40
1.0
176
     1
 90
        0
176
     1
 62
    18
420
        0
176
     1
 90
       50
176
     1
 90
        3
176
     1
 62
     5
420
      255
176
     1
290
     0
176
     1
 90
       50
176
     1
 90
       50
176
     1
 90
       50
176
     1
290
     0
176
     1
 90
       50
176
     1
 62
   256
176
     0
 40
1.0
176
     0
 90
        2
176
     1
  1
strokes_ogs.tif
176
     1
290
     0
176
     1
 40
1.0
176
     1
 40
1.0
176
     1
1001
ACAD
1000
AcDbSavedByObjectVersion
1070
     0
  0
VISUALSTYLE
  5
2B
102
{ACAD_REACTORS
330
29
102
}
330
29
100
AcDbVisualStyle
  2
FlatWithEdges
 70
     1
177
     3
291
     1
 70
    58
 90
        2
176
     1
 90
        1
176
     1
 90
        1
176
     1
 90
        2
176
     1
 40
0.6
176
     1
 40
30.0
176
     1
 62
     7
420
 16777215
176
     1
 90
        1
176
     1
 90
        0
176
     1
 62
     7
176
     1
 62
   257
176
     1
 90
        1
176
     1
 90
        1
176
     1
 40
1.0
176
     1
 90
        0
176
     1
 62
   257
176
     1
 40
1.0
176
     1
 90
        1
176
     1
 90
        6
176
     1
 90
        2
176
     1
 62
     7
176
     1
 90
        5
176
     1
 90
        0
176
     1
 90
        0
176
     1
290
     0
176
     1
 90
       13
176
     1
 40
0.0
176
     1
 90
        0
176
     1
290
     0
176
     1
290
     1
176
     1
290
     1
176
     1
290
     0
176
     1
290
     0
176
     1
290
     0
176
     1
290
     0
176
     1
290
     0
176
     1
290
     0
176
     1
 90
       50
176
     1
 40
0.0
176
     1
 40
1.0
176
     1
 90
        0
176
     1
 62
    18
420
        0
176
     1
 90
       50
176
     1
 90
        3
176
     1
 62
     5
420
      255
176
     1
290
     0
176
     1
 90
       50
176
     1
 90
       50
176
     1
 90
       50
176
     1
290
     0
176
     1
 90
       50
176
     1
 62
   256
176
     0
 40
1.0
176
     0
 90
        2
176
     1
  1
strokes_ogs.tif
176
     1
290
     0
176
     1
 40
1.0
176
     1
 40
1.0
176
     1
1001
ACAD
1000
AcDbSavedByObjectVersion
1070
     0
  0
VISUALSTYLE
  5
2C
102
{ACAD_REACTORS
330
29
102
}
330
29
100
AcDbVisualStyle
  2
Gouraud
 70
     2
177
     3
291
     1
 70
    58
 90
        2
176
     1
 90
        2
176
     1
 90
        1
176
     1
 90
        2
176
     1
 40
0.6
176
     1
 40
30.0
176
     1
 62
     7
420
 16777215
176
     1
 90
        0
176
     1
 90
        0
176
     1
 62
     7
176
     1
 62
   257
176
     1
 90
        1
176
     1
 90
        1
176
     1
 40
1.0
176
     1
 90
        0
176
     1
 62
     7
176
     1
 40
1.0
176
     1
 90
        1
176
     1
 90
        6
176
     1
 90
        2
176
     1
 62
     7
176
     1
 90
        5
176
     1
 90
        0
176
     1
 90
        0
176
     1
290
     0
176
     1
 90
       13
176
     1
 40
0.0
176
     1
 90
        0
176
     1
290
     0
176
     1
290
     1
176
     1
290
     1
176
     1
290
     0
176
     1
290
     0
176
     1
290
     0
176
     1
290
     0
176
     1
290
     0
176
     1
290
     0
176
     1
 90
       50
176
     1
 40
0.0
176
     1
 40
1.0
176
     1
 90
        0
176
     1
 62
    18
420
        0
176
     1
 90
       50
176
     1
 90
        3
176
     1
 62
     5
420
      255
176
     1
290
     0
176
     1
 90
       50
176
     1
 90
       50
176
     1
 90
       50
176
     1
290
     0
176
     1
 90
       50
176
     1
 62
   256
176
     0
 40
1.0
176
     0
 90
        2
176
     1
  1
strokes_ogs.tif
176
     1
290
     0
176
     1
 40
1.0
176
     1
 40
1.0
176
     1
1001
ACAD
1000
AcDbSavedByObjectVersion
1070
     0
  0
VISUALSTYLE
  5
2D
102
{ACAD_REACTORS
330
29
102
}
330
29
100
AcDbVisualStyle
  2
GouraudWithEdges
 70
     3
177
     3
291
     1
 70
    58
 90
        2
176
     1
 90
        2
176
     1
 90
        1
176
     1
 90
        2
176
     1
 40
0.6
176
     1
 40
30.0
176
     1
 62
     7
420
 16777215
176
     1
 90
        1
176
     1
 90
        0
176
     1
 62
     7
176
     1
 62
   257
176
     1
 90
        1
176
     1
 90
        1
176
     1
 40
1.0
176
     1
 90
        0
176
     1
 62
   257
176
     1
 40
1.0
176
     1
 90
        1
176
     1
 90
        6
176
     1
 90
        2
176
     1
 62
     7
176
     1
 90
        5
176
     1
 90
        0
176
     1
 90
        0
176
     1
290
     0
176
     1
 90
       13
176
     1
 40
0.0
176
     1
 90
        0
176
     1
290
     0
176
     1
290
     1
176
     1
290
     1
176
     1
290
     0
176
     1
290
     0
176
     1
290
     0
176
     1
290
     0
176
     1
290
     0
176
     1
290
     0
176
     1
 90
       50
176
     1
 40
0.0
176
     1
 40
1.0
176
     1
 90
        0
176
     1
 62
    18
420
        0
176
     1
 90
       50
176
     1
 90
        3
176
     1
 62
     5
420
      255
176
     1
290
     0
176
     1
 90
       50
176
     1
 90
       50
176
     1
 90
       50
176
     1
290
     0
176
     1
 90
       50
176
     1
 62
   256
176
     0
 40
1.0
176
     0
 90
        2
176
     1
  1
strokes_ogs.tif
176
     1
290
     0
176
     1
 40
1.0
176
     1
 40
1.0
176
     1
1001
ACAD
1000
AcDbSavedByObjectVersion
1070
     0
  0
VISUALSTYLE
  5
31
102
{ACAD_REACTORS
330
29
102
}
330
29
100
AcDbVisualStyle
  2
Hidden
 70
     6
177
     3
291
     0
 70
    58
 90
        1
176
     1
 90
        2
176
     1
 90
        2
176
     1
 90
        0
176
     1
 40
0.6
176
     1
 40
30.0
176
     1
 62
     7
420
 16777215
176
     1
 90
        2
176
     1
 90
        2
176
     1
 62
     7
176
     1
 62
   257
176
     1
 90
        2
176
     1
 90
        1
176
     1
 40
40.0
176
     1
 90
        0
176
     1
 62
   257
176
     1
 40
1.0
176
     1
 90
        1
176
     1
 90
        6
176
     1
 90
        2
176
     1
 62
     7
176
     1
 90
        3
176
     1
 90
        0
176
     1
 90
        0
176
     1
290
     0
176
     1
 90
        1
176
     1
 40
0.0
176
     1
 90
        0
176
     1
290
     0
176
     1
290
     1
176
     1
290
     1
176
     1
290
     0
176
     1
290
     0
176
     1
290
     0
176
     1
290
     0
176
     1
290
     0
176
     1
290
     0
176
     1
 90
       50
176
     1
 40
0.0
176
     1
 40
1.0
176
     1
 90
        0
176
     1
 62
    18
420
        0
176
     1
 90
       50
176
     1
 90
        3
176
     1
 62
     5
420
      255
176
     1
290
     0
176
     1
 90
       50
176
     1
 90
       50
176
     1
 90
       50
176
     1
290
     0
176
     1
 90
       50
176
     1
 62
   256
176
     0
 40
1.0
176
     0
 90
        2
176
     1
  1
strokes_ogs.tif
176
     1
290
     0
176
     1
 40
1.0
176
     1
 40
1.0
176
     1
1001
ACAD
1000
AcDbSavedByObjectVersion
1070
     0
  0
VISUALSTYLE
  5
3F
102
{ACAD_REACTORS
330
29
102
}
330
29
100
AcDbVisualStyle
  2
JitterOff
 70
    20
177
     3
291
     1
 70
    58
 90
        2
176
     0
 90
        2
176
     0
 90
        0
176
     0
 90
        0
176
     0
 40
0.6
176
     0
 40
30.0
176
     0
 62
     7
420
 16777215
176
     0
 90
        1
176
     0
 90
        4
176
     0
 62
     7
176
     0
 62
   257
176
     0
 90
        1
176
     0
 90
        1
176
     0
 40
1.0
176
     0
 90
       10
176
     2
 62
     7
176
     0
 40
1.0
176
     0
 90
        1
176
     0
 90
        6
176
     0
 90
        2
176
     0
 62
     7
176
     0
 90
        5
176
     0
 90
        0
176
     0
 90
        0
176
     0
290
     0
176
     0
 90
        1
176
     0
 40
0.0
176
     0
 90
        0
176
     0
290
     0
176
     1
290
     1
176
     1
290
     1
176
     1
290
     0
176
     1
290
     0
176
     1
290
     0
176
     1
290
     0
176
     1
290
     0
176
     1
290
     0
176
     1
 90
       50
176
     0
 40
0.0
176
     0
 40
1.0
176
     0
 90
        0
176
     0
 62
    18
420
        0
176
     0
 90
       50
176
     0
 90
        3
176
     0
 62
     5
420
      255
176
     0
290
     0
176
     1
 90
       50
176
     0
 90
       50
176
     0
 90
       50
176
     0
290
     0
176
     1
 90
       50
176
     0
 62
   256
176
     0
 40
1.0
176
     0
 90
        2
176
     0
  1
strokes_ogs.tif
176
     0
290
     0
176
     1
 40
1.0
176
     0
 40
1.0
176
     0
1001
ACAD
1000
AcDbSavedByObjectVersion
1070
     0
  0
VISUALSTYLE
  5
37
102
{ACAD_REACTORS
330
29
102
}
330
29
100
AcDbVisualStyle
  2
Linepattern
 70
    14
177
     3
291
     1
 70
    58
 90
        2
176
     1
 90
        2
176
     1
 90
        0
176
     1
 90
        0
176
     1
 40
0.6
176
     1
 40
30.0
176
     1
 62
     7
420
 16777215
176
     1
 90
        1
176
     1
 90
        4
176
     1
 62
     7
176
     1
 62
   257
176
     1
 90
        7
176
     1
 90
        7
176
     1
 40
1.0
176
     1
 90
        8
176
     1
 62
     7
176
     1
 40
1.0
176
     1
 90
        1
176
     1
 90
        6
176
     1
 90
        2
176
     1
 62
     7
176
     1
 90
        5
176
     1
 90
        0
176
     1
 90
        0
176
     1
290
     0
176
     1
 90
        1
176
     1
 40
0.0
176
     1
 90
        0
176
     1
290
     0
176
     1
290
     1
176
     1
290
     1
176
     1
290
     0
176
     1
290
     0
176
     1
290
     0
176
     1
290
     0
176
     1
290
     0
176
     1
290
     0
176
     1
 90
       50
176
     1
 40
0.0
176
     1
 40
1.0
176
     1
 90
        0
176
     1
 62
    18
420
        0
176
     1
 90
       50
176
     1
 90
        3
176
     1
 62
     5
420
      255
176
     1
290
     0
176
     1
 90
       50
176
     1
 90
       50
176
     1
 90
       50
176
     1
290
     0
176
     1
 90
       50
176
     1
 62
   256
176
     0
 40
1.0
176
     0
 90
        2
176
     1
  1
strokes_ogs.tif
176
     1
290
     0
176
     1
 40
1.0
176
     1
 40
1.0
176
     1
1001
ACAD
1000
AcDbSavedByObjectVersion
1070
     0
  0
VISUALSTYLE
  5
40
102
{ACAD_REACTORS
330
29
102
}
330
29
100
AcDbVisualStyle
  2
OverhangOff
 70
    21
177
     3
291
     1
 70
    58
 90
        2
176
     0
 90
        2
176
     0
 90
        0
176
     0
 90
        0
176
     0
 40
0.6
176
     0
 40
30.0
176
     0
 62
     7
420
 16777215
176
     0
 90
        1
176
     0
 90
        4
176
     0
 62
     7
176
     0
 62
   257
176
     0
 90
        1
176
     0
 90
        1
176
     0
 40
1.0
176
     0
 90
        9
176
     2
 62
     7
176
     0
 40
1.0
176
     0
 90
        1
176
     0
 90
        6
176
     0
 90
        2
176
     0
 62
     7
176
     0
 90
        5
176
     0
 90
        0
176
     0
 90
        0
176
     0
290
     0
176
     0
 90
        1
176
     0
 40
0.0
176
     0
 90
        0
176
     0
290
     0
176
     1
290
     1
176
     1
290
     1
176
     1
290
     0
176
     1
290
     0
176
     1
290
     0
176
     1
290
     0
176
     1
290
     0
176
     1
290
     0
176
     1
 90
       50
176
     0
 40
0.0
176
     0
 40
1.0
176
     0
 90
        0
176
     0
 62
    18
420
        0
176
     0
 90
       50
176
     0
 90
        3
176
     0
 62
     5
420
      255
176
     0
290
     0
176
     1
 90
       50
176
     0
 90
       50
176
     0
 90
       50
176
     0
290
     0
176
     1
 90
       50
176
     0
 62
   256
176
     0
 40
1.0
176
     0
 90
        2
176
     0
  1
strokes_ogs.tif
176
     0
290
     0
176
     1
 40
1.0
176
     0
 40
1.0
176
     0
1001
ACAD
1000
AcDbSavedByObjectVersion
1070
     0
  0
VISUALSTYLE
  5
33
102
{ACAD_REACTORS
330
29
102
}
330
29
100
AcDbVisualStyle
  2
Realistic
 70
     8
177
     3
291
     0
 70
    58
 90
        2
176
     1
 90
        3
176
     1
 90
        0
176
     1
 90
        2
176
     1
 40
0.6
176
     1
 40
30.0
176
     1
 62
     7
420
 16777215
176
     1
 90
        0
176
     1
 90
        0
176
     1
 62
     7
176
     1
 62
   257
176
     1
 90
        1
176
     1
 90
        1
176
     1
 40
1.0
176
     1
 90
        8
176
     1
 62
   257
176
     1
 40
1.0
176
     1
 90
        1
176
     1
 90
        6
176
     1
 90
        2
176
     1
 62
     7
176
     1
 90
        3
176
     1
 90
        0
176
     1
 90
        0
176
     1
290
     0
176
     1
 90
       13
176
     1
 40
0.0
176
     1
 90
        0
176
     1
290
     0
176
     1
290
     1
176
     1
290
     1
176
     1
290
     0
176
     1
290
     0
176
     1
290
     0
176
     1
290
     0
176
     1
290
     0
176
     1
290
     0
176
     1
 90
       50
176
     1
 40
0.0
176
     1
 40
1.0
176
     1
 90
        0
176
     1
 62
    18
420
        0
176
     1
 90
       50
176
     1
 90
        3
176
     1
 62
     5
420
      255
176
     1
290
     0
176
     1
 90
       50
176
     1
 90
       50
176
     1
 90
       50
176
     1
290
     0
176
     1
 90
       50
176
     1
 62
   256
176
     0
 40
1.0
176
     0
 90
        2
176
     1
  1
strokes_ogs.tif
176
     1
290
     0
176
     1
 40
1.0
176
     1
 40
1.0
176
     1
1001
ACAD
1000
AcDbSavedByObjectVersion
1070
     0
  0
VISUALSTYLE
  5
3E
102
{ACAD_REACTORS
330
29
102
}
330
29
100
AcDbVisualStyle
  2
Shaded
 70
    27
177
     3
291
     0
 70
    58
 90
        2
176
     1
 90
        2
176
     1
 90
        1
176
     1
 90
        2
176
     1
 40
0.6
176
     1
 40
30.0
176
     1
 62
     7
420
 16777215
176
     1
 90
        0
176
     1
 90
        4
176
     1
 62
     7
176
     1
 62
   257
176
     1
 90
        1
176
     1
 90
        1
176
     1
 40
1.0
176
     1
 90
        8
176
     1
 62
   257
176
     1
 40
1.0
176
     1
 90
        1
176
     1
 90
        6
176
     1
 90
        2
176
     1
 62
     8
420
  7895160
176
     1
 90
        3
176
     1
 90
        0
176
     1
 90
        0
176
     1
290
     0
176
     1
 90
        5
176
     1
 40
0.0
176
     1
 90
        0
176
     1
290
     0
176
     1
290
     1
176
     1
290
     1
176
     1
290
     0
176
     1
290
     0
176
     1
290
     0
176
     1
290
     0
176
     1
290
     0
176
     1
290
     0
176
     1
 90
       50
176
     1
 40
0.0
176
     1
 40
1.0
176
     1
 90
        0
176
     1
 62
    18
420
        0
176
     1
 90
       50
176
     1
 90
        3
176
     1
 62
     5
420
      255
176
     1
290
     0
176
     1
 90
       50
176
     1
 90
       50
176
     1
 90
       50
176
     1
290
     0
176
     1
 90
       50
176
     1
 62
   256
176
     0
 40
1.0
176
     0
 90
        2
176
     1
  1
strokes_ogs.tif
176
     1
290
     0
176
     1
 40
1.0
176
     1
 40
1.0
176
     1
1001
ACAD
1000
AcDbSavedByObjectVersion
1070
     0
  0
VISUALSTYLE
  5
3D
102
{ACAD_REACTORS
330
29
102
}
330
29
100
AcDbVisualStyle
  2
Shaded with edges
 70
    26
177
     3
291
     0
 70
    58
 90
        2
176
     1
 90
        2
176
     1
 90
        1
176
     1
 90
        2
176
     1
 40
0.6
176
     1
 40
30.0
176
     1
 62
     7
420
 16777215
176
     1
 90
        1
176
     1
 90
        2
176
     1
 62
     7
176
     1
 62
   257
176
     1
 90
        2
176
     1
 90
        1
176
     1
 40
1.0
176
     1
 90
        8
176
     1
 62
   257
176
     1
 40
1.0
176
     1
 90
        1
176
     1
 90
        6
176
     1
 90
        2
176
     1
 62
     7
176
     1
 90
        3
176
     1
 90
        0
176
     1
 90
        0
176
     1
290
     0
176
     1
 90
        5
176
     1
 40
0.0
176
     1
 90
        0
176
     1
290
     0
176
     1
290
     1
176
     1
290
     1
176
     1
290
     0
176
     1
290
     0
176
     1
290
     0
176
     1
290
     0
176
     1
290
     0
176
     1
290
     0
176
     1
 90
       50
176
     1
 40
0.0
176
     1
 40
1.0
176
     1
 90
        0
176
     1
 62
    18
420
        0
176
     1
 90
       50
176
     1
 90
        3
176
     1
 62
     5
420
      255
176
     1
290
     0
176
     1
 90
       50
176
     1
 90
       50
176
     1
 90
       50
176
     1
290
     0
176
     1
 90
       50
176
     1
 62
   256
176
     0
 40
1.0
176
     0
 90
        2
176
     1
  1
strokes_ogs.tif
176
     1
290
     0
176
     1
 40
1.0
176
     1
 40
1.0
176
     1
1001
ACAD
1000
AcDbSavedByObjectVersion
1070
     0
  0
VISUALSTYLE
  5
3A
102
{ACAD_REACTORS
330
29
102
}
330
29
100
AcDbVisualStyle
  2
Shades of Gray
 70
    23
177
     3
291
     0
 70
    58
 90
        2
176
     1
 90
        2
176
     1
 90
        3
176
     1
 90
        0
176
     1
 40
0.6
176
     1
 40
30.0
176
     1
 62
     7
420
 16777215
176
     1
 90
        2
176
     1
 90
        2
176
     1
 62
     7
176
     1
 62
     7
176
     1
 90
        1
176
     1
 90
        1
176
     1
 40
40.0
176
     1
 90
        8
176
     1
 62
     7
176
     1
 40
1.0
176
     1
 90
        1
176
     1
 90
        6
176
     1
 90
        2
176
     1
 62
     7
176
     1
 90
        3
176
     1
 90
        0
176
     1
 90
        0
176
     1
290
     0
176
     1
 90
        1
176
     1
 40
0.0
176
     1
 90
        0
176
     1
290
     0
176
     1
290
     1
176
     1
290
     1
176
     1
290
     0
176
     1
290
     0
176
     1
290
     0
176
     1
290
     0
176
     1
290
     0
176
     1
290
     0
176
     1
 90
       50
176
     1
 40
0.0
176
     1
 40
1.0
176
     1
 90
        0
176
     1
 62
    18
420
        0
176
     1
 90
       50
176
     1
 90
        3
176
     1
 62
     5
420
      255
176
     1
290
     0
176
     1
 90
       50
176
     1
 90
       50
176
     1
 90
       50
176
     1
290
     0
176
     1
 90
       50
176
     1
 62
   256
176
     0
 40
1.0
176
     0
 90
        2
176
     1
  1
strokes_ogs.tif
176
     1
290
     0
176
     1
 40
1.0
176
     1
 40
1.0
176
     1
1001
ACAD
1000
AcDbSavedByObjectVersion
1070
     0
  0
VISUALSTYLE
  5
3B
102
{ACAD_REACTORS
330
29
102
}
330
29
100
AcDbVisualStyle
  2
Sketchy
 70
    24
177
     3
291
     0
 70
    58
 90
        1
176
     1
 90
        2
176
     1
 90
        2
176
     1
 90
        0
176
     1
 40
0.6
176
     1
 40
30.0
176
     1
 62
     7
420
 16777215
176
     1
 90
        2
176
     1
 90
        2
176
     1
 62
     7
176
     1
 62
     7
176
     1
 90
        1
176
     1
 90
        1
176
     1
 40
40.0
176
     1
 90
       11
176
     1
 62
     7
176
     1
 40
1.0
176
     1
 90
        1
176
     1
 90
        6
176
     1
 90
        2
176
     1
 62
     7
176
     1
 90
        6
176
     1
 90
        0
176
     1
 90
        0
176
     1
290
     0
176
     1
 90
        1
176
     1
 40
0.0
176
     1
 90
        0
176
     1
290
     0
176
     1
290
     1
176
     1
290
     1
176
     1
290
     0
176
     1
290
     0
176
     1
290
     0
176
     1
290
     0
176
     1
290
     0
176
     1
290
     0
176
     1
 90
       50
176
     1
 40
0.0
176
     1
 40
1.0
176
     1
 90
        0
176
     1
 62
    18
420
        0
176
     1
 90
       50
176
     1
 90
        3
176
     1
 62
     5
420
      255
176
     1
290
     0
176
     1
 90
       50
176
     1
 90
       50
176
     1
 90
       50
176
     1
290
     0
176
     1
 90
       50
176
     1
 62
   256
176
     0
 40
1.0
176
     0
 90
        2
176
     1
  1
strokes_ogs.tif
176
     1
290
     0
176
     1
 40
1.0
176
     1
 40
1.0
176
     1
1001
ACAD
1000
AcDbSavedByObjectVersion
1070
     0
  0
VISUALSTYLE
  5
36
102
{ACAD_REACTORS
330
29
102
}
330
29
100
AcDbVisualStyle
  2
Thicken
 70
    13
177
     3
291
     1
 70
    58
 90
        2
176
     1
 90
        2
176
     1
 90
        0
176
     1
 90
        0
176
     1
 40
0.6
176
     1
 40
30.0
176
     1
 62
     7
420
 16777215
176
     1
 90
        1
176
     1
 90
        4
176
     1
 62
     7
176
     1
 62
   257
176
     1
 90
        1
176
     1
 90
        1
176
     1
 40
1.0
176
     1
 90
       12
176
     1
 62
     7
176
     1
 40
1.0
176
     1
 90
        1
176
     1
 90
        6
176
     1
 90
        2
176
     1
 62
     7
176
     1
 90
        5
176
     1
 90
        0
176
     1
 90
        0
176
     1
290
     0
176
     1
 90
        1
176
     1
 40
0.0
176
     1
 90
        0
176
     1
290
     0
176
     1
290
     1
176
     1
290
     1
176
     1
290
     0
176
     1
290
     0
176
     1
290
     0
176
     1
290
     0
176
     1
290
     0
176
     1
290
     0
176
     1
 90
       50
176
     1
 40
0.0
176
     1
 40
1.0
176
     1
 90
        0
176
     1
 62
    18
420
        0
176
     1
 90
       50
176
     1
 90
        3
176
     1
 62
     5
420
      255
176
     1
290
     0
176
     1
 90
       50
176
     1
 90
       50
176
     1
 90
       50
176
     1
290
     0
176
     1
 90
       50
176
     1
 62
   256
176
     0
 40
1.0
176
     0
 90
        2
176
     1
  1
strokes_ogs.tif
176
     1
290
     0
176
     1
 40
1.0
176
     1
 40
1.0
176
     1
1001
ACAD
1000
AcDbSavedByObjectVersion
1070
     0
  0
VISUALSTYLE
  5
30
102
{ACAD_REACTORS
330
29
102
}
330
29
100
AcDbVisualStyle
  2
Wireframe
 70
     5
177
     3
291
     0
 70
    58
 90
        0
176
     1
 90
        2
176
     1
 90
        0
176
     1
 90
        0
176
     1
 40
0.6
176
     1
 40
30.0
176
     1
 62
     7
420
 16777215
176
     1
 90
        1
176
     1
 90
        4
176
     1
 62
     7
176
     1
 62
   257
176
     1
 90
        1
176
     1
 90
        1
176
     1
 40
1.0
176
     1
 90
        0
176
     1
 62
   257
176
     1
 40
1.0
176
     1
 90
        1
176
     1
 90
        6
176
     1
 90
        2
176
     1
 62
     7
176
     1
 90
        3
176
     1
 90
        0
176
     1
 90
        0
176
     1
290
     0
176
     1
 90
        1
176
     1
 40
0.0
176
     1
 90
        0
176
     1
290
     0
176
     1
290
     1
176
     1
290
     1
176
     1
290
     0
176
     1
290
     0
176
     1
290
     0
176
     1
290
     0
176
     1
290
     0
176
     1
290
     0
176
     1
 90
       50
176
     1
 40
0.0
176
     1
 40
1.0
176
     1
 90
        0
176
     1
 62
    18
420
        0
176
     1
 90
       50
176
     1
 90
        3
176
     1
 62
     5
420
      255
176
     1
290
     0
176
     1
 90
       50
176
     1
 90
       50
176
     1
 90
       50
176
     1
290
     0
176
     1
 90
       50
176
     1
 62
   256
176
     0
 40
1.0
176
     0
 90
        2
176
     1
  1
strokes_ogs.tif
176
     1
290
     0
176
     1
 40
1.0
176
     1
 40
1.0
176
     1
1001
ACAD
1000
AcDbSavedByObjectVersion
1070
     0
  0
VISUALSTYLE
  5
3C
102
{ACAD_REACTORS
330
29
102
}
330
29
100
AcDbVisualStyle
  2
X-Ray
 70
    25
177
     3
291
     0
 70
    58
 90
        2
176
     1
 90
        2
176
     1
 90
        1
176
     1
 90
        1
176
     1
 40
0.5
176
     1
 40
30.0
176
     1
 62
     7
420
 16777215
176
     1
 90
        1
176
     1
 90
        0
176
     1
 62
     7
176
     1
 62
   257
176
     1
 90
        1
176
     1
 90
        1
176
     1
 40
1.0
176
     1
 90
        8
176
     1
 62
     7
176
     1
 40
1.0
176
     1
 90
        1
176
     1
 90
        6
176
     1
 90
        2
176
     1
 62
     7
176
     1
 90
        3
176
     1
 90
        0
176
     1
 90
        0
176
     1
290
     0
176
     1
 90
       13
176
     1
 40
0.0
176
     1
 90
        0
176
     1
290
     0
176
     1
290
     1
176
     1
290
     1
176
     1
290
     0
176
     1
290
     0
176
     1
290
     0
176
     1
290
     0
176
     1
290
     0
176
     1
290
     0
176
     1
 90
       50
176
     1
 40
0.0
176
     1
 40
1.0
176
     1
 90
        0
176
     1
 62
    18
420
        0
176
     1
 90
       50
176
     1
 90
        3
176
     1
 62
     5
420
      255
176
     1
290
     0
176
     1
 90
       50
176
     1
 90
       50
176
     1
 90
       50
176
     1
290
     0
176
     1
 90
       50
176
     1
 62
   256
176
     0
 40
1.0
176
     0
 90
        2
176
     1
  1
strokes_ogs.tif
176
     1
290
     0
176
     1
 40
1.0
176
     1
 40
1.0
176
     1
1001
ACAD
1000
AcDbSavedByObjectVersion
1070
     0
  0
DICTIONARYVAR
  5
C69
102
{ACAD_REACTORS
330
C63
102
}
330
C63
100
DictionaryVariables
280
     0
  1
1:1
  0
DICTIONARYVAR
  5
C65
102
{ACAD_REACTORS
330
C63
102
}
330
C63
100
DictionaryVariables
280
     0
  1
STANDARD
  0
DICTIONARYVAR
  5
C64
102
{ACAD_REACTORS
330
C63
102
}
330
C63
100
DictionaryVariables
280
     0
  1
STANDARD
  0
DICTIONARYVAR
  5
C66
102
{ACAD_REACTORS
330
C63
102
}
330
C63
100
DictionaryVariables
280
     0
  1
Imperial24
  0
DICTIONARYVAR
  5
C67
102
{ACAD_REACTORS
330
C63
102
}
330
C63
100
DictionaryVariables
280
     0
  1
Imperial24
  0
DICTIONARYVAR
  5
C6B
102
{ACAD_REACTORS
330
C63
102
}
330
C63
100
DictionaryVariables
280
     0
  1
1
  0
DICTIONARYVAR
  5
C6C
102
{ACAD_REACTORS
330
C63
102
}
330
C63
100
DictionaryVariables
280
     0
  1
15
  0
DICTIONARYVAR
  5
C6A
102
{ACAD_REACTORS
330
C63
102
}
330
C63
100
DictionaryVariables
280
     0
  1
0
  0
DICTIONARYVAR
  5
C68
102
{ACAD_REACTORS
330
C63
102
}
330
C63
100
DictionaryVariables
280
     0
  1
0
  0
DICTIONARY
  5
CFB
102
{ACAD_REACTORS
330
CF9
102
}
330
CF9
100
AcDbDictionary
281
     1
  0
DICTIONARY
  5
CFA
102
{ACAD_REACTORS
330
CF9
102
}
330
CF9
100
AcDbDictionary
281
     1
  3
2316187027648
350
CF4
  3
2316187027664
350
CF5
  3
2316187027680
350
CF6
  3
2316187027696
350
CF7
  3
2316187027712
350
CF8
  0
DICTIONARY
  5
CFE
330
6A
100
AcDbDictionary
280
     1
281
     1
  3
ACAD_XREC_ROUNDTRIP
360
CFF
  0
DICTIONARY
  5
1A
330
19
100
AcDbDictionary
280
     1
281
     1
  3
BUMPTILE
360
1C
  3
DIFFUSETILE
360
1B
  3
OPACITYTILE
360
1F
  3
REFLECTIONTILE
360
1E
  3
REFRACTIONTILE
360
20
  3
SPECULARTILE
360
1D
  0
DICTIONARY
  5
12
330
11
100
AcDbDictionary
280
     1
281
     1
  3
BUMPTILE
360
14
  3
DIFFUSETILE
360
13
  3
OPACITYTILE
360
17
  3
REFLECTIONTILE
360
16
  3
REFRACTIONTILE
360
18
  3
SPECULARTILE
360
15
  0
DICTIONARY
  5
22
330
21
100
AcDbDictionary
280
     1
281
     1
  3
BUMPTILE
360
24
  3
DIFFUSETILE
360
23
  3
OPACITYTILE
360
27
  3
REFLECTIONTILE
360
26
  3
REFRACTIONTILE
360
28
  3
SPECULARTILE
360
25
  0
XRECORD
  5
D03
102
{ACAD_REACTORS
330
D01
102
}
330
D01
100
AcDbXrecord
280
     1
102
ACAD_MENTALRAY_SETTING_RT
330
C44
 70
     1
  0
XRECORD
  5
D02
102
{ACAD_REACTORS
330
D01
102
}
330
D01
100
AcDbXrecord
280
     1
 70
     2
 71
     3
 72
     0
  0
DICTIONARY
  5
CFC
330
68
100
AcDbDictionary
280
     1
281
     1
  3
ACAD_XREC_ROUNDTRIP
360
CFD
  0
DICTIONARY
  5
CF1
330
64
100
AcDbDictionary
280
     1
281
     1
  3
ACAD_ROUNDTRIP_2008_TABLESTYLE_CELLSTYLEMAP
360
CF2
  0
XRECORD
  5
CF4
102
{ACAD_REACTORS
330
CFA
102
}
330
CFA
100
AcDbXrecord
280
     1
  1
AcDb_Thumbnail_Schema
102
{ATTRRECORD
341
CF5
  2
AcDbDs::TreatedAsObjectData
280
     1
291
     1
102
ATTRRECORD}
102
{ATTRRECORD
341
CF6
  2
AcDbDs::Legacy
280
     1
291
     1
102
ATTRRECORD}
  2
AcDbDs::ID
280
    10
 91
        8
102
{ATTRRECORD
341
CF7
  2
AcDs:Indexable
280
     1
291
     1
102
ATTRRECORD}
102
{ATTRRECORD
341
CF8
  2
AcDbDs::HandleAttribute
280
     7
282
     1
102
ATTRRECORD}
  2
Thumbnail_Data
280
    15
 91
        0
  0
XRECORD
  5
CF5
102
{ACAD_REACTORS
330
CFA
102
}
330
CFA
100
AcDbXrecord
280
     1
  1
AcDbDs::TreatedAsObjectDataSchema
  2
AcDbDs::TreatedAsObjectData
280
     1
 91
        0
  0
XRECORD
  5
CF6
102
{ACAD_REACTORS
330
CFA
102
}
330
CFA
100
AcDbXrecord
280
     1
  1
AcDbDs::LegacySchema
  2
AcDbDs::Legacy
280
     1
 91
        0
  0
XRECORD
  5
CF7
102
{ACAD_REACTORS
330
CFA
102
}
330
CFA
100
AcDbXrecord
280
     1
  1
AcDbDs::IndexedPropertySchema
  2
AcDs:Indexable
280
     1
 91
        0
  0
XRECORD
  5
CF8
102
{ACAD_REACTORS
330
CFA
102
}
330
CFA
100
AcDbXrecord
280
     1
  1
AcDbDs::HandleAttributeSchema
  2
AcDbDs::HandleAttribute
280
     7
 91
        1
284
     1
  0
XRECORD
  5
CFF
102
{ACAD_REACTORS
330
CFE
102
}
330
CFE
100
AcDbXrecord
280
     1
102
DISPLAYNAME
  1
Imperial24
102
FLAGS
 90
        0
  0
XRECORD
  5
1C
102
{ACAD_REACTORS
330
1A
102
}
330
1A
100
AcDbXrecord
280
     1
270
     1
271
     1
  0
XRECORD
  5
1B
102
{ACAD_REACTORS
330
1A
102
}
330
1A
100
AcDbXrecord
280
     1
270
     1
271
     1
  0
XRECORD
  5
1F
102
{ACAD_REACTORS
330
1A
102
}
330
1A
100
AcDbXrecord
280
     1
270
     1
271
     1
  0
XRECORD
  5
1E
102
{ACAD_REACTORS
330
1A
102
}
330
1A
100
AcDbXrecord
280
     1
270
     1
271
     1
  0
XRECORD
  5
20
102
{ACAD_REACTORS
330
1A
102
}
330
1A
100
AcDbXrecord
280
     1
270
     1
271
     1
  0
XRECORD
  5
1D
102
{ACAD_REACTORS
330
1A
102
}
330
1A
100
AcDbXrecord
280
     1
270
     1
271
     1
  0
XRECORD
  5
14
102
{ACAD_REACTORS
330
12
102
}
330
12
100
AcDbXrecord
280
     1
270
     1
271
     1
  0
XRECORD
  5
13
102
{ACAD_REACTORS
330
12
102
}
330
12
100
AcDbXrecord
280
     1
270
     1
271
     1
  0
XRECORD
  5
17
102
{ACAD_REACTORS
330
12
102
}
330
12
100
AcDbXrecord
280
     1
270
     1
271
     1
  0
XRECORD
  5
16
102
{ACAD_REACTORS
330
12
102
}
330
12
100
AcDbXrecord
280
     1
270
     1
271
     1
  0
XRECORD
  5
18
102
{ACAD_REACTORS
330
12
102
}
330
12
100
AcDbXrecord
280
     1
270
     1
271
     1
  0
XRECORD
  5
15
102
{ACAD_REACTORS
330
12
102
}
330
12
100
AcDbXrecord
280
     1
270
     1
271
     1
  0
XRECORD
  5
24
102
{ACAD_REACTORS
330
22
102
}
330
22
100
AcDbXrecord
280
     1
270
     1
271
     1
  0
XRECORD
  5
23
102
{ACAD_REACTORS
330
22
102
}
330
22
100
AcDbXrecord
280
     1
270
     1
271
     1
  0
XRECORD
  5
27
102
{ACAD_REACTORS
330
22
102
}
330
22
100
AcDbXrecord
280
     1
270
     1
271
     1
  0
XRECORD
  5
26
102
{ACAD_REACTORS
330
22
102
}
330
22
100
AcDbXrecord
280
     1
270
     1
271
     1
  0
XRECORD
  5
28
102
{ACAD_REACTORS
330
22
102
}
330
22
100
AcDbXrecord
280
     1
270
     1
271
     1
  0
XRECORD
  5
25
102
{ACAD_REACTORS
330
22
102
}
330
22
100
AcDbXrecord
280
     1
270
     1
271
     1
  0
XRECORD
  5
CFD
102
{ACAD_REACTORS
330
CFC
102
}
330
CFC
100
AcDbXrecord
280
     1
102
DISPLAYNAME
  1
Imperial24
102
FLAGS
 90
        0
  0
CELLSTYLEMAP
  5
CF2
102
{ACAD_REACTORS
330
CF1
102
}
330
CF1
100
AcDbCellStyleMap
 90
        3
300
CELLSTYLE
  1
TABLEFORMAT_BEGIN
 90
        5
170
     1
 91
        0
 92
    32768
 62
   257
 93
        1
300
CONTENTFORMAT
  1
CONTENTFORMAT_BEGIN
 90
        0
 91
        0
 92
      512
 93
        0
300

 40
0.0
140
1.0
 94
        5
 62
     0
340
55
144
0.25
309
CONTENTFORMAT_END
171
     0
 94
        0
309
TABLEFORMAT_END
  1
CELLSTYLE_BEGIN
 90
        1
 91
        1
300
_TITLE
309
CELLSTYLE_END
300
CELLSTYLE
  1
TABLEFORMAT_BEGIN
 90
        5
170
     1
 91
        0
 92
        0
 62
   257
 93
        1
300
CONTENTFORMAT
  1
CONTENTFORMAT_BEGIN
 90
        0
 91
        0
 92
      512
 93
        0
300

 40
0.0
140
1.0
 94
        5
 62
     0
340
55
144
0.18
309
CONTENTFORMAT_END
171
     0
 94
        0
309
TABLEFORMAT_END
  1
CELLSTYLE_BEGIN
 90
        2
 91
        1
300
_HEADER
309
CELLSTYLE_END
300
CELLSTYLE
  1
TABLEFORMAT_BEGIN
 90
        5
170
     1
 91
        0
 92
        0
 62
   257
 93
        1
300
CONTENTFORMAT
  1
CONTENTFORMAT_BEGIN
 90
        0
 91
        0
 92
      512
 93
        0
300

 40
0.0
140
1.0
 94
        2
 62
     0
340
55
144
0.18
309
CONTENTFORMAT_END
171
     0
 94
        0
309
TABLEFORMAT_END
  1
CELLSTYLE_BEGIN
 90
        3
 91
        2
300
_DATA
309
CELLSTYLE_END
  0
ENDSEC
  0
SECTION
  2
ACDSDATA
 70
     2
 71
     8
  0
ACDSSCHEMA
 90
        0
  1
AcDb_Thumbnail_Schema
  2
AcDbDs::ID
280
    10
 91
        8
  2
Thumbnail_Data
280
    15
 91
        0
101
ACDSRECORD
 95
        0
 90
        1
  2
AcDbDs::TreatedAsObjectData
280
     1
291
     1
101
ACDSRECORD
 95
        0
 90
        2
  2
AcDbDs::Legacy
280
     1
291
     1
101
ACDSRECORD
  1
AcDbDs::ID
 90
        3
  2
AcDs:Indexable
280
     1
291
     1
101
ACDSRECORD
  1
AcDbDs::ID
 90
        4
  2
AcDbDs::HandleAttribute
280
     7
282
     1
  0
ACDSSCHEMA
 90
        1
  1
AcDbDs::TreatedAsObjectDataSchema
  2
AcDbDs::TreatedAsObjectData
280
     1
 91
        0
  0
ACDSSCHEMA
 90
        2
  1
AcDbDs::LegacySchema
  2
AcDbDs::Legacy
280
     1
 91
        0
  0
ACDSSCHEMA
 90
        3
  1
AcDbDs::IndexedPropertySchema
  2
AcDs:Indexable
280
     1
 91
        0
  0
ACDSSCHEMA
 90
        4
  1
AcDbDs::HandleAttributeSchema
  2
AcDbDs::HandleAttribute
280
     7
 91
        1
284
     1
  0
ACDSRECORD
 90
        0
  2
AcDbDs::ID
280
    10
320
72
  2
Thumbnail_Data
280
    15
 94
     1275
310
89504E470D0A1A0A0000000D49484452000001000000008108030000001837949D00000300504C5445D6D6D6FFFFFFD6D6D60000000000000000000000000000000000000000000000000000330000660000990000CC0000FF0033000033330033660033990033CC0033FF0066000066330066660066990066CC0066FF0099
310
000099330099660099990099CC0099FF00CC0000CC3300CC6600CC9900CCCC00CCFF00FF0000FF3300FF6600FF9900FFCC00FFFF3300003300333300663300993300CC3300FF3333003333333333663333993333CC3333FF3366003366333366663366993366CC3366FF3399003399333399663399993399CC3399FF33CC00
310
33CC3333CC6633CC9933CCCC33CCFF33FF0033FF3333FF6633FF9933FFCC33FFFF6600006600336600666600996600CC6600FF6633006633336633666633996633CC6633FF6666006666336666666666996666CC6666FF6699006699336699666699996699CC6699FF66CC0066CC3366CC6666CC9966CCCC66CCFF66FF0066
310
FF3366FF6666FF9966FFCC66FFFF9900009900339900669900999900CC9900FF9933009933339933669933999933CC9933FF9966009966339966669966999966CC9966FF9999009999339999669999999999CC9999FF99CC0099CC3399CC6699CC9999CCCC99CCFF99FF0099FF3399FF6699FF9999FFCC99FFFFCC0000CC00
310
33CC0066CC0099CC00CCCC00FFCC3300CC3333CC3366CC3399CC33CCCC33FFCC6600CC6633CC6666CC6699CC66CCCC66FFCC9900CC9933CC9966CC9999CC99CCCC99FFCCCC00CCCC33CCCC66CCCC99CCCCCCCCCCFFCCFF00CCFF33CCFF66CCFF99CCFFCCCCFFFFFF0000FF0033FF0066FF0099FF00CCFF00FFFF3300FF3333
310
FF3366FF3399FF33CCFF33FFFF6600FF6633FF6666FF6699FF66CCFF66FFFF9900FF9933FF9966FF9999FF99CCFF99FFFFCC00FFCC33FFCC66FFCC99FFCCCCFFCCFFFFFF00FFFF33FFFF66FFFF99FFFFCCFFFFFF0000000D0D0D1A1A1A2828283535354343435050505D5D5D6B6B6B787878868686939393A1A1A1AEAEAEBB
310
BBBBC9C9C9D6D6D6E4E4E4F1F1F1FFFFFF0000000000000000000000000000000000000000000000000000000000008A60A2FA000001B64944415478DAED9C496EC4300C04F9FF67F64B828C566B31721B845D05646220736189A228C9480400000000007C05E9F3F3FB0B019EF17FA2F755300B90E90C50C13305D4059434
310
F0087A9D0245804F063C865AD1C7BE4E83FC89D0467C89563602624AFA45807C32A036400A6DD520BB80A9E83F626D75C045402CC95E9E9D04D4354073FC61310B745A13DB8785001D3603B109D0A22A570ECCAD505D0A5A268CBE5089051C06F75105A5483D13EE91957CC85F09AEB169344A7A57F5EF0F018E32C6C8ABB9
310
C8BC17785917533704AFB1F53F48696740BC0A88DE1346DE4EE0BAEDD52420F719D1C580E6CAA8C4D1DF2ABCCE0B45D636600F515B2DCC3AFE111A8F8FE2387F27F31AB8AF8553FB9FBC0BD671296C878411F94F8554B7C08B80BA029ADC10AD8D4EBF2A30BA25DD33DDE35CFCBC2D1EB7A4668C1362CFF8A72C307E49247D
310
EFF75701618AD68D80A900DBF8DBBD1802CC0504028C05C83BFE7A3A8400042000010840000210800053030808E6000210800004200001084000021080000420C04F80B501042000010840000210E01DBFF38B72F6EF8A9A0BB0F91F5200000000000000000000000000000000DFE00730F845E504BB83150000000049454E
310
44AE426082
  0
ENDSEC
  0
EOF
